999
Erzeugt mit innoplus bad 
0
SECTION
2
HEADER
9
$ACADVER
1
AC1009
9
$DWGCODEPAGE
3
ISO8859-1
0
ENDSEC
0
SECTION
2
TABLES
0
TABLE
2
LAYER
70
1
0
LAYER
2
0
70
0
62
7
6
CONTINUOUS
0
ENDTAB
0
ENDSEC
0
SECTION
2
ENTITIES
0
LINE
8
0
6
CONTINUOUS
10
-360.000000
20
-240.000000
30
0.0
11
-360.000000
21
-267.500000
31
0.0
0
LINE
8
0
6
CONTINUOUS
10
-357.500000
20
-240.000000
30
0.0
11
-357.500000
21
-267.500000
31
0.0
0
LINE
8
0
6
CONTINUOUS
10
360.000000
20
-267.500000
30
0.0
11
360.000000
21
-240.000000
31
0.0
0
LINE
8
0
6
CONTINUOUS
10
357.500000
20
-240.000000
30
0.0
11
357.500000
21
-267.500000
31
0.0
0
LINE
8
0
6
CONTINUOUS
10
357.500000
20
-270.000000
30
0.0
11
360.000000
21
-267.500000
31
0.0
0
LINE
8
0
6
CONTINUOUS
10
356.464466
20
-270.000000
30
0.0
11
357.500000
21
-270.000000
31
0.0
0
LINE
8
0
6
CONTINUOUS
10
360.000000
20
-267.500000
30
0.0
11
357.500000
21
-267.500000
31
0.0
0
LINE
8
0
6
CONTINUOUS
10
-356.464466
20
-270.000000
30
0.0
11
356.464466
21
-270.000000
31
0.0
0
LINE
8
0
6
CONTINUOUS
10
357.500000
20
-267.500000
30
0.0
11
-357.500000
21
-267.500000
31
0.0
0
LINE
8
0
6
CONTINUOUS
10
-357.500000
20
-270.000000
30
0.0
11
-356.464466
21
-270.000000
31
0.0
0
LINE
8
0
6
CONTINUOUS
10
-360.000000
20
-267.500000
30
0.0
11
-357.500000
21
-270.000000
31
0.0
0
LINE
8
0
6
CONTINUOUS
10
-357.500000
20
-267.500000
30
0.0
11
-360.000000
21
-267.500000
31
0.0
0
LINE
8
0
6
CONTINUOUS
10
372.500000
20
270.000000
30
0.0
11
371.464466
21
270.000000
31
0.0
0
LINE
8
0
6
CONTINUOUS
10
375.000000
20
267.500000
30
0.0
11
372.500000
21
270.000000
31
0.0
0
LINE
8
0
6
CONTINUOUS
10
371.464466
20
270.000000
30
0.0
11
-371.464466
21
270.000000
31
0.0
0
LINE
8
0
6
CONTINUOUS
10
-372.500000
20
270.000000
30
0.0
11
-375.000000
21
267.500000
31
0.0
0
LINE
8
0
6
CONTINUOUS
10
-371.464466
20
270.000000
30
0.0
11
-372.500000
21
270.000000
31
0.0
0
LINE
8
0
6
CONTINUOUS
10
375.000000
20
-237.500000
30
0.0
11
375.000000
21
267.500000
31
0.0
0
LINE
8
0
6
CONTINUOUS
10
375.000000
20
267.500000
30
0.0
11
372.500000
21
267.500000
31
0.0
0
LINE
8
0
6
CONTINUOUS
10
372.500000
20
-237.500000
30
0.0
11
372.500000
21
267.500000
31
0.0
0
LINE
8
0
6
CONTINUOUS
10
372.500000
20
267.500000
30
0.0
11
-372.500000
21
267.500000
31
0.0
0
LINE
8
0
6
CONTINUOUS
10
-372.500000
20
-237.500000
30
0.0
11
-372.500000
21
267.500000
31
0.0
0
LINE
8
0
6
CONTINUOUS
10
-375.000000
20
267.500000
30
0.0
11
-375.000000
21
-237.500000
31
0.0
0
LINE
8
0
6
CONTINUOUS
10
-372.500000
20
267.500000
30
0.0
11
-375.000000
21
267.500000
31
0.0
0
LINE
8
0
6
CONTINUOUS
10
372.500000
20
-240.000000
30
0.0
11
375.000000
21
-237.500000
31
0.0
0
LINE
8
0
6
CONTINUOUS
10
371.464466
20
-240.000000
30
0.0
11
372.500000
21
-240.000000
31
0.0
0
LINE
8
0
6
CONTINUOUS
10
375.000000
20
-237.500000
30
0.0
11
372.500000
21
-237.500000
31
0.0
0
LINE
8
0
6
CONTINUOUS
10
-371.464466
20
-240.000000
30
0.0
11
371.464466
21
-240.000000
31
0.0
0
LINE
8
0
6
CONTINUOUS
10
372.500000
20
-237.500000
30
0.0
11
-372.500000
21
-237.500000
31
0.0
0
LINE
8
0
6
CONTINUOUS
10
-372.500000
20
-240.000000
30
0.0
11
-371.464466
21
-240.000000
31
0.0
0
LINE
8
0
6
CONTINUOUS
10
-375.000000
20
-237.500000
30
0.0
11
-372.500000
21
-240.000000
31
0.0
0
LINE
8
0
6
CONTINUOUS
10
-372.500000
20
-237.500000
30
0.0
11
-375.000000
21
-237.500000
31
0.0
0
LINE
8
0
6
CONTINUOUS
10
371.464466
20
270.000000
30
0.0
11
372.500000
21
270.000000
31
0.0
0
LINE
8
0
6
CONTINUOUS
10
-371.464466
20
270.000000
30
0.0
11
371.464466
21
270.000000
31
0.0
0
LINE
8
0
6
CONTINUOUS
10
-372.500000
20
270.000000
30
0.0
11
-371.464466
21
270.000000
31
0.0
0
ENDSEC
0
EOF
