  0
SECTION
  2
HEADER
  9
$ACADVER
  1
AC1015
  9
$ACADMAINTVER
 70
     6
  9
$DWGCODEPAGE
  3
ANSI_1252
  9
$INSBASE
 10
0.0
 20
0.0
 30
0.0
  9
$EXTMIN
 10
0.0
 20
0.0
 30
0.0
  9
$EXTMAX
 10
297.0
 20
210.0
 30
0.0
  9
$LIMMIN
 10
0.0
 20
0.0
  9
$LIMMAX
 10
297.0
 20
210.0
  9
$ORTHOMODE
 70
     0
  9
$REGENMODE
 70
     1
  9
$FILLMODE
 70
     1
  9
$QTEXTMODE
 70
     0
  9
$MIRRTEXT
 70
     1
  9
$LTSCALE
 40
1.0
  9
$ATTMODE
 70
     1
  9
$TEXTSIZE
 40
3.5
  9
$TRACEWID
 40
1.0
  9
$TEXTSTYLE
  7
Standard
  9
$CLAYER
  8
0
  9
$CELTYPE
  6
ByLayer
  9
$CECOLOR
 62
   256
  9
$CELTSCALE
 40
1.0
  9
$DISPSILH
 70
     0
  9
$DIMSCALE
 40
1.0
  9
$DIMASZ
 40
1.5
  9
$DIMEXO
 40
1.0
  9
$DIMDLI
 40
3.75
  9
$DIMRND
 40
0.0
  9
$DIMDLE
 40
0.0
  9
$DIMEXE
 40
1.0
  9
$DIMTP
 40
0.0
  9
$DIMTM
 40
0.0
  9
$DIMTXT
 40
2.0
  9
$DIMCEN
 40
2.5
  9
$DIMTSZ
 40
0.0
  9
$DIMTOL
 70
     0
  9
$DIMLIM
 70
     0
  9
$DIMTIH
 70
     1
  9
$DIMTOH
 70
     1
  9
$DIMSE1
 70
     0
  9
$DIMSE2
 70
     0
  9
$DIMTAD
 70
     1
  9
$DIMZIN
 70
     1
  9
$DIMBLK
  1

  9
$DIMASO
 70
     1
  9
$DIMSHO
 70
     1
  9
$DIMPOST
  1

  9
$DIMAPOST
  1

  9
$DIMALT
 70
     0
  9
$DIMALTD
 70
     3
  9
$DIMALTF
 40
0.0393700787
  9
$DIMLFAC
 40
10.0
  9
$DIMTOFL
 70
     1
  9
$DIMTVP
 40
0.0
  9
$DIMTIX
 70
     0
  9
$DIMSOXD
 70
     0
  9
$DIMSAH
 70
     0
  9
$DIMBLK1
  1

  9
$DIMBLK2
  1

  9
$DIMSTYLE
  2
ISO-25
  9
$DIMCLRD
 70
     0
  9
$DIMCLRE
 70
     0
  9
$DIMCLRT
 70
     0
  9
$DIMTFAC
 40
1.0
  9
$DIMGAP
 40
1.524
  9
$DIMJUST
 70
     0
  9
$DIMSD1
 70
     0
  9
$DIMSD2
 70
     0
  9
$DIMTOLJ
 70
     0
  9
$DIMTZIN
 70
     1
  9
$DIMALTZ
 70
     0
  9
$DIMALTTZ
 70
     0
  9
$DIMUPT
 70
     0
  9
$DIMDEC
 70
     1
  9
$DIMTDEC
 70
     1
  9
$DIMALTU
 70
     2
  9
$DIMALTTD
 70
     3
  9
$DIMTXSTY
  7
Standard
  9
$DIMAUNIT
 70
     0
  9
$DIMADEC
 70
     2
  9
$DIMALTRND
 40
0.0
  9
$DIMAZIN
 70
     0
  9
$DIMDSEP
 70
    44
  9
$DIMATFIT
 70
     3
  9
$DIMFRAC
 70
     0
  9
$DIMLDRBLK
  1

  9
$DIMLUNIT
 70
     2
  9
$DIMLWD
 70
    -2
  9
$DIMLWE
 70
    -2
  9
$DIMTMOVE
 70
     0
  9
$LUNITS
 70
     2
  9
$LUPREC
 70
     2
  9
$SKETCHINC
 40
1.0
  9
$FILLETRAD
 40
10.0
  9
$AUNITS
 70
     0
  9
$AUPREC
 70
     2
  9
$MENU
  1
.
  9
$ELEVATION
 40
0.0
  9
$PELEVATION
 40
0.0
  9
$THICKNESS
 40
0.0
  9
$LIMCHECK
 70
     0
  9
$CHAMFERA
 40
0.0
  9
$CHAMFERB
 40
0.0
  9
$CHAMFERC
 40
0.0
  9
$CHAMFERD
 40
0.0
  9
$SKPOLY
 70
     0
  9
$TDCREATE
 40
2457467.428625011
  9
$TDUCREATE
 40
2457466.970291678
  9
$TDUPDATE
 40
2457467.428625197
  9
$TDUUPDATE
 40
2457466.970291863
  9
$TDINDWG
 40
0.0000000116
  9
$TDUSRTIMER
 40
0.0000000116
  9
$USRTIMER
 70
     1
  9
$ANGBASE
 50
0.0
  9
$ANGDIR
 70
     0
  9
$PDMODE
 70
     0
  9
$PDSIZE
 40
-1.0
  9
$PLINEWID
 40
0.0
  9
$SPLFRAME
 70
     0
  9
$SPLINETYPE
 70
     6
  9
$SPLINESEGS
 70
     8
  9
$HANDSEED
  5
B3
  9
$SURFTAB1
 70
     6
  9
$SURFTAB2
 70
     6
  9
$SURFTYPE
 70
     6
  9
$SURFU
 70
     6
  9
$SURFV
 70
     6
  9
$UCSBASE
  2

  9
$UCSNAME
  2

  9
$UCSORG
 10
0.0
 20
0.0
 30
0.0
  9
$UCSXDIR
 10
1.0
 20
0.0
 30
0.0
  9
$UCSYDIR
 10
0.0
 20
1.0
 30
0.0
  9
$UCSORTHOREF
  2

  9
$UCSORTHOVIEW
 70
     0
  9
$UCSORGTOP
 10
0.0
 20
0.0
 30
0.0
  9
$UCSORGBOTTOM
 10
0.0
 20
0.0
 30
0.0
  9
$UCSORGLEFT
 10
0.0
 20
0.0
 30
0.0
  9
$UCSORGRIGHT
 10
0.0
 20
0.0
 30
0.0
  9
$UCSORGFRONT
 10
0.0
 20
0.0
 30
0.0
  9
$UCSORGBACK
 10
0.0
 20
0.0
 30
0.0
  9
$PUCSBASE
  2

  9
$PUCSNAME
  2

  9
$PUCSORG
 10
0.0
 20
0.0
 30
0.0
  9
$PUCSXDIR
 10
1.0
 20
0.0
 30
0.0
  9
$PUCSYDIR
 10
0.0
 20
1.0
 30
0.0
  9
$PUCSORTHOREF
  2

  9
$PUCSORTHOVIEW
 70
     0
  9
$PUCSORGTOP
 10
0.0
 20
0.0
 30
0.0
  9
$PUCSORGBOTTOM
 10
0.0
 20
0.0
 30
0.0
  9
$PUCSORGLEFT
 10
0.0
 20
0.0
 30
0.0
  9
$PUCSORGRIGHT
 10
0.0
 20
0.0
 30
0.0
  9
$PUCSORGFRONT
 10
0.0
 20
0.0
 30
0.0
  9
$PUCSORGBACK
 10
0.0
 20
0.0
 30
0.0
  9
$USERI1
 70
     0
  9
$USERI2
 70
     0
  9
$USERI3
 70
     0
  9
$USERI4
 70
     0
  9
$USERI5
 70
     0
  9
$USERR1
 40
0.0
  9
$USERR2
 40
0.0
  9
$USERR3
 40
0.0
  9
$USERR4
 40
0.0
  9
$USERR5
 40
0.0
  9
$WORLDVIEW
 70
     1
  9
$SHADEDGE
 70
     3
  9
$SHADEDIF
 70
    70
  9
$TILEMODE
 70
     1
  9
$MAXACTVP
 70
    64
  9
$PINSBASE
 10
0.0
 20
0.0
 30
0.0
  9
$PLIMCHECK
 70
     0
  9
$PEXTMIN
 10
1.0000000000E+20
 20
1.0000000000E+20
 30
1.0000000000E+20
  9
$PEXTMAX
 10
-1.0000000000E+20
 20
-1.0000000000E+20
 30
-1.0000000000E+20
  9
$PLIMMIN
 10
0.0
 20
0.0
  9
$PLIMMAX
 10
420.0
 20
297.0
  9
$UNITMODE
 70
     0
  9
$VISRETAIN
 70
     1
  9
$PLINEGEN
 70
     0
  9
$PSLTSCALE
 70
     1
  9
$TREEDEPTH
 70
  3020
  9
$CMLSTYLE
  2
Standard
  9
$CMLJUST
 70
     0
  9
$CMLSCALE
 40
20.0
  9
$PROXYGRAPHICS
 70
     1
  9
$MEASUREMENT
 70
     1
  9
$CELWEIGHT
370
    -1
  9
$ENDCAPS
280
     0
  9
$JOINSTYLE
280
     0
  9
$LWDISPLAY
290
     1
  9
$INSUNITS
 70
     4
  9
$HYPERLINKBASE
  1

  9
$STYLESHEET
  1

  9
$XEDIT
290
     1
  9
$CEPSNTYPE
380
     0
  9
$PSTYLEMODE
290
     1
  9
$FINGERPRINTGUID
  2
{409A643B-5382-4B7E-AC3E-8649A30D9B73}
  9
$VERSIONGUID
  2
{FAEB1C32-E019-11D5-929B-00C0DF256EC4}
  9
$EXTNAMES
290
     1
  9
$PSVPSCALE
 40
0.0
  9
$OLESTARTUP
290
     0
  0
ENDSEC
  0
SECTION
  2
CLASSES
  0
CLASS
  1
ACDBDICTIONARYWDFLT
  2
AcDbDictionaryWithDefault
  3
ObjectDBX Classes
 90
        0
280
     0
281
     0
  0
CLASS
  1
VISUALSTYLE
  2
AcDbVisualStyle
  3
ObjectDBX Classes
 90
     4095
280
     0
281
     0
  0
CLASS
  1
MATERIAL
  2
AcDbMaterial
  3
ObjectDBX Classes
 90
     1153
280
     0
281
     0
  0
CLASS
  1
SCALE
  2
AcDbScale
  3
ObjectDBX Classes
 90
     1153
280
     0
281
     0
  0
CLASS
  1
TABLESTYLE
  2
AcDbTableStyle
  3
ObjectDBX Classes
 90
     4095
280
     0
281
     0
  0
CLASS
  1
MLEADERSTYLE
  2
AcDbMLeaderStyle
  3
ACDB_MLEADERSTYLE_CLASS
 90
     4095
280
     0
281
     0
  0
CLASS
  1
SUN
  2
AcDbSun
  3
SCENEOE
 90
     1153
280
     0
281
     0
  0
CLASS
  1
ACDBPLACEHOLDER
  2
AcDbPlaceHolder
  3
ObjectDBX Classes
 90
        0
280
     0
281
     0
  0
CLASS
  1
LAYOUT
  2
AcDbLayout
  3
ObjectDBX Classes
 90
        0
280
     0
281
     0
  0
ENDSEC
  0
SECTION
  2
TABLES
  0
TABLE
  2
VPORT
  5
8
330
0
100
AcDbSymbolTable
 70
     1
  0
VPORT
  5
29
330
8
100
AcDbSymbolTableRecord
100
AcDbViewportTableRecord
  2
*Active
 70
     0
 10
0.0
 20
0.0
 11
1.0
 21
1.0
 12
148.5
 22
105.0
 13
0.0
 23
0.0
 14
10.0
 24
10.0
 15
10.0
 25
10.0
 16
0.0
 26
0.0
 36
1.0
 17
0.0
 27
0.0
 37
0.0
 40
210.0
 41
1.4142857143
 42
50.0
 43
0.0
 44
0.0
 50
0.0
 51
0.0
 71
     0
 72
  2000
 73
     1
 74
     3
 75
     0
 76
     0
 77
     0
 78
     0
281
     0
 65
     1
110
0.0
120
0.0
130
0.0
111
1.0
121
0.0
131
0.0
112
0.0
122
1.0
132
0.0
 79
     0
146
0.0
  0
ENDTAB
  0
TABLE
  2
LTYPE
  5
5
330
0
100
AcDbSymbolTable
 70
     6
  0
LTYPE
  5
14
330
5
100
AcDbSymbolTableRecord
100
AcDbLinetypeTableRecord
  2
ByBlock
 70
     0
  3

 72
    65
 73
     0
 40
0.0
  0
LTYPE
  5
15
330
5
100
AcDbSymbolTableRecord
100
AcDbLinetypeTableRecord
  2
ByLayer
 70
     0
  3

 72
    65
 73
     0
 40
0.0
  0
LTYPE
  5
16
330
5
100
AcDbSymbolTableRecord
100
AcDbLinetypeTableRecord
  2
Continuous
 70
     0
  3
Solid line
 72
    65
 73
     0
 40
0.0
  0
LTYPE
  5
6E
330
5
100
AcDbSymbolTableRecord
100
AcDbLinetypeTableRecord
  2
HIDDEN
 70
     0
  3
Hidden __ __ __ __ __ __ __ __ __ __ __ __ __ __
 72
    65
 73
     2
 40
1.905
 49
1.27
 74
     0
 49
-0.635
 74
     0
  0
LTYPE
  5
6F
330
5
100
AcDbSymbolTableRecord
100
AcDbLinetypeTableRecord
  2
PHANTOM
 70
     0
  3
Phantom ______  __  __  ______  __  __  ______
 72
    65
 73
     6
 40
12.7
 49
6.35
 74
     0
 49
-1.27
 74
     0
 49
1.27
 74
     0
 49
-1.27
 74
     0
 49
1.27
 74
     0
 49
-1.27
 74
     0
  0
LTYPE
  5
70
330
5
100
AcDbSymbolTableRecord
100
AcDbLinetypeTableRecord
  2
CENTER
 70
     0
  3
Center ____ _ ____ _ ____ _ ____ _ ____ _ ____
 72
    65
 73
     4
 40
10.16
 49
6.35
 74
     0
 49
-1.27
 74
     0
 49
1.27
 74
     0
 49
-1.27
 74
     0
  0
LTYPE
  5
71
330
5
100
AcDbSymbolTableRecord
100
AcDbLinetypeTableRecord
  2
CENTERX2
 70
     0
  3
Center (2x) ________  __  ________  __  _____
 72
    65
 73
     4
 40
20.32
 49
12.7
 74
     0
 49
-2.54
 74
     0
 49
2.54
 74
     0
 49
-2.54
 74
     0
  0
LTYPE
  5
72
330
5
100
AcDbSymbolTableRecord
100
AcDbLinetypeTableRecord
  2
DOT2
 70
     0
  3
Dot (.5x) ........................................
 72
    65
 73
     2
 40
0.635
 49
0.0
 74
     0
 49
-0.635
 74
     0
  0
ENDTAB
  0
TABLE
  2
LAYER
  5
2
330
0
100
AcDbSymbolTable
 70
     4
  0
LAYER
  5
10
330
2
100
AcDbSymbolTableRecord
100
AcDbLayerTableRecord
  2
0
 70
     0
 62
     7
  6
Continuous
370
    -3
390
F
  0
LAYER
  5
73
330
2
100
AcDbSymbolTableRecord
100
AcDbLayerTableRecord
  2
FORMAT
 70
     0
 62
     7
  6
Continuous
370
    -3
390
F
  0
LAYER
  5
74
330
2
100
AcDbSymbolTableRecord
100
AcDbLayerTableRecord
  2
BORDER
 70
     0
 62
     7
  6
Continuous
370
    40
390
F
  0
LAYER
  5
75
330
2
100
AcDbSymbolTableRecord
100
AcDbLayerTableRecord
  2
REVISION_TABLE
 70
     0
 62
    -7
  6
Continuous
290
     0
370
    -3
390
F
  0
ENDTAB
  0
TABLE
  2
STYLE
  5
3
330
0
100
AcDbSymbolTable
 70
     1
  0
STYLE
  5
11
330
3
100
AcDbSymbolTableRecord
100
AcDbTextStyleTableRecord
  2
Standard
 70
     0
 40
0.0
 41
1.0
 50
0.0
 71
     0
 42
3.5
  3
txt
  4

  0
ENDTAB
  0
TABLE
  2
VIEW
  5
6
330
0
100
AcDbSymbolTable
 70
     0
  0
ENDTAB
  0
TABLE
  2
UCS
  5
7
330
0
100
AcDbSymbolTable
 70
     0
  0
ENDTAB
  0
TABLE
  2
APPID
  5
9
330
0
100
AcDbSymbolTable
 70
     1
  0
APPID
  5
12
330
9
100
AcDbSymbolTableRecord
100
AcDbRegAppTableRecord
  2
ACAD
 70
     0
  0
ENDTAB
  0
TABLE
  2
DIMSTYLE
  5
A
330
0
100
AcDbSymbolTable
 70
     1
100
AcDbDimStyleTable
  0
DIMSTYLE
105
27
330
A
100
AcDbSymbolTableRecord
100
AcDbDimStyleTableRecord
  2
ISO-25
 70
     0
 41
2.5
 42
0.625
 43
3.75
 44
1.25
 73
     0
 74
     0
 77
     1
 78
     8
140
2.5
141
2.5
143
0.0393700787
147
0.625
171
     3
172
     1
178
     0
271
     2
272
     2
274
     3
278
    44
283
     0
284
     8
340
11
  0
ENDTAB
  0
TABLE
  2
BLOCK_RECORD
  5
1
330
0
100
AcDbSymbolTable
 70
     1
  0
BLOCK_RECORD
  5
1F
330
1
100
AcDbSymbolTableRecord
100
AcDbBlockTableRecord
  2
*Model_Space
340
22
  0
BLOCK_RECORD
  5
1B
330
1
100
AcDbSymbolTableRecord
100
AcDbBlockTableRecord
  2
*Paper_Space
340
1E
  0
BLOCK_RECORD
  5
23
330
1
100
AcDbSymbolTableRecord
100
AcDbBlockTableRecord
  2
*Paper_Space0
340
26
  0
ENDTAB
  0
ENDSEC
  0
SECTION
  2
BLOCKS
  0
BLOCK
  5
20
330
1F
100
AcDbEntity
  8
0
100
AcDbBlockBegin
  2
*Model_Space
 70
     0
 10
0.0
 20
0.0
 30
0.0
  3
*Model_Space
  1

  0
ENDBLK
  5
21
330
1F
100
AcDbEntity
  8
0
100
AcDbBlockEnd
  0
BLOCK
  5
1C
330
1B
100
AcDbEntity
 67
     1
  8
0
100
AcDbBlockBegin
  2
*Paper_Space
 70
     0
 10
0.0
 20
0.0
 30
0.0
  3
*Paper_Space
  1

  0
ENDBLK
  5
1D
330
1B
100
AcDbEntity
 67
     1
  8
0
100
AcDbBlockEnd
  0
BLOCK
  5
24
330
23
100
AcDbEntity
  8
0
100
AcDbBlockBegin
  2
*Paper_Space0
 70
     0
 10
0.0
 20
0.0
 30
0.0
  3
*Paper_Space0
  1

  0
ENDBLK
  5
25
330
23
100
AcDbEntity
  8
0
100
AcDbBlockEnd
  0
ENDSEC
  0
SECTION
  2
ENTITIES
  0
LINE
  5
76
330
1F
100
AcDbEntity
  8
0
  6
Continuous
 62
     7
370
    15
100
AcDbLine
 10
482.8811892658
 20
-5.9743827166
 30
0.0
 11
482.8068629361
 21
-1.2875853765
 31
0.0
  0
LINE
  5
77
330
1F
100
AcDbEntity
  8
0
  6
Continuous
 62
     7
370
    15
100
AcDbLine
 10
422.81440646
 20
-2.2389861497
 30
0.0
 11
422.8887327897
 21
-6.9257834898
 31
0.0
  0
LINE
  5
78
330
1F
100
AcDbEntity
  8
0
  6
Continuous
 62
     7
370
    15
100
AcDbLine
 10
391.2303422383
 20
186.5990510092
 30
0.0
 11
421.1905083816
 21
288.143516948
 31
0.0
  0
LINE
  5
79
330
1F
100
AcDbEntity
  8
0
  6
Continuous
 62
     7
370
    15
100
AcDbLine
 10
399.8979457893
 20
294.4257539204
 30
0.0
 11
369.9377818392
 21
192.8812890602
 31
0.0
  0
SPLINE
  5
7A
330
1F
100
AcDbEntity
  8
0
  6
Continuous
 62
     7
370
    15
100
AcDbSpline
210
0.0
220
0.0
230
1.0
 70
     8
 71
     3
 72
    39
 73
    35
 74
     0
 42
0.000000001
 43
0.00000001
 40
0.0
 40
0.0
 40
0.0
 40
0.0
 40
0.0181548792121543
 40
0.0519137679737935
 40
0.085913188785138
 40
0.1201646187554961
 40
0.1546268075712525
 40
0.189148527198876
 40
0.2234648493094476
 40
0.2572677656275891
 40
0.2902646162650439
 40
0.3222716476294588
 40
0.3532561515943362
 40
0.383313482715933
 40
0.4126173281508007
 40
0.4413781468486973
 40
0.4698201701286031
 40
0.4981312077458998
 40
0.526512006260615
 40
0.5551910297635495
 40
0.5843841982752929
 40
0.6142799066642017
 40
0.6450139090500931
 40
0.6766371736386995
 40
0.7090897735609306
 40
0.7422029216105714
 40
0.7757422126859012
 40
0.8094746314373433
 40
0.8431796078572514
 40
0.8767721925121299
 40
0.9102221797335428
 40
0.9435351781479521
 40
0.9767372025705767
 40
1.0
 40
1.0
 40
1.0
 40
1.0
 10
459.2237075650454
 20
293.86838195022
 30
0.0
 10
459.2069257229191
 20
294.5238103393765
 30
0.0
 10
459.1589381462387
 20
296.3980038782311
 30
0.0
 10
458.9084803846212
 20
299.4374459420363
 30
0.0
 10
458.3970349161629
 20
302.9438353803026
 30
0.0
 10
457.6471080246248
 20
306.346361949695
 30
0.0
 10
456.6549872790063
 20
309.619095355301
 30
0.0
 10
455.4152916398265
 20
312.7274729076518
 30
0.0
 10
453.9308268657124
 20
315.6316046319547
 30
0.0
 10
452.2132949841127
 20
318.2901652283491
 30
0.0
 10
450.2838941115252
 20
320.6667626652334
 30
0.0
 10
448.1709211595701
 20
322.7344532273436
 30
0.0
 10
445.9056508402659
 20
324.4776739183878
 30
0.0
 10
443.5188156005718
 20
325.8905020396085
 30
0.0
 10
441.0390122304212
 20
326.9734423262352
 30
0.0
 10
438.4921578731054
 20
327.7306228802768
 30
0.0
 10
435.9024741390225
 20
328.1677826115177
 30
0.0
 10
433.2917353771495
 20
328.2917991276544
 30
0.0
 10
430.6777670128126
 20
328.1101213010845
 30
0.0
 10
428.073029941511
 20
327.6288189205646
 30
0.0
 10
425.4859313572346
 20
326.851014077025
 30
0.0
 10
422.9235196764537
 20
325.7767860960688
 30
0.0
 10
420.3939055256761
 20
324.4042024665936
 30
0.0
 10
417.9088274212374
 20
322.7321870620307
 30
0.0
 10
415.485175335769
 20
320.7642099913906
 30
0.0
 10
413.1443901260513
 20
318.5118377032524
 30
0.0
 10
410.9097248766828
 20
315.9954560750838
 30
0.0
 10
408.8036032827418
 20
313.2432634761036
 30
0.0
 10
406.8434898683757
 20
310.2860086372007
 30
0.0
 10
405.0421372874918
 20
307.1533687912515
 30
0.0
 10
403.4064390950734
 20
303.8715932005101
 30
0.0
 10
401.946412485997
 20
300.463196901945
 30
0.0
 10
400.7812081708126
 20
297.303018286311
 30
0.0
 10
400.1556626763922
 20
295.265277522089
 30
0.0
 10
399.8979457892705
 20
294.4257539203676
 30
0.0
  0
SPLINE
  5
7B
330
1F
100
AcDbEntity
  8
0
  6
Continuous
 62
     7
370
    15
100
AcDbSpline
210
0.0
220
0.0
230
1.0
 70
     8
 71
     3
 72
    22
 73
    18
 74
     0
 42
0.000000001
 43
0.00000001
 40
0.0
 40
0.0
 40
0.0
 40
0.0
 40
0.0382357548851203
 40
0.1127719632006838
 40
0.1869715805398435
 40
0.2606132912198436
 40
0.3335258285106379
 40
0.4055562485832991
 40
0.4765881063315057
 40
0.546573678298201
 40
0.6155807857659377
 40
0.6838667327360436
 40
0.7519826603237862
 40
0.8206306910052538
 40
0.8911689613101186
 40
0.9660693441821865
 40
0.9999999999999999
 40
0.9999999999999999
 40
0.9999999999999999
 40
0.9999999999999999
 10
421.1905083816305
 20
288.1435169480033
 30
0.0
 10
421.3261112777443
 20
288.5889579160317
 30
0.0
 10
421.7260564300342
 20
289.9027348404179
 30
0.0
 10
422.489376870464
 20
292.0208145850466
 30
0.0
 10
423.5074399897575
 20
294.4247525111115
 30
0.0
 10
424.6185014430135
 20
296.661156473186
 30
0.0
 10
425.794235523391
 20
298.6975340191986
 30
0.0
 10
427.0055360654592
 20
300.5052732011845
 30
0.0
 10
428.2187472610013
 20
302.0618589399849
 30
0.0
 10
429.3970763240636
 20
303.3522939850744
 30
0.0
 10
430.5010663195668
 20
304.3705853321368
 30
0.0
 10
431.4902335421225
 20
305.1222369762521
 30
0.0
 10
432.3226123033763
 20
305.624477090501
 30
0.0
 10
432.9632981791593
 20
305.9102440621444
 30
0.0
 10
433.3730240757941
 20
306.0292110784962
 30
0.0
 10
433.5383966230319
 20
306.0421151346857
 30
0.0
 10
433.5213095406769
 20
306.0427192937623
 30
0.0
 10
433.5159822377558
 20
306.0429076546743
 30
0.0
  0
SPLINE
  5
7C
330
1F
100
AcDbEntity
  8
0
  6
Continuous
 62
     7
370
    15
100
AcDbSpline
210
0.0
220
0.0
230
1.0
 70
     8
 71
     3
 72
    18
 73
    14
 74
     0
 42
0.000000001
 43
0.00000001
 40
0.0
 40
0.0
 40
0.0
 40
0.0
 40
0.072780658057044
 40
0.1720661230955624
 40
0.2638708816003628
 40
0.3602707890872558
 40
0.4528666738140798
 40
0.5444971925654747
 40
0.6364237316227329
 40
0.7293004271357956
 40
0.8235057756766553
 40
0.9191269710497268
 40
0.9999999999999999
 40
0.9999999999999999
 40
0.9999999999999999
 40
0.9999999999999999
 10
433.3970062656717
 20
306.0687478440881
 30
0.0
 10
433.3938611853139
 20
306.0708691912112
 30
0.0
 10
433.3864256688119
 20
306.0758844244472
 30
0.0
 10
433.5797038714157
 20
305.9408199705405
 30
0.0
 10
433.9305342246042
 20
305.5846576564438
 30
0.0
 10
434.4017950431416
 20
304.9587354300118
 30
0.0
 10
434.9371544062864
 20
304.0293298571157
 30
0.0
 10
435.4737565626542
 20
302.8248800563069
 30
0.0
 10
435.974551480846
 20
301.3508685733566
 30
0.0
 10
436.4085451497911
 20
299.6216555518682
 30
0.0
 10
436.7454436572452
 20
297.6547508473963
 30
0.0
 10
436.9616697783925
 20
295.6070079384353
 30
0.0
 10
437.0061285369201
 20
294.1733108958721
 30
0.0
 10
437.0265003903293
 20
293.5163634922182
 30
0.0
  0
LINE
  5
7D
330
1F
100
AcDbEntity
  8
0
  6
Continuous
 62
     7
370
    15
100
AcDbLine
 10
463.7576129825
 20
7.9737878543
 30
0.0
 11
459.223707565
 21
293.8683819502
 31
0.0
  0
LINE
  5
7E
330
1F
100
AcDbEntity
  8
0
  6
Continuous
 62
     7
370
    15
100
AcDbLine
 10
437.0265003903
 20
293.5163634922
 30
0.0
 11
441.5604058077
 21
7.6217693963
 31
0.0
  0
LINE
  5
7F
330
1F
100
AcDbEntity
  8
0
  6
Continuous
 62
     7
370
    15
100
AcDbLine
 10
463.9092386617
 20
-1.5872766243
 30
0.0
 11
463.7605860301
 21
7.7863163099
 31
0.0
  0
LINE
  5
80
330
1F
100
AcDbEntity
  8
0
  6
Continuous
 62
     7
370
    15
100
AcDbLine
 10
441.5633788554
 20
7.4342978519
 30
0.0
 11
441.712031487
 21
-1.9392950823
 31
0.0
  0
LINE
  5
81
330
1F
100
AcDbEntity
  8
0
  6
Continuous
 62
     7
370
    15
100
AcDbLine
 10
402.0235841698
 20
15.8316159321
 30
0.0
 11
401.6370873386
 21
40.2029568626
 31
0.0
  0
LINE
  5
82
330
1F
100
AcDbEntity
  8
0
  6
Continuous
 62
     7
370
    15
100
AcDbLine
 10
341.6446286044
 20
39.2515566305
 30
0.0
 11
342.0311254356
 21
14.8802157
 31
0.0
  0
LINE
  5
83
330
1F
100
AcDbEntity
  8
0
  6
Continuous
 62
     7
370
    15
100
AcDbLine
 10
563.6614949567
 20
-22.9061107347
 30
0.0
 11
563.2749981255
 21
1.4652301958
 31
0.0
  0
LINE
  5
84
330
1F
100
AcDbEntity
  8
0
  6
Continuous
 62
     7
370
    15
100
AcDbLine
 10
503.2825454128
 20
0.5138285206
 30
0.0
 11
503.669042244
 21
-23.8575124099
 31
0.0
  0
LWPOLYLINE
  5
85
330
1F
100
AcDbEntity
  8
0
  6
Continuous
 62
     7
370
    15
100
AcDbPolyline
 90
        3
 70
   128
 43
0.0
 10
436.1296829894
 20
6.6832457733
 10
438.9229664123
 20
7.2991504079
 10
441.5582151117
 20
7.7598803077
  0
LWPOLYLINE
  5
86
330
1F
100
AcDbEntity
  8
0
  6
Continuous
 62
     7
370
    15
100
AcDbPolyline
 90
       52
 70
   128
 43
0.0
 10
463.7554226952
 20
8.1118978656
 10
464.0844856675
 20
8.0708102287
 10
467.0238373066
 20
7.6307157984
 10
469.796551434
 20
7.0804850351
 10
472.3701217884
 20
6.4265687187
 10
474.714375152
 20
5.6766344538
 10
476.8018261883
 20
4.8394736079
 10
478.6080041987
 20
3.9249021465
 10
480.111729992
 20
2.9436413374
 10
481.2953779605
 20
1.907195583
 10
482.1450663772
 20
0.8277169738
 10
482.6508353515
 20
-0.2821384306
 10
482.8067541229
 20
-1.4093582419
 10
482.6109995836
 20
-2.5407289265
 10
482.0658567709
 20
-3.6629831179
 10
481.1777319124
 20
-4.7629671834
 10
479.9570206657
 20
-5.8277809051
 10
478.4180483233
 20
-6.8449434327
 10
476.5788503977
 20
-7.8025276242
 10
474.460990355
 20
-8.68930695
 10
472.0893037534
 20
-9.4948857367
 10
469.4915864067
 20
-10.2098172995
 10
466.6983014784
 20
-10.8257215733
 10
463.7422022175
 20
-11.3353781644
 10
460.6579349637
 20
-11.7328092851
 10
457.4816659905
 20
-12.0133575714
 10
454.2506366676
 20
-12.1737330856
 10
451.002723289
 20
-12.2120558226
 10
447.776002154
 20
-12.1278758105
 10
444.6083130332
 20
-11.9221807935
 10
441.5367859866
 20
-11.5973822961
 10
438.5974328421
 20
-11.157287505
 10
435.8247187148
 20
-10.6070567416
 10
433.2511483603
 20
-9.9531404253
 10
430.9068949968
 20
-9.2032061603
 10
428.8194439604
 20
-8.3660453144
 10
427.0132659501
 20
-7.4514738531
 10
425.5095401568
 20
-6.4702130439
 10
424.3258936936
 20
-5.4337676503
 10
423.476205277
 20
-4.3542890411
 10
422.9704363027
 20
-3.2444336367
 10
422.8145160258
 20
-2.1172134647
 10
423.0102728232
 20
-0.9858433213
 10
423.5554118725
 20
0.1364117721
 10
424.4435412472
 20
1.2363947552
 10
425.6642494831
 20
2.3012091986
 10
427.2032237072
 20
3.3183712752
 10
429.0424220091
 20
4.2759553765
 10
431.1602805464
 20
5.1627350631
 10
433.5319694061
 20
5.9683133086
 10
436.1296829894
 20
6.6832457733
 10
436.1296829894
 20
6.6832457733
  0
LWPOLYLINE
  5
87
330
1F
100
AcDbEntity
  8
0
  6
Continuous
 62
     7
370
    15
100
AcDbPolyline
 90
       31
 70
   128
 43
0.0
 10
482.8811892658
 20
-5.9743827166
 10
482.8810804526
 20
-6.096155582
 10
482.6853259133
 20
-7.2275262665
 10
482.1401831006
 20
-8.349780458
 10
481.252058242
 20
-9.4497645234
 10
480.0313469954
 20
-10.5145782452
 10
478.4923746529
 20
-11.5317407728
 10
476.6531767274
 20
-12.4893249643
 10
474.5353166847
 20
-13.3761042901
 10
472.1636300831
 20
-14.1816830768
 10
469.5659127363
 20
-14.8966146396
 10
466.7726278081
 20
-15.5125189133
 10
463.8165285472
 20
-16.0221755045
 10
460.7322612934
 20
-16.4196066252
 10
457.5559923202
 20
-16.7001549115
 10
454.3249629973
 20
-16.8605304257
 10
451.0770496187
 20
-16.8988531627
 10
447.8503284836
 20
-16.8146731506
 10
444.6826393628
 20
-16.6089781336
 10
441.6111123163
 20
-16.2841796362
 10
438.6717591718
 20
-15.8440848451
 10
435.8990450445
 20
-15.2938540817
 10
433.32547469
 20
-14.6399377654
 10
430.9812213264
 20
-13.8900035004
 10
428.8937702901
 20
-13.0528426545
 10
427.0875922797
 20
-12.1382711932
 10
425.5838664864
 20
-11.157010384
 10
424.4002200233
 20
-10.1205649904
 10
423.5505316066
 20
-9.0410863812
 10
423.0447626323
 20
-7.9312309768
 10
422.8887327897
 20
-6.9257834898
  0
ARC
  5
88
330
1F
100
AcDbEntity
  8
0
  6
Continuous
 62
     7
370
    15
100
AcDbCircle
 10
377.8591236191
 20
203.7598283631
 30
0.0
 40
12.54488098354007
100
AcDbArc
 50
243.2372830492
 51
247.5351046589
  0
LINE
  5
89
330
1F
100
AcDbEntity
  8
0
  6
Continuous
 62
     7
370
    15
100
AcDbLine
 10
376.0429827429
 20
191.1076769327
 30
0.0
 11
376.0290110695
 21
191.0603168184
 31
0.0
  0
ARC
  5
8A
330
1F
100
AcDbEntity
  8
0
  6
Continuous
 62
     7
370
    15
100
AcDbCircle
 10
409.2216238679
 20
288.1765800515
 30
0.0
 40
102.6319547155926
100
AcDbArc
 50
251.1304836237
 51
252.7450384283
  0
ARC
  5
8B
330
1F
100
AcDbEntity
  8
0
  6
Continuous
 62
     7
370
    15
100
AcDbCircle
 10
407.8784397604
 20
279.9749941366
 30
0.0
 40
94.38185842003621
100
AcDbArc
 50
254.668672391
 51
256.3769179602
  0
LINE
  5
8C
330
1F
100
AcDbEntity
  8
0
  6
Continuous
 62
     7
370
    15
100
AcDbLine
 10
385.6623072714
 20
188.2958168271
 30
0.0
 11
385.648335598
 21
188.2484567129
 31
0.0
  0
ARC
  5
8D
330
1F
100
AcDbEntity
  8
0
  6
Continuous
 62
     7
370
    15
100
AcDbCircle
 10
390.228140719
 20
197.9947374522
 30
0.0
 40
10.48891085383516
100
AcDbArc
 50
260.7782718009
 51
264.0826177396
  0
ARC
  5
8E
330
1F
100
AcDbEntity
  8
0
  6
Continuous
 62
     7
370
    15
100
AcDbCircle
 10
388.544117796
 20
193.6453588124
 30
0.0
 40
5.744024015335567
100
AcDbArc
 50
259.7471554696
 51
268.1495623796
  0
LINE
  5
8F
330
1F
100
AcDbEntity
  8
0
  6
Continuous
 62
     7
370
    15
100
AcDbLine
 10
387.5858282779
 20
188.2103096466
 30
0.0
 11
387.5217251796
 21
187.9930561642
 31
0.0
  0
LINE
  5
90
330
1F
100
AcDbEntity
  8
0
  6
Continuous
 62
     7
370
    15
100
AcDbLine
 10
385.1681526487
 20
189.0757198957
 30
0.0
 11
385.0042587923
 21
188.520230668
 31
0.0
  0
ARC
  5
91
330
1F
100
AcDbEntity
  8
0
  6
Continuous
 62
     7
370
    15
100
AcDbCircle
 10
404.3070530849
 20
268.1659568696
 30
0.0
 40
81.9514464161433
100
AcDbArc
 50
254.6680863985
 51
256.376579481
  0
LINE
  5
92
330
1F
100
AcDbEntity
  8
0
  6
Continuous
 62
     7
370
    15
100
AcDbLine
 10
382.8448868427
 20
189.8314760323
 30
0.0
 11
382.6382494208
 21
189.1311384827
 31
0.0
  0
LINE
  5
93
330
1F
100
AcDbEntity
  8
0
  6
Continuous
 62
     7
370
    15
100
AcDbLine
 10
379.2498545363
 20
190.9003228243
 30
0.0
 11
379.0383470648
 21
190.1834355168
 31
0.0
  0
ARC
  5
94
330
1F
100
AcDbEntity
  8
0
  6
Continuous
 62
     7
370
    15
100
AcDbCircle
 10
405.4392734501
 20
275.1857055826
 30
0.0
 40
89.00783578065425
100
AcDbArc
 50
251.1289510015
 51
252.745684393
  0
LINE
  5
95
330
1F
100
AcDbEntity
  8
0
  6
Continuous
 62
     7
370
    15
100
AcDbLine
 10
376.8256041034
 20
191.5551474612
 30
0.0
 11
376.6506387593
 21
190.9621379606
 31
0.0
  0
LINE
  5
96
330
1F
100
AcDbEntity
  8
0
  6
Continuous
 62
     7
370
    15
100
AcDbLine
 10
374.1573499438
 20
192.1952222913
 30
0.0
 11
374.0770668477
 21
191.9231361716
 31
0.0
  0
ARC
  5
97
330
1F
100
AcDbEntity
  8
0
  6
Continuous
 62
     7
370
    15
100
AcDbCircle
 10
376.9593709536
 20
199.1512508971
 30
0.0
 40
7.781601341852414
100
AcDbArc
 50
239.9811152159
 51
248.2597197444
  0
LINE
  5
98
330
1F
100
AcDbEntity
  8
0
  6
Continuous
 62
     7
370
    15
100
AcDbLine
 10
373.0673760664
 20
192.4169281321
 30
0.0
 11
373.0663492872
 21
192.4134692333
 31
0.0
  0
LINE
  5
99
330
1F
100
AcDbEntity
  8
0
  6
Continuous
 62
     7
370
    15
100
AcDbLine
 10
388.5472347876
 20
187.6413898704
 30
0.0
 11
387.5217251796
 21
187.9930561642
 31
0.0
  0
LINE
  5
9A
330
1F
100
AcDbEntity
  8
0
  6
Continuous
 62
     7
370
    15
100
AcDbLine
 10
373.0245169676
 20
192.4248817432
 30
0.0
 11
373.0663492872
 21
192.4134692333
 31
0.0
  0
LINE
  5
9B
330
1F
100
AcDbEntity
  8
0
  6
Continuous
 62
     7
370
    15
100
AcDbLine
 10
374.0770668477
 20
191.9231361716
 30
0.0
 11
373.06550748
 21
192.1669303992
 31
0.0
  0
LINE
  5
9C
330
1F
100
AcDbEntity
  8
0
  6
Continuous
 62
     7
370
    15
100
AcDbLine
 10
376.0290110695
 20
191.0603168184
 30
0.0
 11
376.6506387593
 21
190.9621379606
 31
0.0
  0
LINE
  5
9D
330
1F
100
AcDbEntity
  8
0
  6
Continuous
 62
     7
370
    15
100
AcDbLine
 10
379.0383470648
 20
190.1834355168
 30
0.0
 11
378.7784947555
 21
190.1636522379
 31
0.0
  0
LINE
  5
9E
330
1F
100
AcDbEntity
  8
0
  6
Continuous
 62
     7
370
    15
100
AcDbLine
 10
385.0042587923
 20
188.520230668
 30
0.0
 11
385.648335598
 21
188.2484567129
 31
0.0
  0
LINE
  5
9F
330
1F
100
AcDbEntity
  8
0
  6
Continuous
 62
     7
370
    15
100
AcDbLine
 10
382.9238385015
 20
188.9519032485
 30
0.0
 11
382.6382494208
 21
189.1311384827
 31
0.0
  0
LWPOLYLINE
  5
A0
330
1F
100
AcDbEntity
  8
0
  6
Continuous
 62
     7
370
    15
100
AcDbPolyline
 90
       35
 70
   128
 43
0.0
 10
386.0280752782
 20
187.4490571298
 10
387.4927489186
 20
187.1134109954
 10
388.7221573168
 20
186.8672216987
 10
389.6744298462
 20
186.7188991487
 10
390.3171486548
 20
186.6734242813
 10
390.6284085481
 20
186.7324025438
 10
390.5976262678
 20
186.8938028875
 10
390.225844297
 20
187.1521337778
 10
389.5257203809
 20
187.4985779041
 10
388.5211037027
 20
187.9213994072
 10
387.2461963197
 20
188.4061144551
 10
385.7444180082
 20
188.9362776992
 10
384.0669141097
 20
189.4938159042
 10
382.2708056049
 20
190.059749778
 10
380.4172522795
 20
190.6147775121
 10
378.5693808735
 20
191.1400618467
 10
376.7901182946
 20
191.6176437968
 10
375.1400546911
 20
192.0312847362
 10
373.6753810507
 20
192.3669308706
 10
372.4459726525
 20
192.6131201673
 10
371.4936957367
 20
192.76144056
 10
370.8509828198
 20
192.8069172239
 10
370.5397155294
 20
192.7479375256
 10
370.5704978097
 20
192.586537182
 10
370.9422812859
 20
192.3282059308
 10
371.6424036965
 20
191.9817621653
 10
372.6470262665
 20
191.5589424588
 10
373.9219321441
 20
191.0742277716
 10
375.4237060692
 20
190.5440623702
 10
377.1012129785
 20
189.9865234437
 10
378.8973258697
 20
189.4205917272
 10
380.7508733033
 20
188.8655621965
 10
382.5987447093
 20
188.340277862
 10
384.3780116747
 20
187.8626980692
 10
386.0280752782
 20
187.4490571298
  0
LWPOLYLINE
  5
A1
330
1F
100
AcDbEntity
  8
0
  6
Continuous
 62
     7
370
    15
100
AcDbPolyline
 90
       34
 70
   128
 43
0.0
 10
375.4641007917
 20
191.89490108
 10
377.06514999
 20
191.4930967768
 10
378.7933801509
 20
191.0279017498
 10
380.5863310214
 20
190.5161647392
 10
382.3792032366
 20
189.9763913649
 10
384.1071908582
 20
189.4280702679
 10
385.7078409408
 20
188.8910386772
 10
387.1233104962
 20
188.3847097834
 10
388.302429583
 20
187.9273625537
 10
389.2025886627
 20
187.5355046359
 10
389.7912529634
 20
187.2233535303
 10
390.0471415478
 20
187.0021786919
 10
389.9610102501
 20
186.8799365822
 10
389.5359779533
 20
186.8610922976
 10
388.7873949825
 20
186.9463069519
 10
387.7423271913
 20
187.1324676885
 10
386.4385318319
 20
187.4129188511
 10
384.923148041
 20
187.7774619081
 10
383.2509402576
 20
188.2129208172
 10
381.4823407228
 20
188.7036239892
 10
379.6812736962
 20
189.2317524668
 10
377.9128393393
 20
189.7782634558
 10
376.2409484494
 20
190.3234169019
 10
374.7260290434
 20
190.8474636757
 10
373.4228355658
 20
191.3315051447
 10
372.3784643421
 20
191.7580529183
 10
371.6306662528
 20
192.111639417
 10
371.2064680989
 20
192.3795075549
 10
371.1212018072
 20
192.5519960886
 10
371.3779474323
 20
192.6228675091
 10
371.9674244266
 20
192.5895402238
 10
372.86832843
 20
192.4532395712
 10
374.0481028727
 20
192.2188818451
 10
375.4641007917
 20
191.89490108
  0
ARC
  5
A2
330
1F
100
AcDbEntity
  8
0
  6
Continuous
 62
     7
370
    15
100
AcDbCircle
 10
395.08544363
 20
246.8599015447
 30
0.0
 40
58.68808913954703
100
AcDbArc
 50
249.0627834747
 51
251.1937638496
  0
ARC
  5
A3
330
1F
100
AcDbEntity
  8
0
  6
Continuous
 62
     7
370
    15
100
AcDbCircle
 10
415.2314555651
 20
307.173884395
 30
0.0
 40
122.2821139376089
100
AcDbArc
 50
252.8085002738
 51
254.565908155
  0
ARC
  5
A4
330
1F
100
AcDbEntity
  8
0
  6
Continuous
 62
     7
370
    15
100
AcDbCircle
 10
398.2710731831
 20
240.5478180821
 30
0.0
 40
53.52488628325283
100
AcDbArc
 50
256.3712241323
 51
258.4511576197
  0
LWPOLYLINE
  5
A5
330
1F
100
AcDbEntity
  8
0
  6
Continuous
 62
     7
370
    15
100
AcDbPolyline
 90
       36
 70
   128
 43
0.0
 10
374.8289668612
 20
192.1622233239
 10
373.3216207326
 20
192.508154121
 10
372.0476870542
 20
192.7651246949
 10
371.0481246796
 20
192.9248684169
 10
370.3550552049
 20
192.9822597297
 10
369.9907522817
 20
192.9354330048
 10
369.9669278529
 20
192.7859329138
 10
370.2843498041
 20
192.5385230602
 10
370.9328074764
 20
192.2011584331
 10
371.8914686715
 20
191.7847098318
 10
373.1295147907
 20
191.3025595567
 10
374.6071598167
 20
190.7701971114
 10
376.2769029394
 20
190.2047139898
 10
378.0850839894
 20
189.6242911772
 10
379.9735833831
 20
189.0476114191
 10
381.8817090428
 20
188.4931817604
 10
383.748122696
 20
187.9788094295
 10
385.512838786
 20
187.5210817989
 10
387.1191456745
 20
187.1346681311
 10
388.5154059659
 20
186.8319854232
 10
389.6567450138
 20
186.6228065789
 10
390.5064832761
 20
186.5138037842
 10
391.03730491
 20
186.5084870172
 10
391.2321555322
 20
186.6070587567
 10
391.0847604329
 20
186.8063201654
 10
390.5998711036
 20
187.0998661325
 10
389.7930601758
 20
187.4782762407
 10
388.6902679971
 20
187.9293984557
 10
387.3269365477
 20
188.4387328235
 10
385.7468781533
 20
188.9898851437
 10
384.000889815
 20
189.5651351054
 10
382.1450772396
 20
190.1460343801
 10
380.2390944073
 20
190.7138771673
 10
378.3441950091
 20
191.2504277241
 10
376.5212910756
 20
191.7384351925
 10
374.8289668612
 20
192.1622233239
  0
LWPOLYLINE
  5
A6
330
1F
100
AcDbEntity
  8
0
  6
Continuous
 62
     7
370
    15
100
AcDbPolyline
 90
       34
 70
   128
 43
0.0
 10
375.4511376915
 20
191.9003719267
 10
374.0315569853
 20
192.2251341335
 10
372.8487988204
 20
192.4600984348
 10
371.9456137461
 20
192.5967588902
 10
371.3546418517
 20
192.6301781415
 10
371.0972438664
 20
192.5591344966
 10
371.1827269885
 20
192.3862106907
 10
371.6080019447
 20
192.117647555
 10
372.357693974
 20
191.7631637435
 10
373.4047052827
 20
191.3355526723
 10
374.7111995703
 20
190.8502724671
 10
376.2299535062
 20
190.324885893
 10
377.9060762197
 20
189.7783778407
 10
379.6789900401
 20
189.230457347
 10
381.484613923
 20
188.7009930762
 10
383.2576902377
 20
188.2090677219
 10
384.9341367656
 20
187.7724813908
 10
386.4533578753
 20
187.4070154832
 10
387.7604462473
 20
187.1258770753
 10
388.808163682
 20
186.9392306207
 10
389.5586378166
 20
186.8537936092
 10
389.9847529937
 20
186.8727143415
 10
390.0710995912
 20
186.9952388541
 10
389.8145619703
 20
187.216986857
 10
389.2244078203
 20
187.5299426886
 10
388.3219700741
 20
187.9227740788
 10
387.139862643
 20
188.3812809034
 10
385.7208156057
 20
188.8889105186
 10
384.1161069875
 20
189.4272980747
 10
382.3837480457
 20
189.9770017757
 10
380.586335571
 20
190.5181327633
 10
378.7888461842
 20
191.0311507532
 10
377.0562426114
 20
191.4975120226
 10
375.4511376915
 20
191.9003719267
  0
LWPOLYLINE
  5
A7
330
1F
100
AcDbEntity
  8
0
  6
Continuous
 62
     7
370
    15
100
AcDbPolyline
 90
       14
 70
   128
 43
0.0
 10
446.108863083
 20
4.5873630234
 10
447.8139622427
 20
4.2540967657
 10
449.6747898604
 20
4.0347267442
 10
451.6315278939
 20
3.9363052939
 10
453.6212923558
 20
3.9619939408
 10
455.58012892
 20
4.1109679643
 10
457.4450753384
 20
4.3784397099
 10
459.1561959404
 20
4.7558113212
 10
460.6584927717
 20
5.2309539951
 10
461.9036773646
 20
5.7885970802
 10
462.851732518
 20
6.4108165077
 10
463.4721842194
 20
7.0776141081
 10
463.7450915722
 20
7.7675586441
 10
463.7576129825
 20
7.9737878543
  0
LWPOLYLINE
  5
A8
330
1F
100
AcDbEntity
  8
0
  6
Continuous
 62
     7
370
    15
100
AcDbPolyline
 90
        7
 70
   128
 43
0.0
 10
441.5604058077
 20
7.6217693963
 10
441.5699922091
 20
7.4812662681
 10
441.8312692245
 20
6.7982187511
 10
442.440559811
 20
6.1472973525
 10
443.3782783465
 20
5.5494241668
 10
444.6142897065
 20
5.0238146155
 10
446.108863083
 20
4.5873630234
  0
LWPOLYLINE
  5
A9
330
1F
100
AcDbEntity
  8
0
  6
Continuous
 62
     7
370
    15
100
AcDbPolyline
 90
       20
 70
   128
 43
0.0
 10
463.7558310195
 20
7.880000492
 10
463.7607480732
 20
7.7601444983
 10
463.579900214
 20
7.0678038822
 10
463.0481412838
 20
6.3928999107
 10
462.1825615881
 20
5.7571245677
 10
461.0109837538
 20
5.1809118251
 10
459.5710631054
 20
4.6827815601
 10
457.909078111
 20
4.2787446651
 10
456.0784466739
 20
3.9817869451
 10
454.1380069326
 20
3.8014530193
 10
452.1501280337
 20
3.7435382006
 10
450.1786987052
 20
3.8099052683
 10
448.2870841908
 20
3.9984200197
 10
446.5360840382
 20
4.3030237851
 10
444.9819766902
 20
4.7139257161
 10
443.6747075809
 20
5.2179207104
 10
442.6563003707
 20
5.7988082732
 10
441.9594813406
 20
6.4379195195
 10
441.6066499484
 20
7.1147120205
 10
441.5651596456
 20
7.5280857527
  0
LWPOLYLINE
  5
AA
330
1F
100
AcDbEntity
  8
0
  6
Continuous
 62
     7
370
    15
100
AcDbPolyline
 90
       20
 70
   128
 43
0.0
 10
463.9092386617
 20
-1.5872766243
 10
463.9094007048
 20
-1.6134484359
 10
463.7285528456
 20
-2.305789052
 10
463.1967939154
 20
-2.9806930235
 10
462.3312142197
 20
-3.6164683665
 10
461.1596363854
 20
-4.1926811091
 10
459.7197157371
 20
-4.6908113741
 10
458.0577307426
 20
-5.0948482691
 10
456.2270993056
 20
-5.3918059891
 10
454.2866595643
 20
-5.5721399149
 10
452.2987806653
 20
-5.6300547336
 10
450.3273513368
 20
-5.5636876659
 10
448.4357368225
 20
-5.3751729145
 10
446.6847366698
 20
-5.0705691491
 10
445.1306293218
 20
-4.6596672181
 10
443.8233602126
 20
-4.1556722238
 10
442.8049530023
 20
-3.574784661
 10
442.1081339722
 20
-2.9356734147
 10
441.75530258
 20
-2.2588809137
 10
441.712031487
 20
-1.9392950823
  0
LWPOLYLINE
  5
AB
330
1F
100
AcDbEntity
  8
0
  6
Continuous
 62
     7
370
    15
100
AcDbPolyline
 90
       21
 70
   128
 43
0.0
 10
394.9349817142
 20
8.9334215999
 10
394.6998592586
 20
8.7820695795
 10
393.0621035434
 20
7.8746070595
 10
391.1404095202
 20
7.0353588405
 10
388.9607672774
 20
6.2756738282
 10
386.5526531602
 20
5.6058252368
 10
383.948628034
 20
5.034872467
 10
381.183915568
 20
4.57053518
 10
378.2958966242
 20
4.2190943818
 10
375.3236317319
 20
3.9853007136
 10
372.3073107961
 20
3.8723174275
 10
369.2877266508
 20
3.8816728885
 10
366.3057130727
 20
4.0132396416
 10
363.4016000995
 20
4.2652374077
 10
360.6146568072
 20
4.6342607423
 10
357.9825735442
 20
5.1153172925
 10
355.5409423316
 20
5.7019025894
 10
353.3227898597
 20
6.3860830918
 10
351.3581015119
 20
7.1586078508
 10
349.6734568652
 20
8.0090287534
 10
349.3349019941
 20
8.2102643342
  0
LWPOLYLINE
  5
AC
330
1F
100
AcDbEntity
  8
0
  6
Continuous
 62
     7
370
    15
100
AcDbPolyline
 90
       21
 70
   128
 43
0.0
 10
556.5729015333
 20
-29.8043072315
 10
556.3377790777
 20
-29.955659252
 10
554.7000173411
 20
-30.8631203289
 10
552.7783172964
 20
-31.7023671047
 10
550.5986840857
 20
-32.4620542817
 10
548.1905639471
 20
-33.13190143
 10
545.5865478531
 20
-33.7028563645
 10
542.8218323764
 20
-34.1671929299
 10
539.9338104218
 20
-34.5186330066
 10
536.9615485403
 20
-34.7524273963
 10
533.9452276045
 20
-34.8654106824
 10
530.9256404484
 20
-34.8560544998
 10
527.9436298811
 20
-34.7244884683
 10
525.0395169079
 20
-34.4724907022
 10
522.2525706048
 20
-34.103466646
 10
519.6204933633
 20
-33.6224115389
 10
517.17885914
 20
-33.0358255205
 10
514.9607006466
 20
-32.3516435751
 10
512.9960122988
 20
-31.579118816
 10
511.3113736736
 20
-30.7286993565
 10
510.972812781
 20
-30.5274623326
  0
LWPOLYLINE
  5
AD
330
1F
100
AcDbEntity
  8
0
  6
Continuous
 62
     7
370
    15
100
AcDbPolyline
 90
       59
 70
   128
 43
0.0
 10
362.7856035667
 20
29.6266758391
 10
359.7388407469
 20
29.9760001708
 10
356.8316208831
 20
30.4396488742
 10
354.0980242647
 20
31.0121864703
 10
351.5700991022
 20
31.6869005598
 10
349.2774848862
 20
32.4558808578
 10
347.2470669887
 20
33.3101091902
 10
345.5026354325
 20
34.2395757647
 10
344.0646591832
 20
35.2333773815
 10
342.9499830595
 20
36.2798678793
 10
342.1716806627
 20
37.3667752012
 10
341.7388789136
 20
38.4813573503
 10
341.6566543075
 20
39.610545169
 10
341.9259637131
 20
40.741102107
 10
342.5436518253
 20
41.8597732386
 10
343.502476163
 20
42.9534429106
 10
344.791201888
 20
44.0092870865
 10
346.394712925
 20
45.0149293049
 10
348.2942114265
 20
45.958578423
 10
350.4674331288
 20
46.8291697713
 10
352.8888912385
 20
47.6164983172
 10
355.5301984621
 20
48.3113330015
 10
358.3603833456
 20
48.9055282761
 10
361.3462736643
 20
49.3921157642
 10
364.4528602887
 20
49.7653907216
 10
367.643719062
 20
50.0209785796
 10
370.8814381113
 20
50.1558821375
 10
374.1280621177
 20
50.1685194764
 10
377.3455310627
 20
50.0587415389
 10
380.4961123764
 20
49.8278376541
 10
383.5428751962
 20
49.4785133223
 10
386.45009506
 20
49.014864619
 10
389.1836946891
 20
48.4423263013
 10
391.7116168408
 20
47.7676129333
 10
394.0042280462
 20
46.9986333569
 10
396.0346519651
 20
46.1444035814
 10
397.7790774998
 20
45.21493845
 10
399.2170597706
 20
44.2211353901
 10
400.3317328836
 20
43.1746456138
 10
401.1100352804
 20
42.0877382919
 10
401.5428370295
 20
40.9731561428
 10
401.6250646463
 20
39.8439676026
 10
401.3557552407
 20
38.7134106646
 10
400.7380641178
 20
37.5947402545
 10
399.7792367693
 20
36.5010713041
 10
398.4905140551
 20
35.4452264066
 10
396.8870030181
 20
34.4395841883
 10
394.9875015058
 20
33.4959357917
 10
392.8142828143
 20
32.6253437218
 10
390.3928277153
 20
31.8380144544
 10
387.7515204917
 20
31.1431797701
 10
384.9213295868
 20
30.5489859386
 10
381.935439268
 20
30.0623984505
 10
378.8288556543
 20
29.6891227716
 10
375.6379968811
 20
29.4335349135
 10
372.400274821
 20
29.2986320772
 10
369.1536508147
 20
29.2859947383
 10
365.9361878911
 20
29.3957712327
 10
362.7856035667
 20
29.6266758391
  0
LWPOLYLINE
  5
AE
330
1F
100
AcDbEntity
  8
0
  6
Continuous
 62
     7
370
    15
100
AcDbPolyline
 90
       13
 70
   128
 43
0.0
 10
363.1721003979
 20
5.2553349085
 10
360.1253375781
 20
5.6046592403
 10
357.2181177143
 20
6.0683079436
 10
354.4845210959
 20
6.6408455397
 10
351.9565959334
 20
7.3155596293
 10
349.6639817174
 20
8.0845399273
 10
347.6335638199
 20
8.9387682597
 10
345.8891322637
 20
9.8682348342
 10
344.4511560144
 20
10.8620364509
 10
343.3364798907
 20
11.9085269488
 10
342.5581774939
 20
12.9954342707
 10
342.1253757448
 20
14.1100164198
 10
342.0311254356
 20
14.8802157
  0
LWPOLYLINE
  5
AF
330
1F
100
AcDbEntity
  8
0
  6
Continuous
 62
     7
370
    15
100
AcDbPolyline
 90
       19
 70
   128
 43
0.0
 10
402.0235841698
 20
15.8316159321
 10
402.0115614775
 20
15.472626672
 10
401.7422520719
 20
14.3420697341
 10
401.124560949
 20
13.223399324
 10
400.1657336005
 20
12.1297303735
 10
398.8770108862
 20
11.0738854761
 10
397.2734998493
 20
10.0682432577
 10
395.373998337
 20
9.1245948612
 10
393.2007796455
 20
8.2540027913
 10
390.7793245465
 20
7.4666735238
 10
388.1380173229
 20
6.7718388396
 10
385.307826418
 20
6.1776450081
 10
382.3219360992
 20
5.69105752
 10
379.2153524855
 20
5.317781841
 10
376.0244937123
 20
5.062193983
 10
372.7867716522
 20
4.9272911466
 10
369.5401476458
 20
4.9146538078
 10
366.3226847223
 20
5.0244303021
 10
363.1721003979
 20
5.2553349085
  0
LWPOLYLINE
  5
B0
330
1F
100
AcDbEntity
  8
0
  6
Continuous
 62
     7
370
    15
100
AcDbPolyline
 90
       59
 70
   128
 43
0.0
 10
524.4235143536
 20
-9.1110508278
 10
521.3767575553
 20
-8.7617279391
 10
518.46953167
 20
-8.2980777927
 10
515.7359320409
 20
-7.725539475
 10
513.2080159106
 20
-7.0508275501
 10
510.9154016945
 20
-6.2818472521
 10
508.8849777756
 20
-5.4276174766
 10
507.1405522409
 20
-4.4981523452
 10
505.7025699701
 20
-3.5043492853
 10
504.5878938464
 20
-2.4578587875
 10
503.8095974711
 20
-1.3709529087
 10
503.3767957219
 20
-0.2563707596
 10
503.2945650944
 20
0.8728185022
 10
503.5638745
 20
2.0033754401
 10
504.1815626122
 20
3.1220465718
 10
505.1403929714
 20
4.2157148007
 10
506.4291186964
 20
5.2715589766
 10
508.0326297334
 20
6.277201195
 10
509.9321282349
 20
7.2208503131
 10
512.1053439157
 20
8.0914431045
 10
514.5268020254
 20
8.8787716504
 10
517.168109249
 20
9.5736063346
 10
519.9983001539
 20
10.1678001662
 10
522.9841904727
 20
10.6543876543
 10
526.0907770971
 20
11.0276626117
 10
529.2816358704
 20
11.2832504697
 10
532.5193549197
 20
11.4181540276
 10
535.7659789261
 20
11.4307913665
 10
538.9834418496
 20
11.3210148721
 10
542.1340291848
 20
11.0901095442
 10
545.1807859831
 20
10.7407866555
 10
548.0880118683
 20
10.2771365091
 10
550.8216114975
 20
9.7045981914
 10
553.3495276277
 20
9.0298862665
 10
555.6421418438
 20
8.2609059685
 10
557.6725657627
 20
7.406676193
 10
559.4169912974
 20
6.4772110616
 10
560.8549795897
 20
5.4834065587
 10
561.9696436705
 20
4.436918947
 10
562.7479460673
 20
3.3500116251
 10
563.1807478164
 20
2.235429476
 10
563.2629724225
 20
1.1062416573
 10
562.9936630169
 20
-0.0243152806
 10
562.3759809262
 20
-1.1429878554
 10
561.417150567
 20
-2.2366560843
 10
560.128424842
 20
-3.2925002602
 10
558.5249198265
 20
-4.2981439217
 10
556.625421325
 20
-5.2417930398
 10
554.4521936012
 20
-6.112382945
 10
552.0307415129
 20
-6.899712934
 10
549.3894282679
 20
-7.5945461751
 10
546.5592433844
 20
-8.1887414498
 10
543.5733590871
 20
-8.6753303809
 10
540.4667724627
 20
-9.0486053383
 10
537.275907668
 20
-9.3041917533
 10
534.0381946401
 20
-9.4390967543
 10
530.7915706338
 20
-9.4517340932
 10
527.5740956673
 20
-9.3419547126
 10
524.4235143536
 20
-9.1110508278
  0
LWPOLYLINE
  5
B1
330
1F
100
AcDbEntity
  8
0
  6
Continuous
 62
     7
370
    15
100
AcDbPolyline
 90
       13
 70
   128
 43
0.0
 10
524.8100111848
 20
-33.4823917583
 10
521.7632543865
 20
-33.1330688696
 10
518.8560285012
 20
-32.6694187232
 10
516.1224288721
 20
-32.0968804055
 10
513.5945127418
 20
-31.4221684806
 10
511.3018985257
 20
-30.6531881826
 10
509.2714746068
 20
-29.7989584071
 10
507.5270490721
 20
-28.8694932757
 10
506.0890668013
 20
-27.8756902159
 10
504.9743906776
 20
-26.829199718
 10
504.1960943023
 20
-25.7422938392
 10
503.7632925531
 20
-24.6277116901
 10
503.669042244
 20
-23.8575124099
  0
LWPOLYLINE
  5
B2
330
1F
100
AcDbEntity
  8
0
  6
Continuous
 62
     7
370
    15
100
AcDbPolyline
 90
       19
 70
   128
 43
0.0
 10
563.6614949567
 20
-22.9061107347
 10
563.6494692537
 20
-23.2650992732
 10
563.3801598481
 20
-24.3956562111
 10
562.7624777574
 20
-25.5143287859
 10
561.8036473982
 20
-26.6079970148
 10
560.5149216731
 20
-27.6638411907
 10
558.9114166577
 20
-28.6694848522
 10
557.0119181562
 20
-29.6131339703
 10
554.8386904324
 20
-30.4837238755
 10
552.4172383441
 20
-31.2710538645
 10
549.7759250991
 20
-31.9658871057
 10
546.9457402156
 20
-32.5600823803
 10
543.9598559183
 20
-33.0466713115
 10
540.8532692939
 20
-33.4199462689
 10
537.6624044992
 20
-33.6755326838
 10
534.4246914713
 20
-33.8104376848
 10
531.178067465
 20
-33.8230750237
 10
527.9605924985
 20
-33.7132956431
 10
524.8100111848
 20
-33.4823917583
  0
ENDSEC
  0
SECTION
  2
OBJECTS
  0
DICTIONARY
  5
C
330
0
100
AcDbDictionary
281
     1
  3
ACAD_GROUP
350
D
  3
ACAD_LAYOUT
350
1A
  3
ACAD_MLINESTYLE
350
17
  3
ACAD_PLOTSETTINGS
350
19
  3
ACAD_PLOTSTYLENAME
350
E
  3
ACAD_SCALELIST
350
47
  0
DICTIONARY
  5
D
102
{ACAD_REACTORS
330
C
102
}
330
C
100
AcDbDictionary
281
     1
  0
DICTIONARY
  5
1A
102
{ACAD_REACTORS
330
C
102
}
330
C
100
AcDbDictionary
281
     1
  3
Layout1
350
1E
  3
Layout2
350
26
  3
Model
350
22
  0
DICTIONARY
  5
17
102
{ACAD_REACTORS
330
C
102
}
330
C
100
AcDbDictionary
281
     1
  3
Standard
350
18
  0
DICTIONARY
  5
19
102
{ACAD_REACTORS
330
C
102
}
330
C
100
AcDbDictionary
281
     1
  0
ACDBDICTIONARYWDFLT
  5
E
102
{ACAD_REACTORS
330
C
102
}
330
C
100
AcDbDictionary
281
     1
  3
Normal
350
F
100
AcDbDictionaryWithDefault
340
F
  0
DICTIONARY
  5
47
102
{ACAD_REACTORS
330
C
102
}
330
C
100
AcDbDictionary
281
     1
  3
A0
350
48
  3
A1
350
49
  3
A2
350
4A
  3
A3
350
4B
  3
A4
350
4C
  3
A5
350
4D
  3
A6
350
4E
  3
A7
350
4F
  3
A8
350
50
  3
A9
350
51
  3
B0
350
52
  3
B1
350
53
  3
B2
350
54
  3
B3
350
55
  3
B4
350
56
  3
B5
350
57
  3
B6
350
58
  3
B7
350
59
  3
B8
350
5A
  3
B9
350
5B
  3
C0
350
5C
  3
C1
350
5D
  3
C2
350
5E
  3
C3
350
5F
  3
C4
350
60
  3
C5
350
61
  3
C6
350
62
  3
C7
350
63
  3
C8
350
64
  3
C9
350
65
  3
D0
350
66
  3
D1
350
67
  3
D2
350
68
  0
LAYOUT
  5
1E
102
{ACAD_REACTORS
330
1A
102
}
330
1A
100
AcDbPlotSettings
  1

  2
none_device
  4

  6

 40
0.0
 41
0.0
 42
0.0
 43
0.0
 44
0.0
 45
0.0
 46
0.0
 47
0.0
 48
0.0
 49
0.0
140
0.0
141
0.0
142
1.0
143
1.0
 70
   688
 72
     1
 73
     0
 74
     5
  7

 75
    16
147
1.0
148
0.0
149
0.0
100
AcDbLayout
  1
Layout1
 70
     1
 71
     1
 10
0.0
 20
0.0
 11
420.0
 21
297.0
 12
0.0
 22
0.0
 32
0.0
 14
1.0000000000E+20
 24
1.0000000000E+20
 34
1.0000000000E+20
 15
-1.0000000000E+20
 25
-1.0000000000E+20
 35
-1.0000000000E+20
146
0.0
 13
0.0
 23
0.0
 33
0.0
 16
1.0
 26
0.0
 36
0.0
 17
0.0
 27
1.0
 37
0.0
 76
     0
330
1B
  0
LAYOUT
  5
26
102
{ACAD_REACTORS
330
1A
102
}
330
1A
100
AcDbPlotSettings
  1

  2
none_device
  4

  6

 40
0.0
 41
0.0
 42
0.0
 43
0.0
 44
0.0
 45
0.0
 46
0.0
 47
0.0
 48
0.0
 49
0.0
140
0.0
141
0.0
142
1.0
143
1.0
 70
   688
 72
     1
 73
     0
 74
     5
  7

 75
    16
147
1.0
148
0.0
149
0.0
100
AcDbLayout
  1
Layout2
 70
     1
 71
     2
 10
0.0
 20
0.0
 11
0.0
 21
0.0
 12
0.0
 22
0.0
 32
0.0
 14
0.0
 24
0.0
 34
0.0
 15
0.0
 25
0.0
 35
0.0
146
0.0
 13
0.0
 23
0.0
 33
0.0
 16
1.0
 26
0.0
 36
0.0
 17
0.0
 27
1.0
 37
0.0
 76
     0
330
23
  0
LAYOUT
  5
22
102
{ACAD_REACTORS
330
1A
102
}
330
1A
100
AcDbPlotSettings
  1

  2
none_device
  4
Letter_(8.50_x_11.00_Inches)
  6

 40
6.35
 41
6.35
 42
6.35000508
 43
6.35000508
 44
215.9
 45
279.4
 46
0.0
 47
0.0
 48
0.0
 49
0.0
140
0.0
141
0.0
142
1.0
143
1.0
 70
  1712
 72
     1
 73
     0
 74
     0
  7

 75
     0
147
1.0
148
0.0
149
0.0
100
AcDbLayout
  1
Model
 70
     1
 71
     0
 10
0.0
 20
0.0
 11
297.0
 21
210.0
 12
0.0
 22
0.0
 32
0.0
 14
0.0
 24
0.0
 34
0.0
 15
297.0
 25
210.0
 35
0.0
146
0.0
 13
0.0
 23
0.0
 33
0.0
 16
1.0
 26
0.0
 36
0.0
 17
0.0
 27
1.0
 37
0.0
 76
     0
330
1F
331
29
  0
MLINESTYLE
  5
18
102
{ACAD_REACTORS
330
17
102
}
330
17
100
AcDbMlineStyle
  2
Standard
 70
     0
  3

 62
   256
 51
90.0
 52
90.0
 71
     2
 49
0.5
 62
   256
  6
BYLAYER
 49
-0.5
 62
   256
  6
BYLAYER
  0
ACDBPLACEHOLDER
  5
F
102
{ACAD_REACTORS
330
E
102
}
330
E
  0
SCALE
  5
48
102
{ACAD_REACTORS
330
47
102
}
330
47
100
AcDbScale
 70
     0
300
1:1
140
1.0
141
1.0
290
     1
  0
SCALE
  5
49
102
{ACAD_REACTORS
330
47
102
}
330
47
100
AcDbScale
 70
     0
300
1:2
140
1.0
141
2.0
290
     0
  0
SCALE
  5
4A
102
{ACAD_REACTORS
330
47
102
}
330
47
100
AcDbScale
 70
     0
300
1:4
140
1.0
141
4.0
290
     0
  0
SCALE
  5
4B
102
{ACAD_REACTORS
330
47
102
}
330
47
100
AcDbScale
 70
     0
300
1:5
140
1.0
141
5.0
290
     0
  0
SCALE
  5
4C
102
{ACAD_REACTORS
330
47
102
}
330
47
100
AcDbScale
 70
     0
300
1:8
140
1.0
141
8.0
290
     0
  0
SCALE
  5
4D
102
{ACAD_REACTORS
330
47
102
}
330
47
100
AcDbScale
 70
     0
300
1:10
140
1.0
141
10.0
290
     0
  0
SCALE
  5
4E
102
{ACAD_REACTORS
330
47
102
}
330
47
100
AcDbScale
 70
     0
300
1:16
140
1.0
141
16.0
290
     0
  0
SCALE
  5
4F
102
{ACAD_REACTORS
330
47
102
}
330
47
100
AcDbScale
 70
     0
300
1:20
140
1.0
141
20.0
290
     0
  0
SCALE
  5
50
102
{ACAD_REACTORS
330
47
102
}
330
47
100
AcDbScale
 70
     0
300
1:30
140
1.0
141
30.0
290
     0
  0
SCALE
  5
51
102
{ACAD_REACTORS
330
47
102
}
330
47
100
AcDbScale
 70
     0
300
1:40
140
1.0
141
40.0
290
     0
  0
SCALE
  5
52
102
{ACAD_REACTORS
330
47
102
}
330
47
100
AcDbScale
 70
     0
300
1:50
140
1.0
141
50.0
290
     0
  0
SCALE
  5
53
102
{ACAD_REACTORS
330
47
102
}
330
47
100
AcDbScale
 70
     0
300
1:100
140
1.0
141
100.0
290
     0
  0
SCALE
  5
54
102
{ACAD_REACTORS
330
47
102
}
330
47
100
AcDbScale
 70
     0
300
2:1
140
2.0
141
1.0
290
     0
  0
SCALE
  5
55
102
{ACAD_REACTORS
330
47
102
}
330
47
100
AcDbScale
 70
     0
300
4:1
140
4.0
141
1.0
290
     0
  0
SCALE
  5
56
102
{ACAD_REACTORS
330
47
102
}
330
47
100
AcDbScale
 70
     0
300
8:1
140
8.0
141
1.0
290
     0
  0
SCALE
  5
57
102
{ACAD_REACTORS
330
47
102
}
330
47
100
AcDbScale
 70
     0
300
10:1
140
10.0
141
1.0
290
     0
  0
SCALE
  5
58
102
{ACAD_REACTORS
330
47
102
}
330
47
100
AcDbScale
 70
     0
300
100:1
140
100.0
141
1.0
290
     0
  0
SCALE
  5
59
102
{ACAD_REACTORS
330
47
102
}
330
47
100
AcDbScale
 70
     0
300
1/128" = 1'-0"
140
0.0078125
141
12.0
290
     0
  0
SCALE
  5
5A
102
{ACAD_REACTORS
330
47
102
}
330
47
100
AcDbScale
 70
     0
300
1/64" = 1'-0"
140
0.015625
141
12.0
290
     0
  0
SCALE
  5
5B
102
{ACAD_REACTORS
330
47
102
}
330
47
100
AcDbScale
 70
     0
300
1/32" = 1'-0"
140
0.03125
141
12.0
290
     0
  0
SCALE
  5
5C
102
{ACAD_REACTORS
330
47
102
}
330
47
100
AcDbScale
 70
     0
300
1/16" = 1'-0"
140
0.0625
141
12.0
290
     0
  0
SCALE
  5
5D
102
{ACAD_REACTORS
330
47
102
}
330
47
100
AcDbScale
 70
     0
300
3/32" = 1'-0"
140
0.09375
141
12.0
290
     0
  0
SCALE
  5
5E
102
{ACAD_REACTORS
330
47
102
}
330
47
100
AcDbScale
 70
     0
300
1/8" = 1'-0"
140
0.125
141
12.0
290
     0
  0
SCALE
  5
5F
102
{ACAD_REACTORS
330
47
102
}
330
47
100
AcDbScale
 70
     0
300
3/16" = 1'-0"
140
0.1875
141
12.0
290
     0
  0
SCALE
  5
60
102
{ACAD_REACTORS
330
47
102
}
330
47
100
AcDbScale
 70
     0
300
1/4" = 1'-0"
140
0.25
141
12.0
290
     0
  0
SCALE
  5
61
102
{ACAD_REACTORS
330
47
102
}
330
47
100
AcDbScale
 70
     0
300
3/8" = 1'-0"
140
0.375
141
12.0
290
     0
  0
SCALE
  5
62
102
{ACAD_REACTORS
330
47
102
}
330
47
100
AcDbScale
 70
     0
300
1/2" = 1'-0"
140
0.5
141
12.0
290
     0
  0
SCALE
  5
63
102
{ACAD_REACTORS
330
47
102
}
330
47
100
AcDbScale
 70
     0
300
3/4" = 1'-0"
140
0.75
141
12.0
290
     0
  0
SCALE
  5
64
102
{ACAD_REACTORS
330
47
102
}
330
47
100
AcDbScale
 70
     0
300
1" = 1'-0"
140
1.0
141
12.0
290
     0
  0
SCALE
  5
65
102
{ACAD_REACTORS
330
47
102
}
330
47
100
AcDbScale
 70
     0
300
1-1/2" = 1'-0"
140
1.5
141
12.0
290
     0
  0
SCALE
  5
66
102
{ACAD_REACTORS
330
47
102
}
330
47
100
AcDbScale
 70
     0
300
3" = 1'-0"
140
3.0
141
12.0
290
     0
  0
SCALE
  5
67
102
{ACAD_REACTORS
330
47
102
}
330
47
100
AcDbScale
 70
     0
300
6" = 1'-0"
140
6.0
141
12.0
290
     0
  0
SCALE
  5
68
102
{ACAD_REACTORS
330
47
102
}
330
47
100
AcDbScale
 70
     0
300
1'-0" = 1'-0"
140
12.0
141
12.0
290
     0
  0
ENDSEC
  0
EOF
