999
Erzeugt mit innoplus bad 
0
SECTION
2
HEADER
9
$ACADVER
1
AC1009
9
$DWGCODEPAGE
3
ISO8859-1
0
ENDSEC
0
SECTION
2
TABLES
0
TABLE
2
LAYER
70
1
0
LAYER
2
0
70
0
62
7
6
CONTINUOUS
0
ENDTAB
0
ENDSEC
0
SECTION
2
ENTITIES
0
LINE
8
0
6
CONTINUOUS
10
134.500000
20
23.500000
30
0.0
11
135.207107
21
23.500000
31
0.0
0
LINE
8
0
6
CONTINUOUS
10
134.000000
20
24.000000
30
0.0
11
134.500000
21
23.500000
31
0.0
0
LINE
8
0
6
CONTINUOUS
10
135.207107
20
23.500000
30
0.0
11
148.792893
21
23.500000
31
0.0
0
LINE
8
0
6
CONTINUOUS
10
149.500000
20
23.500000
30
0.0
11
150.000000
21
24.000000
31
0.0
0
LINE
8
0
6
CONTINUOUS
10
148.792893
20
23.500000
30
0.0
11
149.500000
21
23.500000
31
0.0
0
LINE
8
0
6
CONTINUOUS
10
134.000000
20
24.000000
30
0.0
11
135.000000
21
24.000000
31
0.0
0
LINE
8
0
6
CONTINUOUS
10
134.000000
20
37.500000
30
0.0
11
134.000000
21
24.000000
31
0.0
0
LINE
8
0
6
CONTINUOUS
10
135.000000
20
37.500000
30
0.0
11
134.000000
21
37.500000
31
0.0
0
LINE
8
0
6
CONTINUOUS
10
135.000000
20
24.000000
30
0.0
11
149.000000
21
24.000000
31
0.0
0
LINE
8
0
6
CONTINUOUS
10
135.000000
20
37.500000
30
0.0
11
135.000000
21
24.000000
31
0.0
0
LINE
8
0
6
CONTINUOUS
10
149.000000
20
37.500000
30
0.0
11
135.000000
21
37.500000
31
0.0
0
LINE
8
0
6
CONTINUOUS
10
150.000000
20
24.000000
30
0.0
11
150.000000
21
37.500000
31
0.0
0
LINE
8
0
6
CONTINUOUS
10
149.000000
20
24.000000
30
0.0
11
150.000000
21
24.000000
31
0.0
0
LINE
8
0
6
CONTINUOUS
10
149.000000
20
37.500000
30
0.0
11
149.000000
21
24.000000
31
0.0
0
LINE
8
0
6
CONTINUOUS
10
150.000000
20
37.500000
30
0.0
11
149.000000
21
37.500000
31
0.0
0
LINE
8
0
6
CONTINUOUS
10
-149.500000
20
23.500000
30
0.0
11
-148.792893
21
23.500000
31
0.0
0
LINE
8
0
6
CONTINUOUS
10
-150.000000
20
24.000000
30
0.0
11
-149.500000
21
23.500000
31
0.0
0
LINE
8
0
6
CONTINUOUS
10
-148.792893
20
23.500000
30
0.0
11
-135.207107
21
23.500000
31
0.0
0
LINE
8
0
6
CONTINUOUS
10
-134.500000
20
23.500000
30
0.0
11
-134.000000
21
24.000000
31
0.0
0
LINE
8
0
6
CONTINUOUS
10
-135.207107
20
23.500000
30
0.0
11
-134.500000
21
23.500000
31
0.0
0
LINE
8
0
6
CONTINUOUS
10
-150.000000
20
24.000000
30
0.0
11
-149.000000
21
24.000000
31
0.0
0
LINE
8
0
6
CONTINUOUS
10
-150.000000
20
37.500000
30
0.0
11
-150.000000
21
24.000000
31
0.0
0
LINE
8
0
6
CONTINUOUS
10
-149.000000
20
37.500000
30
0.0
11
-150.000000
21
37.500000
31
0.0
0
LINE
8
0
6
CONTINUOUS
10
-149.000000
20
24.000000
30
0.0
11
-135.000000
21
24.000000
31
0.0
0
LINE
8
0
6
CONTINUOUS
10
-149.000000
20
37.500000
30
0.0
11
-149.000000
21
24.000000
31
0.0
0
LINE
8
0
6
CONTINUOUS
10
-135.000000
20
37.500000
30
0.0
11
-149.000000
21
37.500000
31
0.0
0
LINE
8
0
6
CONTINUOUS
10
-134.000000
20
24.000000
30
0.0
11
-134.000000
21
37.500000
31
0.0
0
LINE
8
0
6
CONTINUOUS
10
-135.000000
20
24.000000
30
0.0
11
-134.000000
21
24.000000
31
0.0
0
LINE
8
0
6
CONTINUOUS
10
-135.000000
20
37.500000
30
0.0
11
-135.000000
21
24.000000
31
0.0
0
LINE
8
0
6
CONTINUOUS
10
-134.000000
20
37.500000
30
0.0
11
-135.000000
21
37.500000
31
0.0
0
LINE
8
0
6
CONTINUOUS
10
149.500000
20
23.500000
30
0.0
11
148.792893
21
23.500000
31
0.0
0
LINE
8
0
6
CONTINUOUS
10
150.000000
20
23.000000
30
0.0
11
149.500000
21
23.500000
31
0.0
0
LINE
8
0
6
CONTINUOUS
10
148.792893
20
23.500000
30
0.0
11
135.207107
21
23.500000
31
0.0
0
LINE
8
0
6
CONTINUOUS
10
134.500000
20
23.500000
30
0.0
11
134.000000
21
23.000000
31
0.0
0
LINE
8
0
6
CONTINUOUS
10
135.207107
20
23.500000
30
0.0
11
134.500000
21
23.500000
31
0.0
0
LINE
8
0
6
CONTINUOUS
10
-134.500000
20
23.500000
30
0.0
11
-135.207107
21
23.500000
31
0.0
0
LINE
8
0
6
CONTINUOUS
10
-134.000000
20
23.000000
30
0.0
11
-134.500000
21
23.500000
31
0.0
0
LINE
8
0
6
CONTINUOUS
10
-135.207107
20
23.500000
30
0.0
11
-148.792893
21
23.500000
31
0.0
0
LINE
8
0
6
CONTINUOUS
10
-149.500000
20
23.500000
30
0.0
11
-150.000000
21
23.000000
31
0.0
0
LINE
8
0
6
CONTINUOUS
10
-148.792893
20
23.500000
30
0.0
11
-149.500000
21
23.500000
31
0.0
0
LINE
8
0
6
CONTINUOUS
10
134.000000
20
23.000000
30
0.0
11
134.000000
21
-18.500000
31
0.0
0
LINE
8
0
6
CONTINUOUS
10
135.000000
20
23.000000
30
0.0
11
134.000000
21
23.000000
31
0.0
0
LINE
8
0
6
CONTINUOUS
10
134.000000
20
-18.500000
30
0.0
11
132.535534
21
-22.035534
31
0.0
0
LINE
8
0
6
CONTINUOUS
10
132.535534
20
-22.035534
30
0.0
11
129.000000
21
-23.500000
31
0.0
0
LINE
8
0
6
CONTINUOUS
10
129.000000
20
-23.500000
30
0.0
11
-129.000000
21
-23.500000
31
0.0
0
LINE
8
0
6
CONTINUOUS
10
-129.000000
20
-23.500000
30
0.0
11
-132.535534
21
-22.035534
31
0.0
0
LINE
8
0
6
CONTINUOUS
10
-132.535534
20
-22.035534
30
0.0
11
-134.000000
21
-18.500000
31
0.0
0
LINE
8
0
6
CONTINUOUS
10
-134.000000
20
23.000000
30
0.0
11
-135.000000
21
23.000000
31
0.0
0
LINE
8
0
6
CONTINUOUS
10
-134.000000
20
-18.500000
30
0.0
11
-134.000000
21
23.000000
31
0.0
0
LINE
8
0
6
CONTINUOUS
10
150.000000
20
-34.500000
30
0.0
11
150.000000
21
23.000000
31
0.0
0
LINE
8
0
6
CONTINUOUS
10
150.000000
20
23.000000
30
0.0
11
149.000000
21
23.000000
31
0.0
0
LINE
8
0
6
CONTINUOUS
10
149.121320
20
-36.621320
30
0.0
11
150.000000
21
-34.500000
31
0.0
0
LINE
8
0
6
CONTINUOUS
10
147.000000
20
-37.500000
30
0.0
11
149.121320
21
-36.621320
31
0.0
0
LINE
8
0
6
CONTINUOUS
10
-147.000000
20
-37.500000
30
0.0
11
147.000000
21
-37.500000
31
0.0
0
LINE
8
0
6
CONTINUOUS
10
-149.121320
20
-36.621320
30
0.0
11
-147.000000
21
-37.500000
31
0.0
0
LINE
8
0
6
CONTINUOUS
10
-150.000000
20
-34.500000
30
0.0
11
-149.121320
21
-36.621320
31
0.0
0
LINE
8
0
6
CONTINUOUS
10
-150.000000
20
23.000000
30
0.0
11
-150.000000
21
-34.500000
31
0.0
0
LINE
8
0
6
CONTINUOUS
10
-149.000000
20
23.000000
30
0.0
11
-150.000000
21
23.000000
31
0.0
0
LINE
8
0
6
CONTINUOUS
10
130.267068
20
-24.676521
30
0.0
11
-130.267068
21
-24.676521
31
0.0
0
LINE
8
0
6
CONTINUOUS
10
135.000000
20
23.000000
30
0.0
11
135.088096
21
-19.844595
31
0.0
0
LINE
8
0
6
CONTINUOUS
10
149.000000
20
23.000000
30
0.0
11
135.000000
21
23.000000
31
0.0
0
LINE
8
0
6
CONTINUOUS
10
148.911904
20
-33.155405
30
0.0
11
149.000000
21
23.000000
31
0.0
0
LINE
8
0
6
CONTINUOUS
10
-145.732932
20
-36.323479
30
0.0
11
145.732932
21
-36.323479
31
0.0
0
LINE
8
0
6
CONTINUOUS
10
-149.000000
20
23.000000
30
0.0
11
-148.911904
21
-33.155405
31
0.0
0
LINE
8
0
6
CONTINUOUS
10
-135.000000
20
23.000000
30
0.0
11
-149.000000
21
23.000000
31
0.0
0
LINE
8
0
6
CONTINUOUS
10
-135.088096
20
-19.844595
30
0.0
11
-135.000000
21
23.000000
31
0.0
0
ENDSEC
0
EOF
