  0
SECTION
  2
HEADER
  9
$ACADVER
  1
AC1024
  9
$ACADMAINTVER
 70
     6
  9
$DWGCODEPAGE
  3
UNDEFINED
  9
$INSBASE
 10
0.0
 20
0.0
 30
0.0
  9
$EXTMIN
 10
1.000000000000000E+20
 20
1.000000000000000E+20
 30
1.000000000000000E+20
  9
$EXTMAX
 10
-1.000000000000000E+20
 20
-1.000000000000000E+20
 30
-1.000000000000000E+20
  9
$LIMMIN
 10
0.0
 20
0.0
  9
$LIMMAX
 10
12.0
 20
9.0
  9
$ORTHOMODE
 70
     0
  9
$REGENMODE
 70
     1
  9
$FILLMODE
 70
     1
  9
$QTEXTMODE
 70
     0
  9
$MIRRTEXT
 70
     1
  9
$LTSCALE
 40
1.0
  9
$ATTMODE
 70
     1
  9
$TEXTSIZE
 40
0.2
  9
$TRACEWID
 40
0.05
  9
$TEXTSTYLE
  7
Standard
  9
$CLAYER
  8
0
  9
$CELTYPE
  6
ByLayer
  9
$CECOLOR
 62
   256
  9
$CELTSCALE
 40
1.0
  9
$DISPSILH
 70
     0
  9
$DIMSCALE
 40
1.0
  9
$DIMASZ
 40
0.18
  9
$DIMEXO
 40
0.0625
  9
$DIMDLI
 40
0.38
  9
$DIMRND
 40
0.0
  9
$DIMDLE
 40
0.0
  9
$DIMEXE
 40
0.18
  9
$DIMTP
 40
0.0
  9
$DIMTM
 40
0.0
  9
$DIMTXT
 40
0.18
  9
$DIMCEN
 40
0.09
  9
$DIMTSZ
 40
0.0
  9
$DIMTOL
 70
     0
  9
$DIMLIM
 70
     0
  9
$DIMTIH
 70
     1
  9
$DIMTOH
 70
     1
  9
$DIMSE1
 70
     0
  9
$DIMSE2
 70
     0
  9
$DIMTAD
 70
     0
  9
$DIMZIN
 70
     0
  9
$DIMBLK
  1

  9
$DIMASO
 70
     1
  9
$DIMSHO
 70
     1
  9
$DIMPOST
  1

  9
$DIMAPOST
  1

  9
$DIMALT
 70
     0
  9
$DIMALTD
 70
     2
  9
$DIMALTF
 40
25.4
  9
$DIMLFAC
 40
1.0
  9
$DIMTOFL
 70
     0
  9
$DIMTVP
 40
0.0
  9
$DIMTIX
 70
     0
  9
$DIMSOXD
 70
     0
  9
$DIMSAH
 70
     0
  9
$DIMBLK1
  1

  9
$DIMBLK2
  1

  9
$DIMSTYLE
  2
Standard
  9
$DIMCLRD
 70
     0
  9
$DIMCLRE
 70
     0
  9
$DIMCLRT
 70
     0
  9
$DIMTFAC
 40
1.0
  9
$DIMGAP
 40
0.09
  9
$DIMJUST
 70
     0
  9
$DIMSD1
 70
     0
  9
$DIMSD2
 70
     0
  9
$DIMTOLJ
 70
     1
  9
$DIMTZIN
 70
     0
  9
$DIMALTZ
 70
     0
  9
$DIMALTTZ
 70
     0
  9
$DIMUPT
 70
     0
  9
$DIMDEC
 70
     4
  9
$DIMTDEC
 70
     4
  9
$DIMALTU
 70
     2
  9
$DIMALTTD
 70
     2
  9
$DIMTXSTY
  7
Standard
  9
$DIMAUNIT
 70
     0
  9
$DIMADEC
 70
     0
  9
$DIMALTRND
 40
0.0
  9
$DIMAZIN
 70
     0
  9
$DIMDSEP
 70
    46
  9
$DIMATFIT
 70
     3
  9
$DIMFRAC
 70
     0
  9
$DIMLDRBLK
  1

  9
$DIMLUNIT
 70
     2
  9
$DIMLWD
 70
    -2
  9
$DIMLWE
 70
    -2
  9
$DIMTMOVE
 70
     0
  9
$DIMFXL
 40
1.0
  9
$DIMFXLON
 70
     0
  9
$DIMJOGANG
 40
0.7853981633974483
  9
$DIMTFILL
 70
     0
  9
$DIMTFILLCLR
 70
     0
  9
$DIMARCSYM
 70
     0
  9
$DIMLTYPE
  6

  9
$DIMLTEX1
  6

  9
$DIMLTEX2
  6

  9
$DIMTXTDIRECTION
 70
     0
  9
$LUNITS
 70
     2
  9
$LUPREC
 70
     4
  9
$SKETCHINC
 40
0.1
  9
$FILLETRAD
 40
0.5
  9
$AUNITS
 70
     0
  9
$AUPREC
 70
     0
  9
$MENU
  1
.
  9
$ELEVATION
 40
0.0
  9
$PELEVATION
 40
0.0
  9
$THICKNESS
 40
0.0
  9
$LIMCHECK
 70
     0
  9
$CHAMFERA
 40
0.5
  9
$CHAMFERB
 40
0.5
  9
$CHAMFERC
 40
1.0
  9
$CHAMFERD
 40
0.0
  9
$SKPOLY
 70
     0
  9
$TDCREATE
 40
2458759.520532396
  9
$TDUCREATE
 40
2458759.103865741
  9
$TDUPDATE
 40
2458759.520532396
  9
$TDUUPDATE
 40
2458759.103865741
  9
$TDINDWG
 40
0.0000000116
  9
$TDUSRTIMER
 40
0.0000000116
  9
$USRTIMER
 70
     1
  9
$ANGBASE
 50
0.0
  9
$ANGDIR
 70
     0
  9
$PDMODE
 70
     0
  9
$PDSIZE
 40
0.0
  9
$PLINEWID
 40
0.0
  9
$SPLFRAME
 70
     0
  9
$SPLINETYPE
 70
     6
  9
$SPLINESEGS
 70
     8
  9
$HANDSEED
  5
20A
  9
$SURFTAB1
 70
     6
  9
$SURFTAB2
 70
     6
  9
$SURFTYPE
 70
     6
  9
$SURFU
 70
     6
  9
$SURFV
 70
     6
  9
$UCSBASE
  2

  9
$UCSNAME
  2

  9
$UCSORG
 10
0.0
 20
0.0
 30
0.0
  9
$UCSXDIR
 10
1.0
 20
0.0
 30
0.0
  9
$UCSYDIR
 10
0.0
 20
1.0
 30
0.0
  9
$UCSORTHOREF
  2

  9
$UCSORTHOVIEW
 70
     0
  9
$UCSORGTOP
 10
0.0
 20
0.0
 30
0.0
  9
$UCSORGBOTTOM
 10
0.0
 20
0.0
 30
0.0
  9
$UCSORGLEFT
 10
0.0
 20
0.0
 30
0.0
  9
$UCSORGRIGHT
 10
0.0
 20
0.0
 30
0.0
  9
$UCSORGFRONT
 10
0.0
 20
0.0
 30
0.0
  9
$UCSORGBACK
 10
0.0
 20
0.0
 30
0.0
  9
$PUCSBASE
  2

  9
$PUCSNAME
  2

  9
$PUCSORG
 10
0.0
 20
0.0
 30
0.0
  9
$PUCSXDIR
 10
1.0
 20
0.0
 30
0.0
  9
$PUCSYDIR
 10
0.0
 20
1.0
 30
0.0
  9
$PUCSORTHOREF
  2

  9
$PUCSORTHOVIEW
 70
     0
  9
$PUCSORGTOP
 10
0.0
 20
0.0
 30
0.0
  9
$PUCSORGBOTTOM
 10
0.0
 20
0.0
 30
0.0
  9
$PUCSORGLEFT
 10
0.0
 20
0.0
 30
0.0
  9
$PUCSORGRIGHT
 10
0.0
 20
0.0
 30
0.0
  9
$PUCSORGFRONT
 10
0.0
 20
0.0
 30
0.0
  9
$PUCSORGBACK
 10
0.0
 20
0.0
 30
0.0
  9
$USERI1
 70
     0
  9
$USERI2
 70
     0
  9
$USERI3
 70
     0
  9
$USERI4
 70
     0
  9
$USERI5
 70
     0
  9
$USERR1
 40
0.0
  9
$USERR2
 40
0.0
  9
$USERR3
 40
0.0
  9
$USERR4
 40
0.0
  9
$USERR5
 40
0.0
  9
$WORLDVIEW
 70
     1
  9
$SHADEDGE
 70
     3
  9
$SHADEDIF
 70
    70
  9
$TILEMODE
 70
     1
  9
$MAXACTVP
 70
    64
  9
$PINSBASE
 10
0.0
 20
0.0
 30
0.0
  9
$PLIMCHECK
 70
     0
  9
$PEXTMIN
 10
1.000000000000000E+20
 20
1.000000000000000E+20
 30
1.000000000000000E+20
  9
$PEXTMAX
 10
-1.000000000000000E+20
 20
-1.000000000000000E+20
 30
-1.000000000000000E+20
  9
$PLIMMIN
 10
0.0
 20
0.0
  9
$PLIMMAX
 10
12.0
 20
9.0
  9
$UNITMODE
 70
     0
  9
$VISRETAIN
 70
     1
  9
$PLINEGEN
 70
     0
  9
$PSLTSCALE
 70
     1
  9
$TREEDEPTH
 70
  3020
  9
$CMLSTYLE
  2
Standard
  9
$CMLJUST
 70
     0
  9
$CMLSCALE
 40
1.0
  9
$PROXYGRAPHICS
 70
     1
  9
$MEASUREMENT
 70
     0
  9
$CELWEIGHT
370
    -1
  9
$ENDCAPS
280
     0
  9
$JOINSTYLE
280
     0
  9
$LWDISPLAY
290
     1
  9
$INSUNITS
 70
     1
  9
$HYPERLINKBASE
  1

  9
$STYLESHEET
  1

  9
$XEDIT
290
     1
  9
$CEPSNTYPE
380
     0
  9
$PSTYLEMODE
290
     1
  9
$FINGERPRINTGUID
  2
{02AB2E74-F014-CC19-11F0-05AE6B65458D}
  9
$VERSIONGUID
  2
{FAEB1C32-E019-11D5-929B-00C0DF256EC4}
  9
$EXTNAMES
290
     1
  9
$PSVPSCALE
 40
0.0
  9
$OLESTARTUP
290
     0
  9
$SORTENTS
280
   127
  9
$INDEXCTL
280
     0
  9
$HIDETEXT
280
     1
  9
$XCLIPFRAME
280
     2
  9
$HALOGAP
280
     0
  9
$OBSCOLOR
 70
   257
  9
$OBSLTYPE
280
     0
  9
$INTERSECTIONDISPLAY
280
     0
  9
$INTERSECTIONCOLOR
 70
   257
  9
$DIMASSOC
280
     2
  9
$PROJECTNAME
  1

  9
$CAMERADISPLAY
290
     0
  9
$LENSLENGTH
 40
50.0
  9
$CAMERAHEIGHT
 40
0.0
  9
$STEPSPERSEC
 40
2.0
  9
$STEPSIZE
 40
6.0
  9
$3DDWFPREC
 40
2.0
  9
$PSOLWIDTH
 40
0.25
  9
$PSOLHEIGHT
 40
4.0
  9
$LOFTANG1
 40
1.570796326794897
  9
$LOFTANG2
 40
1.570796326794897
  9
$LOFTMAG1
 40
0.0
  9
$LOFTMAG2
 40
0.0
  9
$LOFTPARAM
 70
     7
  9
$LOFTNORMALS
280
     1
  9
$LATITUDE
 40
37.795
  9
$LONGITUDE
 40
-122.394
  9
$NORTHDIRECTION
 40
0.0
  9
$TIMEZONE
 70
 -8000
  9
$LIGHTGLYPHDISPLAY
280
     1
  9
$TILEMODELIGHTSYNCH
280
     1
  9
$CMATERIAL
347
3C
  9
$SOLIDHIST
280
     1
  9
$SHOWHIST
280
     1
  9
$DWFFRAME
280
     2
  9
$DGNFRAME
280
     2
  9
$REALWORLDSCALE
290
     1
  9
$INTERFERECOLOR
 62
   256
  9
$CSHADOW
280
     0
  9
$SHADOWPLANELOCATION
 40
0.0
  0
ENDSEC
  0
SECTION
  2
CLASSES
  0
CLASS
  1
ACDBDICTIONARYWDFLT
  2
AcDbDictionaryWithDefault
  3
ObjectDBX Classes
 90
        0
 91
        4
280
     0
281
     0
  0
CLASS
  1
VISUALSTYLE
  2
AcDbVisualStyle
  3
ObjectDBX Classes
 90
     4095
 91
        4
280
     0
281
     0
  0
CLASS
  1
MATERIAL
  2
AcDbMaterial
  3
ObjectDBX Classes
 90
     1153
 91
        4
280
     0
281
     0
  0
CLASS
  1
SUN
  2
AcDbSun
  3
SCENEOE
 90
     1024
 91
        4
280
     0
281
     0
  0
ENDSEC
  0
SECTION
  2
TABLES
  0
TABLE
  2
VPORT
  5
8
330
0
100
AcDbSymbolTable
 70
     1
  0
VPORT
  5
29
330
8
100
AcDbSymbolTableRecord
100
AcDbViewportTableRecord
  2
*Active
 70
     0
 10
0.0
 20
0.0
 11
1.0
 21
1.0
 12
0.0
 22
0.0
 13
0.0
 23
0.0
 14
0.5
 24
0.5
 15
0.5
 25
0.5
 16
0.0
 26
0.0
 36
1.0
 17
90.5
 27
177.25
 37
0.0
 40
409.5
 41
0.442002442002442
 42
50.0
 43
0.0
 44
0.0
 50
0.0
 51
0.0
 71
     0
 72
   100
 73
     1
 74
     3
 75
     0
 76
     0
 77
     0
 78
     0
281
     0
 65
     1
110
0.0
120
0.0
130
0.0
111
1.0
121
0.0
131
0.0
112
0.0
122
1.0
132
0.0
 79
     0
146
0.0
 60
     3
 61
     5
292
     1
282
     1
141
0.0
142
0.0
 63
   250
361
3F
  0
ENDTAB
  0
TABLE
  2
LTYPE
  5
5
330
0
100
AcDbSymbolTable
 70
     1
  0
LTYPE
  5
14
330
5
100
AcDbSymbolTableRecord
100
AcDbLinetypeTableRecord
  2
ByBlock
 70
     0
  3

 72
    65
 73
     0
 40
0.0
  0
LTYPE
  5
15
330
5
100
AcDbSymbolTableRecord
100
AcDbLinetypeTableRecord
  2
ByLayer
 70
     0
  3

 72
    65
 73
     0
 40
0.0
  0
LTYPE
  5
16
330
5
100
AcDbSymbolTableRecord
100
AcDbLinetypeTableRecord
  2
Continuous
 70
     0
  3
Solid line
 72
    65
 73
     0
 40
0.0
  0
ENDTAB
  0
TABLE
  2
LAYER
  5
2
330
0
100
AcDbSymbolTable
 70
     2
  0
LAYER
  5
10
330
2
100
AcDbSymbolTableRecord
100
AcDbLayerTableRecord
  2
0
 70
     0
 62
     7
  6
Continuous
370
    -3
390
F
347
3E
  0
LAYER
  5
40
330
2
100
AcDbSymbolTableRecord
100
AcDbLayerTableRecord
  2
Defpoints
 70
     0
 62
     7
  6
Continuous
290
     0
370
    -3
390
F
347
3E
  0
ENDTAB
  0
TABLE
  2
STYLE
  5
3
330
0
100
AcDbSymbolTable
 70
     1
  0
STYLE
  5
11
330
3
100
AcDbSymbolTableRecord
100
AcDbTextStyleTableRecord
  2
Standard
 70
     0
 40
0.0
 41
1.0
 50
0.0
 71
     0
 42
0.2
  3
txt
  4

  0
ENDTAB
  0
TABLE
  2
VIEW
  5
6
330
0
100
AcDbSymbolTable
 70
     0
  0
ENDTAB
  0
TABLE
  2
UCS
  5
7
330
0
100
AcDbSymbolTable
 70
     0
  0
ENDTAB
  0
TABLE
  2
APPID
  5
9
330
0
100
AcDbSymbolTable
 70
     1
  0
APPID
  5
12
330
9
100
AcDbSymbolTableRecord
100
AcDbRegAppTableRecord
  2
ACAD
 70
     0
  0
ENDTAB
  0
TABLE
  2
DIMSTYLE
  5
A
330
0
100
AcDbSymbolTable
 70
     1
100
AcDbDimStyleTable
  0
DIMSTYLE
105
27
330
A
100
AcDbSymbolTableRecord
100
AcDbDimStyleTableRecord
  2
Standard
 70
     0
178
     0
340
11
  0
ENDTAB
  0
TABLE
  2
BLOCK_RECORD
  5
1
330
0
100
AcDbSymbolTable
 70
    27
  0
BLOCK_RECORD
  5
1F
330
1
100
AcDbSymbolTableRecord
100
AcDbBlockTableRecord
  2
*Model_Space
340
22
 70
     0
280
     1
281
     0
  0
BLOCK_RECORD
  5
1B
330
1
100
AcDbSymbolTableRecord
100
AcDbBlockTableRecord
  2
*Paper_Space
340
1E
 70
     0
280
     1
281
     0
  0
BLOCK_RECORD
  5
23
330
1
100
AcDbSymbolTableRecord
100
AcDbBlockTableRecord
  2
*Paper_Space0
340
26
 70
     0
280
     1
281
     0
  0
BLOCK_RECORD
  5
41
330
1
100
AcDbSymbolTableRecord
100
AcDbBlockTableRecord
  2
block 2
340
0
102
{BLKREFS
331
42
102
}
 70
     0
280
     1
281
     0
  0
BLOCK_RECORD
  5
49
330
1
100
AcDbSymbolTableRecord
100
AcDbBlockTableRecord
  2
block 3
340
0
102
{BLKREFS
331
4A
102
}
 70
     0
280
     1
281
     0
  0
BLOCK_RECORD
  5
51
330
1
100
AcDbSymbolTableRecord
100
AcDbBlockTableRecord
  2
block 4
340
0
102
{BLKREFS
331
52
102
}
 70
     0
280
     1
281
     0
  0
BLOCK_RECORD
  5
59
330
1
100
AcDbSymbolTableRecord
100
AcDbBlockTableRecord
  2
block 5
340
0
102
{BLKREFS
331
5A
102
}
 70
     0
280
     1
281
     0
  0
BLOCK_RECORD
  5
61
330
1
100
AcDbSymbolTableRecord
100
AcDbBlockTableRecord
  2
block 6
340
0
102
{BLKREFS
331
62
102
}
 70
     0
280
     1
281
     0
  0
BLOCK_RECORD
  5
69
330
1
100
AcDbSymbolTableRecord
100
AcDbBlockTableRecord
  2
block 7
340
0
102
{BLKREFS
331
6A
102
}
 70
     0
280
     1
281
     0
  0
BLOCK_RECORD
  5
71
330
1
100
AcDbSymbolTableRecord
100
AcDbBlockTableRecord
  2
block 8
340
0
102
{BLKREFS
331
72
102
}
 70
     0
280
     1
281
     0
  0
BLOCK_RECORD
  5
79
330
1
100
AcDbSymbolTableRecord
100
AcDbBlockTableRecord
  2
block 9
340
0
102
{BLKREFS
331
7A
102
}
 70
     0
280
     1
281
     0
  0
BLOCK_RECORD
  5
7E
330
1
100
AcDbSymbolTableRecord
100
AcDbBlockTableRecord
  2
block 10
340
0
102
{BLKREFS
331
7F
102
}
 70
     0
280
     1
281
     0
  0
BLOCK_RECORD
  5
83
330
1
100
AcDbSymbolTableRecord
100
AcDbBlockTableRecord
  2
block 11
340
0
102
{BLKREFS
331
84
102
}
 70
     0
280
     1
281
     0
  0
BLOCK_RECORD
  5
88
330
1
100
AcDbSymbolTableRecord
100
AcDbBlockTableRecord
  2
block 12
340
0
102
{BLKREFS
331
89
102
}
 70
     0
280
     1
281
     0
  0
BLOCK_RECORD
  5
8D
330
1
100
AcDbSymbolTableRecord
100
AcDbBlockTableRecord
  2
block 13
340
0
102
{BLKREFS
331
8E
102
}
 70
     0
280
     1
281
     0
  0
BLOCK_RECORD
  5
92
330
1
100
AcDbSymbolTableRecord
100
AcDbBlockTableRecord
  2
block 14
340
0
102
{BLKREFS
331
93
102
}
 70
     0
280
     1
281
     0
  0
BLOCK_RECORD
  5
9A
330
1
100
AcDbSymbolTableRecord
100
AcDbBlockTableRecord
  2
block 15
340
0
102
{BLKREFS
331
9B
102
}
 70
     0
280
     1
281
     0
  0
BLOCK_RECORD
  5
A2
330
1
100
AcDbSymbolTableRecord
100
AcDbBlockTableRecord
  2
block 16
340
0
102
{BLKREFS
331
A3
102
}
 70
     0
280
     1
281
     0
  0
BLOCK_RECORD
  5
AA
330
1
100
AcDbSymbolTableRecord
100
AcDbBlockTableRecord
  2
block 17
340
0
102
{BLKREFS
331
AB
102
}
 70
     0
280
     1
281
     0
  0
BLOCK_RECORD
  5
B2
330
1
100
AcDbSymbolTableRecord
100
AcDbBlockTableRecord
  2
block 18
340
0
102
{BLKREFS
331
B3
102
}
 70
     0
280
     1
281
     0
  0
BLOCK_RECORD
  5
BA
330
1
100
AcDbSymbolTableRecord
100
AcDbBlockTableRecord
  2
block 19
340
0
102
{BLKREFS
331
BB
102
}
 70
     0
280
     1
281
     0
  0
BLOCK_RECORD
  5
C2
330
1
100
AcDbSymbolTableRecord
100
AcDbBlockTableRecord
  2
block 20
340
0
102
{BLKREFS
331
C3
102
}
 70
     0
280
     1
281
     0
  0
BLOCK_RECORD
  5
C7
330
1
100
AcDbSymbolTableRecord
100
AcDbBlockTableRecord
  2
block 21
340
0
102
{BLKREFS
331
C8
102
}
 70
     0
280
     1
281
     0
  0
BLOCK_RECORD
  5
1CB
330
1
100
AcDbSymbolTableRecord
100
AcDbBlockTableRecord
  2
block 22
340
0
102
{BLKREFS
331
1CC
102
}
 70
     0
280
     1
281
     0
  0
BLOCK_RECORD
  5
1D3
330
1
100
AcDbSymbolTableRecord
100
AcDbBlockTableRecord
  2
block 23
340
0
102
{BLKREFS
331
1D4
102
}
 70
     0
280
     1
281
     0
  0
BLOCK_RECORD
  5
1DB
330
1
100
AcDbSymbolTableRecord
100
AcDbBlockTableRecord
  2
block 24
340
0
102
{BLKREFS
331
1DC
102
}
 70
     0
280
     1
281
     0
  0
BLOCK_RECORD
  5
1E3
330
1
100
AcDbSymbolTableRecord
100
AcDbBlockTableRecord
  2
block 25
340
0
102
{BLKREFS
331
1E4
102
}
 70
     0
280
     1
281
     0
  0
BLOCK_RECORD
  5
1E8
330
1
100
AcDbSymbolTableRecord
100
AcDbBlockTableRecord
  2
block 26
340
0
102
{BLKREFS
331
1E9
102
}
 70
     0
280
     1
281
     0
  0
BLOCK_RECORD
  5
1F0
330
1
100
AcDbSymbolTableRecord
100
AcDbBlockTableRecord
  2
block 27
340
0
102
{BLKREFS
331
1F1
102
}
 70
     0
280
     1
281
     0
  0
ENDTAB
  0
ENDSEC
  0
SECTION
  2
BLOCKS
  0
BLOCK
  5
20
330
1F
100
AcDbEntity
  8
0
100
AcDbBlockBegin
  2
*Model_Space
 70
     0
 10
0.0
 20
0.0
 30
0.0
  3
*Model_Space
  1

  0
ENDBLK
  5
21
330
1F
100
AcDbEntity
  8
0
100
AcDbBlockEnd
  0
BLOCK
  5
1C
330
1B
100
AcDbEntity
 67
     1
  8
0
100
AcDbBlockBegin
  2
*Paper_Space
 70
     0
 10
0.0
 20
0.0
 30
0.0
  3
*Paper_Space
  1

  0
ENDBLK
  5
1D
330
1B
100
AcDbEntity
 67
     1
  8
0
100
AcDbBlockEnd
  0
BLOCK
  5
24
330
23
100
AcDbEntity
  8
0
100
AcDbBlockBegin
  2
*Paper_Space0
 70
     0
 10
0.0
 20
0.0
 30
0.0
  3
*Paper_Space0
  1

  0
ENDBLK
  5
25
330
23
100
AcDbEntity
  8
0
100
AcDbBlockEnd
  0
BLOCK
  5
43
330
41
100
AcDbEntity
  8
0
100
AcDbBlockBegin
  2
block 2
 70
     0
 10
0.0
 20
0.0
 30
0.0
  3
block 2
  1

  0
POLYLINE
  5
45
330
41
100
AcDbEntity
  8
Defpoints
 62
     7
420
 16777215
370
    18
100
AcDb2dPolyline
 66
     1
 10
0.0
 20
0.0
 30
0.0
  0
VERTEX
  5
46
330
45
100
AcDbEntity
  8
Defpoints
 62
     7
420
 16777215
370
    18
100
AcDbVertex
100
AcDb2dVertex
 10
84.35882568555098
 20
315.454561679242
 30
0.0
  0
VERTEX
  5
47
330
45
100
AcDbEntity
  8
Defpoints
 62
     7
420
 16777215
370
    18
100
AcDbVertex
100
AcDb2dVertex
 10
98.05635396752223
 20
315.4545616792457
 30
0.0
  0
SEQEND
  5
48
330
45
100
AcDbEntity
  8
Defpoints
 62
     7
420
 16777215
370
    18
  0
ENDBLK
  5
44
330
41
100
AcDbEntity
  8
0
100
AcDbBlockEnd
  0
BLOCK
  5
4B
330
49
100
AcDbEntity
  8
0
100
AcDbBlockBegin
  2
block 3
 70
     0
 10
0.0
 20
0.0
 30
0.0
  3
block 3
  1

  0
POLYLINE
  5
4D
330
49
100
AcDbEntity
  8
Defpoints
 62
     7
420
 16777215
370
    18
100
AcDb2dPolyline
 66
     1
 10
0.0
 20
0.0
 30
0.0
  0
VERTEX
  5
4E
330
4D
100
AcDbEntity
  8
Defpoints
 62
     7
420
 16777215
370
    18
100
AcDbVertex
100
AcDb2dVertex
 10
27.49999999999636
 20
359.1975282819631
 30
0.0
  0
VERTEX
  5
4F
330
4D
100
AcDbEntity
  8
Defpoints
 62
     7
420
 16777215
370
    18
100
AcDbVertex
100
AcDb2dVertex
 10
27.5
 20
205.0000004607682
 30
0.0
  0
SEQEND
  5
50
330
4D
100
AcDbEntity
  8
Defpoints
 62
     7
420
 16777215
370
    18
  0
ENDBLK
  5
4C
330
49
100
AcDbEntity
  8
0
100
AcDbBlockEnd
  0
BLOCK
  5
53
330
51
100
AcDbEntity
  8
0
100
AcDbBlockBegin
  2
block 4
 70
     0
 10
0.0
 20
0.0
 30
0.0
  3
block 4
  1

  0
POLYLINE
  5
55
330
51
100
AcDbEntity
  8
Defpoints
 62
     7
420
 16777215
370
    18
100
AcDb2dPolyline
 66
     1
 10
0.0
 20
0.0
 30
0.0
  0
VERTEX
  5
56
330
55
100
AcDbEntity
  8
Defpoints
 62
     7
420
 16777215
370
    18
100
AcDbVertex
100
AcDb2dVertex
 10
56.49999999999636
 20
281.6975282819603
 30
0.0
  0
VERTEX
  5
57
330
55
100
AcDbEntity
  8
Defpoints
 62
     7
420
 16777215
370
    18
100
AcDbVertex
100
AcDb2dVertex
 10
56.5
 20
164.5000001535882
 30
0.0
  0
SEQEND
  5
58
330
55
100
AcDbEntity
  8
Defpoints
 62
     7
420
 16777215
370
    18
  0
ENDBLK
  5
54
330
51
100
AcDbEntity
  8
0
100
AcDbBlockEnd
  0
BLOCK
  5
5B
330
59
100
AcDbEntity
  8
0
100
AcDbBlockBegin
  2
block 5
 70
     0
 10
0.0
 20
0.0
 30
0.0
  3
block 5
  1

  0
POLYLINE
  5
5D
330
59
100
AcDbEntity
  8
Defpoints
 62
     7
420
 16777215
370
    18
100
AcDb2dPolyline
 66
     1
 10
0.0
 20
0.0
 30
0.0
  0
VERTEX
  5
5E
330
5D
100
AcDbEntity
  8
Defpoints
 62
     7
420
 16777215
370
    18
100
AcDbVertex
100
AcDb2dVertex
 10
56.49999999999636
 20
321.6975282819567
 30
0.0
  0
VERTEX
  5
5F
330
5D
100
AcDbEntity
  8
Defpoints
 62
     7
420
 16777215
370
    18
100
AcDbVertex
100
AcDb2dVertex
 10
56.5
 20
311.5000015358928
 30
0.0
  0
SEQEND
  5
60
330
5D
100
AcDbEntity
  8
Defpoints
 62
     7
420
 16777215
370
    18
  0
ENDBLK
  5
5C
330
59
100
AcDbEntity
  8
0
100
AcDbBlockEnd
  0
BLOCK
  5
63
330
61
100
AcDbEntity
  8
0
100
AcDbBlockBegin
  2
block 6
 70
     0
 10
0.0
 20
0.0
 30
0.0
  3
block 6
  1

  0
POLYLINE
  5
65
330
61
100
AcDbEntity
  8
Defpoints
 62
     7
420
 16777215
370
    18
100
AcDb2dPolyline
 66
     1
 10
0.0
 20
0.0
 30
0.0
  0
VERTEX
  5
66
330
65
100
AcDbEntity
  8
Defpoints
 62
     7
420
 16777215
370
    18
100
AcDbVertex
100
AcDb2dVertex
 10
56.5
 20
281.5000015358964
 30
0.0
  0
VERTEX
  5
67
330
65
100
AcDbEntity
  8
Defpoints
 62
     7
420
 16777215
370
    18
100
AcDbVertex
100
AcDb2dVertex
 10
56.49999999999636
 20
291.6975282819603
 30
0.0
  0
SEQEND
  5
68
330
65
100
AcDbEntity
  8
Defpoints
 62
     7
420
 16777215
370
    18
  0
ENDBLK
  5
64
330
61
100
AcDbEntity
  8
0
100
AcDbBlockEnd
  0
BLOCK
  5
6B
330
69
100
AcDbEntity
  8
0
100
AcDbBlockBegin
  2
block 7
 70
     0
 10
0.0
 20
0.0
 30
0.0
  3
block 7
  1

  0
POLYLINE
  5
6D
330
69
100
AcDbEntity
  8
Defpoints
 62
     7
420
 16777215
370
    18
100
AcDb2dPolyline
 66
     1
 10
0.0
 20
0.0
 30
0.0
  0
VERTEX
  5
6E
330
6D
100
AcDbEntity
  8
Defpoints
 62
     7
420
 16777215
370
    18
100
AcDbVertex
100
AcDb2dVertex
 10
56.49999994956943
 20
7.500000234440449
 30
0.0
  0
VERTEX
  5
6F
330
6D
100
AcDbEntity
  8
Defpoints
 62
     7
420
 16777215
370
    18
100
AcDbVertex
100
AcDb2dVertex
 10
56.49999994956579
 20
135.9999995808466
 30
0.0
  0
SEQEND
  5
70
330
6D
100
AcDbEntity
  8
Defpoints
 62
     7
420
 16777215
370
    18
  0
ENDBLK
  5
6C
330
69
100
AcDbEntity
  8
0
100
AcDbBlockEnd
  0
BLOCK
  5
73
330
71
100
AcDbEntity
  8
0
100
AcDbBlockBegin
  2
block 8
 70
     0
 10
0.0
 20
0.0
 30
0.0
  3
block 8
  1

  0
POLYLINE
  5
75
330
71
100
AcDbEntity
  8
Defpoints
 62
     7
420
 16777215
370
    18
100
AcDb2dPolyline
 66
     1
 10
0.0
 20
0.0
 30
0.0
  0
VERTEX
  5
76
330
75
100
AcDbEntity
  8
Defpoints
 62
     7
420
 16777215
370
    18
100
AcDbVertex
100
AcDb2dVertex
 10
27.49999994921382
 20
7.500004575073035
 30
0.0
  0
VERTEX
  5
77
330
75
100
AcDbEntity
  8
Defpoints
 62
     7
420
 16777215
370
    18
100
AcDbVertex
100
AcDb2dVertex
 10
27.49999994921018
 20
175.9999998334024
 30
0.0
  0
SEQEND
  5
78
330
75
100
AcDbEntity
  8
Defpoints
 62
     7
420
 16777215
370
    18
  0
ENDBLK
  5
74
330
71
100
AcDbEntity
  8
0
100
AcDbBlockEnd
  0
BLOCK
  5
7B
330
79
100
AcDbEntity
  8
0
100
AcDbBlockBegin
  2
block 9
 70
     0
 10
0.0
 20
0.0
 30
0.0
  3
block 9
  1

  0
MTEXT
  5
7D
330
79
100
AcDbEntity
  8
Defpoints
 62
     7
420
 16777215
100
AcDbMText
 10
99.51649475097656
 20
310.7009620666504
 30
0.0
 40
7.390854629516602
 41
0.0
 46
0.0
 71
     7
 72
     1
  1
\fLato-Light|b0|i0|c0|p34;\W1;250
 73
     1
 44
1.0
  0
ENDBLK
  5
7C
330
79
100
AcDbEntity
  8
0
100
AcDbBlockEnd
  0
BLOCK
  5
80
330
7E
100
AcDbEntity
  8
0
100
AcDbBlockBegin
  2
block 10
 70
     0
 10
0.0
 20
0.0
 30
0.0
  3
block 10
  1

  0
MTEXT
  5
82
330
7E
100
AcDbEntity
  8
Defpoints
 62
     7
420
 16777215
100
AcDbMText
 10
145.3488311767578
 20
333.7009582519531
 30
0.0
 40
7.390854629516602
 41
0.0
 46
0.0
 71
     7
 72
     1
  1
\fLato-Light|b0|i0|c0|p34;\W1;25
 73
     1
 44
1.0
  0
ENDBLK
  5
81
330
7E
100
AcDbEntity
  8
0
100
AcDbBlockEnd
  0
BLOCK
  5
85
330
83
100
AcDbEntity
  8
0
100
AcDbBlockBegin
  2
block 11
 70
     0
 10
0.0
 20
0.0
 30
0.0
  3
block 11
  1

  0
MTEXT
  5
87
330
83
100
AcDbEntity
  8
Defpoints
 62
     7
420
 16777215
100
AcDbMText
 10
46.51649475097656
 20
298.2009620666504
 30
0.0
 40
7.390854629516602
 41
0.0
 46
0.0
 71
     7
 72
     1
  1
\fLato-Light|b0|i0|c0|p34;\W1;160
 73
     1
 44
1.0
  0
ENDBLK
  5
86
330
83
100
AcDbEntity
  8
0
100
AcDbBlockEnd
  0
BLOCK
  5
8A
330
88
100
AcDbEntity
  8
0
100
AcDbBlockBegin
  2
block 12
 70
     0
 10
0.0
 20
0.0
 30
0.0
  3
block 12
  1

  0
MTEXT
  5
8C
330
88
100
AcDbEntity
  8
Defpoints
 62
     7
420
 16777215
100
AcDbMText
 10
17.01628112792969
 20
188.2009582519531
 30
0.0
 40
7.390854629516602
 41
0.0
 46
0.0
 71
     7
 72
     1
  1
\fLato-Light|b0|i0|c0|p34;\W1;1180
 73
     1
 44
1.0
  0
ENDBLK
  5
8B
330
88
100
AcDbEntity
  8
0
100
AcDbBlockEnd
  0
BLOCK
  5
8F
330
8D
100
AcDbEntity
  8
0
100
AcDbBlockBegin
  2
block 13
 70
     0
 10
0.0
 20
0.0
 30
0.0
  3
block 13
  1

  0
MTEXT
  5
91
330
8D
100
AcDbEntity
  8
Defpoints
 62
     7
420
 16777215
100
AcDbMText
 10
47.51670837402344
 20
146.2009582519531
 30
0.0
 40
7.390854629516602
 41
0.0
 46
0.0
 71
     7
 72
     1
  1
\fLato-Light|b0|i0|c0|p34;\W1;900
 73
     1
 44
1.0
  0
ENDBLK
  5
90
330
8D
100
AcDbEntity
  8
0
100
AcDbBlockEnd
  0
BLOCK
  5
94
330
92
100
AcDbEntity
  8
0
100
AcDbBlockBegin
  2
block 14
 70
     0
 10
0.0
 20
0.0
 30
0.0
  3
block 14
  1

  0
POLYLINE
  5
96
330
92
100
AcDbEntity
  8
Defpoints
 62
     7
420
 16777215
370
    18
100
AcDb2dPolyline
 66
     1
 10
0.0
 20
0.0
 30
0.0
  0
VERTEX
  5
97
330
96
100
AcDbEntity
  8
Defpoints
 62
     7
420
 16777215
370
    18
100
AcDbVertex
100
AcDb2dVertex
 10
133.469521946362
 20
318.4283918910978
 30
0.0
  0
VERTEX
  5
98
330
96
100
AcDbEntity
  8
Defpoints
 62
     7
420
 16777215
370
    18
100
AcDbVertex
100
AcDb2dVertex
 10
133.7178961709023
 20
311.0903729715155
 30
0.0
  0
SEQEND
  5
99
330
96
100
AcDbEntity
  8
Defpoints
 62
     7
420
 16777215
370
    18
  0
ENDBLK
  5
95
330
92
100
AcDbEntity
  8
0
100
AcDbBlockEnd
  0
BLOCK
  5
9C
330
9A
100
AcDbEntity
  8
0
100
AcDbBlockBegin
  2
block 15
 70
     0
 10
0.0
 20
0.0
 30
0.0
  3
block 15
  1

  0
POLYLINE
  5
9E
330
9A
100
AcDbEntity
  8
Defpoints
 62
     7
420
 16777215
370
    18
100
AcDb2dPolyline
 66
     1
 10
0.0
 20
0.0
 30
0.0
  0
VERTEX
  5
9F
330
9E
100
AcDbEntity
  8
Defpoints
 62
     7
420
 16777215
370
    18
100
AcDbVertex
100
AcDb2dVertex
 10
84.24535787392142
 20
320.5055026113369
 30
0.0
  0
VERTEX
  5
A0
330
9E
100
AcDbEntity
  8
Defpoints
 62
     7
420
 16777215
370
    18
100
AcDbVertex
100
AcDb2dVertex
 10
84.30635554199034
 20
311.0903729715155
 30
0.0
  0
SEQEND
  5
A1
330
9E
100
AcDbEntity
  8
Defpoints
 62
     7
420
 16777215
370
    18
  0
ENDBLK
  5
9D
330
9A
100
AcDbEntity
  8
0
100
AcDbBlockEnd
  0
BLOCK
  5
A4
330
A2
100
AcDbEntity
  8
0
100
AcDbBlockBegin
  2
block 16
 70
     0
 10
0.0
 20
0.0
 30
0.0
  3
block 16
  1

  0
POLYLINE
  5
A6
330
A2
100
AcDbEntity
  8
Defpoints
 62
     7
420
 16777215
370
    18
100
AcDb2dPolyline
 66
     1
 10
0.0
 20
0.0
 30
0.0
  0
VERTEX
  5
A7
330
A6
100
AcDbEntity
  8
Defpoints
 62
     7
420
 16777215
370
    18
100
AcDbVertex
100
AcDb2dVertex
 10
120.6628977752671
 20
3.565023351749915
 30
0.0
  0
VERTEX
  5
A8
330
A6
100
AcDbEntity
  8
Defpoints
 62
     7
420
 16777215
370
    18
100
AcDbVertex
100
AcDb2dVertex
 10
120.6628977752671
 20
-10.57547931907357
 30
0.0
  0
SEQEND
  5
A9
330
A6
100
AcDbEntity
  8
Defpoints
 62
     7
420
 16777215
370
    18
  0
ENDBLK
  5
A5
330
A2
100
AcDbEntity
  8
0
100
AcDbBlockEnd
  0
BLOCK
  5
AC
330
AA
100
AcDbEntity
  8
0
100
AcDbBlockBegin
  2
block 17
 70
     0
 10
0.0
 20
0.0
 30
0.0
  3
block 17
  1

  0
POLYLINE
  5
AE
330
AA
100
AcDbEntity
  8
Defpoints
 62
     7
420
 16777215
370
    18
100
AcDb2dPolyline
 66
     1
 10
0.0
 20
0.0
 30
0.0
  0
VERTEX
  5
AF
330
AE
100
AcDbEntity
  8
Defpoints
 62
     7
420
 16777215
370
    18
100
AcDbVertex
100
AcDb2dVertex
 10
152.2584202940952
 20
4.5652233517485
 30
0.0
  0
VERTEX
  5
B0
330
AE
100
AcDbEntity
  8
Defpoints
 62
     7
420
 16777215
370
    18
100
AcDbVertex
100
AcDb2dVertex
 10
152.2584202940952
 20
-9.57527931907498
 30
0.0
  0
SEQEND
  5
B1
330
AE
100
AcDbEntity
  8
Defpoints
 62
     7
420
 16777215
370
    18
  0
ENDBLK
  5
AD
330
AA
100
AcDbEntity
  8
0
100
AcDbBlockEnd
  0
BLOCK
  5
B4
330
B2
100
AcDbEntity
  8
0
100
AcDbBlockBegin
  2
block 18
 70
     0
 10
0.0
 20
0.0
 30
0.0
  3
block 18
  1

  0
POLYLINE
  5
B6
330
B2
100
AcDbEntity
  8
Defpoints
 62
     7
420
 16777215
370
    18
100
AcDb2dPolyline
 66
     1
 10
0.0
 20
0.0
 30
0.0
  0
VERTEX
  5
B7
330
B6
100
AcDbEntity
  8
Defpoints
 62
     7
420
 16777215
370
    18
100
AcDbVertex
100
AcDb2dVertex
 10
120.6628977752671
 20
-8.531605823964128
 30
0.0
  0
VERTEX
  5
B8
330
B6
100
AcDbEntity
  8
Defpoints
 62
     7
420
 16777215
370
    18
100
AcDbVertex
100
AcDb2dVertex
 10
125.4724222086561
 20
-8.531605823964128
 30
0.0
  0
SEQEND
  5
B9
330
B6
100
AcDbEntity
  8
Defpoints
 62
     7
420
 16777215
370
    18
  0
ENDBLK
  5
B5
330
B2
100
AcDbEntity
  8
0
100
AcDbBlockEnd
  0
BLOCK
  5
BC
330
BA
100
AcDbEntity
  8
0
100
AcDbBlockBegin
  2
block 19
 70
     0
 10
0.0
 20
0.0
 30
0.0
  3
block 19
  1

  0
POLYLINE
  5
BE
330
BA
100
AcDbEntity
  8
Defpoints
 62
     7
420
 16777215
370
    18
100
AcDb2dPolyline
 66
     1
 10
0.0
 20
0.0
 30
0.0
  0
VERTEX
  5
BF
330
BE
100
AcDbEntity
  8
Defpoints
 62
     7
420
 16777215
370
    18
100
AcDbVertex
100
AcDb2dVertex
 10
152.4921425170769
 20
-7.698072490631603
 30
0.0
  0
VERTEX
  5
C0
330
BE
100
AcDbEntity
  8
Defpoints
 62
     7
420
 16777215
370
    18
100
AcDbVertex
100
AcDb2dVertex
 10
147.4728222086569
 20
-7.698072490631603
 30
0.0
  0
SEQEND
  5
C1
330
BE
100
AcDbEntity
  8
Defpoints
 62
     7
420
 16777215
370
    18
  0
ENDBLK
  5
BD
330
BA
100
AcDbEntity
  8
0
100
AcDbBlockEnd
  0
BLOCK
  5
C4
330
C2
100
AcDbEntity
  8
0
100
AcDbBlockBegin
  2
block 20
 70
     0
 10
0.0
 20
0.0
 30
0.0
  3
block 20
  1

  0
MTEXT
  5
C6
330
C2
100
AcDbEntity
  8
Defpoints
 62
     7
420
 16777215
100
AcDbMText
 10
128.2299213409424
 20
-10.11388206481934
 30
0.0
 40
7.08
 41
0.0
 46
0.0
 71
     7
 72
     1
  1
\fLato-Light|b0|i0|c0|p34;\W1;100
 73
     1
 44
1.0
  0
ENDBLK
  5
C5
330
C2
100
AcDbEntity
  8
0
100
AcDbBlockEnd
  0
BLOCK
  5
C9
330
C7
100
AcDbEntity
  8
0
100
AcDbBlockBegin
  2
block 21
 70
     0
 10
0.0
 20
0.0
 30
0.0
  3
block 21
  1

  0
POLYLINE
  5
CB
330
C7
100
AcDbEntity
  8
Defpoints
 62
     7
420
 16777215
370
    18
100
AcDb2dPolyline
 66
     1
 10
0.0
 20
0.0
 30
0.0
  0
VERTEX
  5
CC
330
CB
100
AcDbEntity
  8
Defpoints
 62
     7
420
 16777215
370
    18
100
AcDbVertex
100
AcDb2dVertex
 10
154.5084202940952
 20
-8.531605823964128
 30
0.0
  0
VERTEX
  5
CD
330
CB
100
AcDbEntity
  8
Defpoints
 62
     7
420
 16777215
370
    18
100
AcDbVertex
100
AcDb2dVertex
 10
154.5084202940952
 20
-8.531605823964128
 30
0.0
  0
SEQEND
  5
CE
330
CB
100
AcDbEntity
  8
Defpoints
 62
     7
420
 16777215
370
    18
  0
ENDBLK
  5
CA
330
C7
100
AcDbEntity
  8
0
100
AcDbBlockEnd
  0
BLOCK
  5
1CD
330
1CB
100
AcDbEntity
  8
0
100
AcDbBlockBegin
  2
block 22
 70
     0
 10
0.0
 20
0.0
 30
0.0
  3
block 22
  1

  0
POLYLINE
  5
1CF
330
1CB
100
AcDbEntity
  8
Defpoints
 62
     7
420
 16777215
370
    18
100
AcDb2dPolyline
 66
     1
 10
0.0
 20
0.0
 30
0.0
  0
VERTEX
  5
1D0
330
1CF
100
AcDbEntity
  8
Defpoints
 62
     7
420
 16777215
370
    18
100
AcDbVertex
100
AcDb2dVertex
 10
133.6115043324608
 20
315.4545970814997
 30
0.0
  0
VERTEX
  5
1D1
330
1CF
100
AcDbEntity
  8
Defpoints
 62
     7
420
 16777215
370
    18
100
AcDbVertex
100
AcDb2dVertex
 10
119.0563710185597
 20
315.4545970814961
 30
0.0
  0
SEQEND
  5
1D2
330
1CF
100
AcDbEntity
  8
Defpoints
 62
     7
420
 16777215
370
    18
  0
ENDBLK
  5
1CE
330
1CB
100
AcDbEntity
  8
0
100
AcDbBlockEnd
  0
BLOCK
  5
1D5
330
1D3
100
AcDbEntity
  8
0
100
AcDbBlockBegin
  2
block 23
 70
     0
 10
0.0
 20
0.0
 30
0.0
  3
block 23
  1

  0
POLYLINE
  5
1D7
330
1D3
100
AcDbEntity
  8
Defpoints
 62
     7
420
 16777215
370
    18
100
AcDb2dPolyline
 66
     1
 10
0.0
 20
0.0
 30
0.0
  0
VERTEX
  5
1D8
330
1D7
100
AcDbEntity
  8
Defpoints
 62
     7
420
 16777215
370
    18
100
AcDbVertex
100
AcDb2dVertex
 10
129.6115644289921
 20
336.9546201979929
 30
0.0
  0
VERTEX
  5
1D9
330
1D7
100
AcDbEntity
  8
Defpoints
 62
     7
420
 16777215
370
    18
100
AcDbVertex
100
AcDb2dVertex
 10
123.0000601113697
 20
336.9546201979892
 30
0.0
  0
SEQEND
  5
1DA
330
1D7
100
AcDbEntity
  8
Defpoints
 62
     7
420
 16777215
370
    18
  0
ENDBLK
  5
1D6
330
1D3
100
AcDbEntity
  8
0
100
AcDbBlockEnd
  0
BLOCK
  5
1DD
330
1DB
100
AcDbEntity
  8
0
100
AcDbBlockBegin
  2
block 24
 70
     0
 10
0.0
 20
0.0
 30
0.0
  3
block 24
  1

  0
POLYLINE
  5
1DF
330
1DB
100
AcDbEntity
  8
Defpoints
 62
     7
420
 16777215
370
    18
100
AcDb2dPolyline
 66
     1
 10
0.0
 20
0.0
 30
0.0
  0
VERTEX
  5
1E0
330
1DF
100
AcDbEntity
  8
Defpoints
 62
     7
420
 16777215
370
    18
100
AcDbVertex
100
AcDb2dVertex
 10
136.4998999999953
 20
336.9546201979902
 30
0.0
  0
VERTEX
  5
1E1
330
1DF
100
AcDbEntity
  8
Defpoints
 62
     7
420
 16777215
370
    18
100
AcDbVertex
100
AcDb2dVertex
 10
143.1114043176176
 20
336.9546201979938
 30
0.0
  0
SEQEND
  5
1E2
330
1DF
100
AcDbEntity
  8
Defpoints
 62
     7
420
 16777215
370
    18
  0
ENDBLK
  5
1DE
330
1DB
100
AcDbEntity
  8
0
100
AcDbBlockEnd
  0
BLOCK
  5
1E5
330
1E3
100
AcDbEntity
  8
0
100
AcDbBlockBegin
  2
block 25
 70
     0
 10
0.0
 20
0.0
 30
0.0
  3
block 25
  1

  0
MTEXT
  5
1E7
330
1E3
100
AcDbEntity
  8
Defpoints
 62
     7
420
 16777215
100
AcDbMText
 10
149.5157012939453
 20
174.9963455200195
 30
0.0
 40
7.390854629516602
 41
0.0
 46
0.0
 71
     7
 72
     1
  1
\fLato-Light|b0|i0|c0|p34;\W1;45
 73
     1
 44
1.0
  0
ENDBLK
  5
1E6
330
1E3
100
AcDbEntity
  8
0
100
AcDbBlockEnd
  0
BLOCK
  5
1EA
330
1E8
100
AcDbEntity
  8
0
100
AcDbBlockBegin
  2
block 26
 70
     0
 10
0.0
 20
0.0
 30
0.0
  3
block 26
  1

  0
POLYLINE
  5
1EC
330
1E8
100
AcDbEntity
  8
Defpoints
 62
     7
420
 16777215
370
    18
100
AcDb2dPolyline
 66
     1
 10
0.0
 20
0.0
 30
0.0
  0
VERTEX
  5
1ED
330
1EC
100
AcDbEntity
  8
Defpoints
 62
     7
420
 16777215
370
    18
100
AcDbVertex
100
AcDb2dVertex
 10
128.0
 20
177.5
 30
0.0
  0
VERTEX
  5
1EE
330
1EC
100
AcDbEntity
  8
Defpoints
 62
     7
420
 16777215
370
    18
100
AcDbVertex
100
AcDb2dVertex
 10
121.3884956823777
 20
177.4999999999964
 30
0.0
  0
SEQEND
  5
1EF
330
1EC
100
AcDbEntity
  8
Defpoints
 62
     7
420
 16777215
370
    18
  0
ENDBLK
  5
1EB
330
1E8
100
AcDbEntity
  8
0
100
AcDbBlockEnd
  0
BLOCK
  5
1F2
330
1F0
100
AcDbEntity
  8
0
100
AcDbBlockBegin
  2
block 27
 70
     0
 10
0.0
 20
0.0
 30
0.0
  3
block 27
  1

  0
POLYLINE
  5
1F4
330
1F0
100
AcDbEntity
  8
Defpoints
 62
     7
420
 16777215
370
    18
100
AcDb2dPolyline
 66
     1
 10
0.0
 20
0.0
 30
0.0
  0
VERTEX
  5
1F5
330
1F4
100
AcDbEntity
  8
Defpoints
 62
     7
420
 16777215
370
    18
100
AcDbVertex
100
AcDb2dVertex
 10
140.4998999999953
 20
177.4999999999964
 30
0.0
  0
VERTEX
  5
1F6
330
1F4
100
AcDbEntity
  8
Defpoints
 62
     7
420
 16777215
370
    18
100
AcDbVertex
100
AcDb2dVertex
 10
147.1114043176176
 20
177.5
 30
0.0
  0
SEQEND
  5
1F7
330
1F4
100
AcDbEntity
  8
Defpoints
 62
     7
420
 16777215
370
    18
  0
ENDBLK
  5
1F3
330
1F0
100
AcDbEntity
  8
0
100
AcDbBlockEnd
  0
ENDSEC
  0
SECTION
  2
ENTITIES
  0
INSERT
  5
42
330
1F
100
AcDbEntity
  8
Defpoints
100
AcDbBlockReference
  2
block 2
 10
0.0
 20
0.0
 30
0.0
  0
INSERT
  5
4A
330
1F
100
AcDbEntity
  8
Defpoints
100
AcDbBlockReference
  2
block 3
 10
0.0
 20
0.0
 30
0.0
  0
INSERT
  5
52
330
1F
100
AcDbEntity
  8
Defpoints
100
AcDbBlockReference
  2
block 4
 10
0.0
 20
0.0
 30
0.0
  0
INSERT
  5
5A
330
1F
100
AcDbEntity
  8
Defpoints
100
AcDbBlockReference
  2
block 5
 10
0.0
 20
0.0
 30
0.0
  0
INSERT
  5
62
330
1F
100
AcDbEntity
  8
Defpoints
100
AcDbBlockReference
  2
block 6
 10
0.0
 20
0.0
 30
0.0
  0
INSERT
  5
6A
330
1F
100
AcDbEntity
  8
Defpoints
100
AcDbBlockReference
  2
block 7
 10
0.0
 20
0.0
 30
0.0
  0
INSERT
  5
72
330
1F
100
AcDbEntity
  8
Defpoints
100
AcDbBlockReference
  2
block 8
 10
0.0
 20
0.0
 30
0.0
  0
INSERT
  5
7A
330
1F
100
AcDbEntity
  8
Defpoints
100
AcDbBlockReference
  2
block 9
 10
0.0
 20
0.0
 30
0.0
  0
INSERT
  5
7F
330
1F
100
AcDbEntity
  8
Defpoints
100
AcDbBlockReference
  2
block 10
 10
0.0
 20
0.0
 30
0.0
  0
INSERT
  5
84
330
1F
100
AcDbEntity
  8
Defpoints
100
AcDbBlockReference
  2
block 11
 10
0.0
 20
0.0
 30
0.0
  0
INSERT
  5
89
330
1F
100
AcDbEntity
  8
Defpoints
100
AcDbBlockReference
  2
block 12
 10
0.0
 20
0.0
 30
0.0
  0
INSERT
  5
8E
330
1F
100
AcDbEntity
  8
Defpoints
100
AcDbBlockReference
  2
block 13
 10
0.0
 20
0.0
 30
0.0
  0
INSERT
  5
93
330
1F
100
AcDbEntity
  8
Defpoints
100
AcDbBlockReference
  2
block 14
 10
0.0
 20
0.0
 30
0.0
  0
INSERT
  5
9B
330
1F
100
AcDbEntity
  8
Defpoints
100
AcDbBlockReference
  2
block 15
 10
0.0
 20
0.0
 30
0.0
  0
INSERT
  5
A3
330
1F
100
AcDbEntity
  8
Defpoints
100
AcDbBlockReference
  2
block 16
 10
0.0
 20
0.0
 30
0.0
  0
INSERT
  5
AB
330
1F
100
AcDbEntity
  8
Defpoints
100
AcDbBlockReference
  2
block 17
 10
0.0
 20
0.0
 30
0.0
  0
INSERT
  5
B3
330
1F
100
AcDbEntity
  8
Defpoints
100
AcDbBlockReference
  2
block 18
 10
0.0
 20
0.0
 30
0.0
  0
INSERT
  5
BB
330
1F
100
AcDbEntity
  8
Defpoints
100
AcDbBlockReference
  2
block 19
 10
0.0
 20
0.0
 30
0.0
  0
INSERT
  5
C3
330
1F
100
AcDbEntity
  8
Defpoints
100
AcDbBlockReference
  2
block 20
 10
0.0
 20
0.0
 30
0.0
  0
INSERT
  5
C8
330
1F
100
AcDbEntity
  8
Defpoints
100
AcDbBlockReference
  2
block 21
 10
0.0
 20
0.0
 30
0.0
  0
POLYLINE
  5
CF
330
1F
100
AcDbEntity
  8
Defpoints
 62
   179
420
  2301728
370
    18
100
AcDb2dPolyline
 66
     1
 10
0.0
 20
0.0
 30
0.0
  0
VERTEX
  5
D0
330
CF
100
AcDbEntity
  8
Defpoints
 62
   179
420
  2301728
370
    18
100
AcDbVertex
100
AcDb2dVertex
 10
145.0871026986697
 20
292.9904921256493
 30
0.0
  0
VERTEX
  5
D1
330
CF
100
AcDbEntity
  8
Defpoints
 62
   179
420
  2301728
370
    18
100
AcDbVertex
100
AcDb2dVertex
 10
145.6813555419903
 20
293.0624925966185
 30
0.0
  0
VERTEX
  5
D2
330
CF
100
AcDbEntity
  8
Defpoints
 62
   179
420
  2301728
370
    18
100
AcDbVertex
100
AcDb2dVertex
 10
146.2807146002924
 20
293.058988074632
 30
0.0
  0
VERTEX
  5
D3
330
CF
100
AcDbEntity
  8
Defpoints
 62
   179
420
  2301728
370
    18
100
AcDbVertex
100
AcDb2dVertex
 10
146.8800866680594
 20
293.0326352300726
 30
0.0
  0
VERTEX
  5
D4
330
CF
100
AcDbEntity
  8
Defpoints
 62
   179
420
  2301728
370
    18
100
AcDbVertex
100
AcDb2dVertex
 10
148.291119252146
 20
292.9439256037767
 30
0.0
  0
SEQEND
  5
D5
330
CF
100
AcDbEntity
  8
Defpoints
 62
   179
420
  2301728
370
    18
  0
POLYLINE
  5
D6
330
1F
100
AcDbEntity
  8
Defpoints
 62
   179
420
  2301728
370
    18
100
AcDb2dPolyline
 66
     1
 10
0.0
 20
0.0
 30
0.0
  0
VERTEX
  5
D7
330
D6
100
AcDbEntity
  8
Defpoints
 62
   179
420
  2301728
370
    18
100
AcDbVertex
100
AcDb2dVertex
 10
141.5
 20
283.3826692587918
 30
0.0
  0
VERTEX
  5
D8
330
D6
100
AcDbEntity
  8
Defpoints
 62
   179
420
  2301728
370
    18
100
AcDbVertex
100
AcDb2dVertex
 10
141.9561313542708
 20
282.4348247295347
 30
0.0
  0
VERTEX
  5
D9
330
D6
100
AcDbEntity
  8
Defpoints
 62
   179
420
  2301728
370
    18
100
AcDbVertex
100
AcDb2dVertex
 10
142.5563555419903
 20
281.562492887133
 30
0.0
  0
VERTEX
  5
DA
330
D6
100
AcDbEntity
  8
Defpoints
 62
   179
420
  2301728
370
    18
100
AcDbVertex
100
AcDb2dVertex
 10
143.2750894503915
 20
280.7797963888406
 30
0.0
  0
VERTEX
  5
DB
330
D6
100
AcDbEntity
  8
Defpoints
 62
   179
420
  2301728
370
    18
100
AcDbVertex
100
AcDb2dVertex
 10
144.2299841754757
 20
279.9830182676178
 30
0.0
  0
VERTEX
  5
DC
330
D6
100
AcDbEntity
  8
Defpoints
 62
   179
420
  2301728
370
    18
100
AcDbVertex
100
AcDb2dVertex
 10
145.2607696141658
 20
279.3452687058325
 30
0.0
  0
SEQEND
  5
DD
330
D6
100
AcDbEntity
  8
Defpoints
 62
   179
420
  2301728
370
    18
  0
POLYLINE
  5
DE
330
1F
100
AcDbEntity
  8
Defpoints
 62
   179
420
  2301728
370
    18
100
AcDb2dPolyline
 66
     1
 10
0.0
 20
0.0
 30
0.0
  0
VERTEX
  5
DF
330
DE
100
AcDbEntity
  8
Defpoints
 62
   179
420
  2301728
370
    18
100
AcDbVertex
100
AcDb2dVertex
 10
126.4728870793742
 20
281.6096769027372
 30
0.0
  0
VERTEX
  5
E0
330
DE
100
AcDbEntity
  8
Defpoints
 62
   179
420
  2301728
370
    18
100
AcDbVertex
100
AcDb2dVertex
 10
126.4728870793742
 20
282.3062981294788
 30
0.0
  0
VERTEX
  5
E1
330
DE
100
AcDbEntity
  8
Defpoints
 62
   179
420
  2301728
370
    18
100
AcDbVertex
100
AcDb2dVertex
 10
126.620388392631
 20
282.9844750458888
 30
0.0
  0
VERTEX
  5
E2
330
DE
100
AcDbEntity
  8
Defpoints
 62
   179
420
  2301728
370
    18
100
AcDbVertex
100
AcDb2dVertex
 10
126.8949206260922
 20
283.6248786581436
 30
0.0
  0
VERTEX
  5
E3
330
DE
100
AcDbEntity
  8
Defpoints
 62
   179
420
  2301728
370
    18
100
AcDbVertex
100
AcDb2dVertex
 10
127.1916209877763
 20
284.0465509796923
 30
0.0
  0
VERTEX
  5
E4
330
DE
100
AcDbEntity
  8
Defpoints
 62
   179
420
  2301728
370
    18
100
AcDbVertex
100
AcDb2dVertex
 10
127.5786981022557
 20
284.3847413501117
 30
0.0
  0
VERTEX
  5
E5
330
DE
100
AcDbEntity
  8
Defpoints
 62
   179
420
  2301728
370
    18
100
AcDbVertex
100
AcDb2dVertex
 10
128.0331252166216
 20
284.6307101688672
 30
0.0
  0
VERTEX
  5
E6
330
DE
100
AcDbEntity
  8
Defpoints
 62
   179
420
  2301728
370
    18
100
AcDbVertex
100
AcDb2dVertex
 10
128.5284801076259
 20
284.7677556840135
 30
0.0
  0
VERTEX
  5
E7
330
DE
100
AcDbEntity
  8
Defpoints
 62
   179
420
  2301728
370
    18
100
AcDbVertex
100
AcDb2dVertex
 10
129.0570806862306
 20
284.745799448312
 30
0.0
  0
VERTEX
  5
E8
330
DE
100
AcDbEntity
  8
Defpoints
 62
   179
420
  2301728
370
    18
100
AcDbVertex
100
AcDb2dVertex
 10
129.5626675213935
 20
284.5578176110248
 30
0.0
  0
VERTEX
  5
E9
330
DE
100
AcDbEntity
  8
Defpoints
 62
   179
420
  2301728
370
    18
100
AcDbVertex
100
AcDb2dVertex
 10
130.0332979243176
 20
284.2854959477099
 30
0.0
  0
VERTEX
  5
EA
330
DE
100
AcDbEntity
  8
Defpoints
 62
   179
420
  2301728
370
    18
100
AcDbVertex
100
AcDb2dVertex
 10
130.475788854621
 20
283.9753741716486
 30
0.0
  0
VERTEX
  5
EB
330
DE
100
AcDbEntity
  8
Defpoints
 62
   179
420
  2301728
370
    18
100
AcDbVertex
100
AcDb2dVertex
 10
131.1476301467201
 20
283.4614802984361
 30
0.0
  0
VERTEX
  5
EC
330
DE
100
AcDbEntity
  8
Defpoints
 62
   179
420
  2301728
370
    18
100
AcDbVertex
100
AcDb2dVertex
 10
131.8126479744706
 20
282.9343965986482
 30
0.0
  0
VERTEX
  5
ED
330
DE
100
AcDbEntity
  8
Defpoints
 62
   179
420
  2301728
370
    18
100
AcDbVertex
100
AcDb2dVertex
 10
132.5654861951589
 20
282.2597584161977
 30
0.0
  0
VERTEX
  5
EE
330
DE
100
AcDbEntity
  8
Defpoints
 62
   179
420
  2301728
370
    18
100
AcDbVertex
100
AcDb2dVertex
 10
133.3421902792406
 20
281.6114462697169
 30
0.0
  0
VERTEX
  5
EF
330
DE
100
AcDbEntity
  8
Defpoints
 62
   179
420
  2301728
370
    18
100
AcDbVertex
100
AcDb2dVertex
 10
134.1871094926282
 20
281.0562403583899
 30
0.0
  0
VERTEX
  5
F0
330
DE
100
AcDbEntity
  8
Defpoints
 62
   179
420
  2301728
370
    18
100
AcDbVertex
100
AcDb2dVertex
 10
135.4088673716042
 20
280.4747084110932
 30
0.0
  0
VERTEX
  5
F1
330
DE
100
AcDbEntity
  8
Defpoints
 62
   179
420
  2301728
370
    18
100
AcDbVertex
100
AcDb2dVertex
 10
136.6937146507053
 20
280.0864395934332
 30
0.0
  0
VERTEX
  5
F2
330
DE
100
AcDbEntity
  8
Defpoints
 62
   179
420
  2301728
370
    18
100
AcDbVertex
100
AcDb2dVertex
 10
138.0160812266349
 20
279.8747053448733
 30
0.0
  0
VERTEX
  5
F3
330
DE
100
AcDbEntity
  8
Defpoints
 62
   179
420
  2301728
370
    18
100
AcDbVertex
100
AcDb2dVertex
 10
139.3512361065796
 20
279.8114638796487
 30
0.0
  0
SEQEND
  5
F4
330
DE
100
AcDbEntity
  8
Defpoints
 62
   179
420
  2301728
370
    18
  0
POLYLINE
  5
F5
330
1F
100
AcDbEntity
  8
Defpoints
 62
   179
420
  2301728
370
    18
100
AcDb2dPolyline
 66
     1
 10
0.0
 20
0.0
 30
0.0
  0
VERTEX
  5
F6
330
F5
100
AcDbEntity
  8
Defpoints
 62
   179
420
  2301728
370
    18
100
AcDbVertex
100
AcDb2dVertex
 10
129.2736427440113
 20
293.9204766007788
 30
0.0
  0
VERTEX
  5
F7
330
F5
100
AcDbEntity
  8
Defpoints
 62
   179
420
  2301728
370
    18
100
AcDbVertex
100
AcDb2dVertex
 10
129.3478162082502
 20
293.569981087272
 30
0.0
  0
VERTEX
  5
F8
330
F5
100
AcDbEntity
  8
Defpoints
 62
   179
420
  2301728
370
    18
100
AcDbVertex
100
AcDb2dVertex
 10
129.5132185452348
 20
293.2528354604747
 30
0.0
  0
VERTEX
  5
F9
330
F5
100
AcDbEntity
  8
Defpoints
 62
   179
420
  2301728
370
    18
100
AcDbVertex
100
AcDb2dVertex
 10
129.7485337466969
 20
292.980513797158
 30
0.0
  0
VERTEX
  5
FA
330
F5
100
AcDbEntity
  8
Defpoints
 62
   179
420
  2301728
370
    18
100
AcDbVertex
100
AcDb2dVertex
 10
130.1969960213983
 20
292.676557996936
 30
0.0
  0
VERTEX
  5
FB
330
F5
100
AcDbEntity
  8
Defpoints
 62
   179
420
  2301728
370
    18
100
AcDbVertex
100
AcDb2dVertex
 10
130.7017242318752
 20
292.528976705682
 30
0.0
  0
VERTEX
  5
FC
330
F5
100
AcDbEntity
  8
Defpoints
 62
   179
420
  2301728
370
    18
100
AcDbVertex
100
AcDb2dVertex
 10
131.2866037557224
 20
292.5386546068894
 30
0.0
  0
VERTEX
  5
FD
330
F5
100
AcDbEntity
  8
Defpoints
 62
   179
420
  2301728
370
    18
100
AcDbVertex
100
AcDb2dVertex
 10
131.8706246548836
 20
292.6686762712998
 30
0.0
  0
VERTEX
  5
FE
330
F5
100
AcDbEntity
  8
Defpoints
 62
   179
420
  2301728
370
    18
100
AcDbVertex
100
AcDb2dVertex
 10
132.430773185918
 20
292.8575427920769
 30
0.0
  0
VERTEX
  5
FF
330
F5
100
AcDbEntity
  8
Defpoints
 62
   179
420
  2301728
370
    18
100
AcDbVertex
100
AcDb2dVertex
 10
132.9704643333671
 20
293.0771587662712
 30
0.0
  0
VERTEX
  5
100
330
F5
100
AcDbEntity
  8
Defpoints
 62
   179
420
  2301728
370
    18
100
AcDbVertex
100
AcDb2dVertex
 10
133.5067404962747
 20
293.308195200063
 30
0.0
  0
VERTEX
  5
101
330
F5
100
AcDbEntity
  8
Defpoints
 62
   179
420
  2301728
370
    18
100
AcDbVertex
100
AcDb2dVertex
 10
134.0455795237704
 20
293.5374622668751
 30
0.0
  0
VERTEX
  5
102
330
F5
100
AcDbEntity
  8
Defpoints
 62
   179
420
  2301728
370
    18
100
AcDbVertex
100
AcDb2dVertex
 10
134.6943940629644
 20
293.7737799930146
 30
0.0
  0
VERTEX
  5
103
330
F5
100
AcDbEntity
  8
Defpoints
 62
   179
420
  2301728
370
    18
100
AcDbVertex
100
AcDb2dVertex
 10
135.3585662754922
 20
293.9406902780902
 30
0.0
  0
VERTEX
  5
104
330
F5
100
AcDbEntity
  8
Defpoints
 62
   179
420
  2301728
370
    18
100
AcDbVertex
100
AcDb2dVertex
 10
136.0414851269716
 20
294.0013045014366
 30
0.0
  0
VERTEX
  5
105
330
F5
100
AcDbEntity
  8
Defpoints
 62
   179
420
  2301728
370
    18
100
AcDbVertex
100
AcDb2dVertex
 10
136.7457264914538
 20
293.9204766007788
 30
0.0
  0
SEQEND
  5
106
330
F5
100
AcDbEntity
  8
Defpoints
 62
   179
420
  2301728
370
    18
  0
POLYLINE
  5
107
330
1F
100
AcDbEntity
  8
Defpoints
 62
   179
420
  2301728
370
    18
100
AcDb2dPolyline
 66
     1
 10
0.0
 20
0.0
 30
0.0
  0
VERTEX
  5
108
330
107
100
AcDbEntity
  8
Defpoints
 62
   179
420
  2301728
370
    18
100
AcDbVertex
100
AcDb2dVertex
 10
124.6185114450309
 20
355.9426603172215
 30
0.0
  0
VERTEX
  5
109
330
107
100
AcDbEntity
  8
Defpoints
 62
   179
420
  2301728
370
    18
100
AcDbVertex
100
AcDb2dVertex
 10
125.0780512791116
 20
355.9488262930581
 30
0.0
  0
VERTEX
  5
10A
330
107
100
AcDbEntity
  8
Defpoints
 62
   179
420
  2301728
370
    18
100
AcDbVertex
100
AcDb2dVertex
 10
125.5768211546556
 20
355.9488262930581
 30
0.0
  0
VERTEX
  5
10B
330
107
100
AcDbEntity
  8
Defpoints
 62
   179
420
  2301728
370
    18
100
AcDbVertex
100
AcDb2dVertex
 10
126.0457408129432
 20
355.7889398587195
 30
0.0
  0
VERTEX
  5
10C
330
107
100
AcDbEntity
  8
Defpoints
 62
   179
420
  2301728
370
    18
100
AcDbVertex
100
AcDb2dVertex
 10
126.4924988477414
 20
355.5640425921756
 30
0.0
  0
VERTEX
  5
10D
330
107
100
AcDbEntity
  8
Defpoints
 62
   179
420
  2301728
370
    18
100
AcDbVertex
100
AcDb2dVertex
 10
126.864224793615
 20
355.2284794636353
 30
0.0
  0
VERTEX
  5
10E
330
107
100
AcDbEntity
  8
Defpoints
 62
   179
420
  2301728
370
    18
100
AcDbVertex
100
AcDb2dVertex
 10
127.4235277094294
 20
354.5898184097696
 30
0.0
  0
VERTEX
  5
10F
330
107
100
AcDbEntity
  8
Defpoints
 62
   179
420
  2301728
370
    18
100
AcDbVertex
100
AcDb2dVertex
 10
127.9384878640667
 20
353.9301126122837
 30
0.0
  0
VERTEX
  5
110
330
107
100
AcDbEntity
  8
Defpoints
 62
   179
420
  2301728
370
    18
100
AcDbVertex
100
AcDb2dVertex
 10
128.3664862504493
 20
353.2009725651433
 30
0.0
  0
VERTEX
  5
111
330
107
100
AcDbEntity
  8
Defpoints
 62
   179
420
  2301728
370
    18
100
AcDbVertex
100
AcDb2dVertex
 10
128.7791399729604
 20
352.262779128504
 30
0.0
  0
VERTEX
  5
112
330
107
100
AcDbEntity
  8
Defpoints
 62
   179
420
  2301728
370
    18
100
AcDbVertex
100
AcDb2dVertex
 10
129.1090925269791
 20
351.2955787968358
 30
0.0
  0
VERTEX
  5
113
330
107
100
AcDbEntity
  8
Defpoints
 62
   179
420
  2301728
370
    18
100
AcDbVertex
100
AcDb2dVertex
 10
129.3606045122651
 20
350.3055643545658
 30
0.0
  0
VERTEX
  5
114
330
107
100
AcDbEntity
  8
Defpoints
 62
   179
420
  2301728
370
    18
100
AcDbVertex
100
AcDb2dVertex
 10
129.4978738813625
 20
349.2944515514946
 30
0.0
  0
VERTEX
  5
115
330
107
100
AcDbEntity
  8
Defpoints
 62
   179
420
  2301728
370
    18
100
AcDbVertex
100
AcDb2dVertex
 10
129.5345345535052
 20
348.2728029723166
 30
0.0
  0
SEQEND
  5
116
330
107
100
AcDbEntity
  8
Defpoints
 62
   179
420
  2301728
370
    18
  0
POLYLINE
  5
117
330
1F
100
AcDbEntity
  8
Defpoints
 62
   179
420
  2301728
370
    18
100
AcDb2dPolyline
 66
     1
 10
0.0
 20
0.0
 30
0.0
  0
VERTEX
  5
118
330
117
100
AcDbEntity
  8
Defpoints
 62
   179
420
  2301728
370
    18
100
AcDbVertex
100
AcDb2dVertex
 10
86.38968887532337
 20
340.0
 30
0.0
  0
VERTEX
  5
119
330
117
100
AcDbEntity
  8
Defpoints
 62
   179
420
  2301728
370
    18
100
AcDbVertex
100
AcDb2dVertex
 10
86.4730222086564
 20
342.166666666667
 30
0.0
  0
VERTEX
  5
11A
330
117
100
AcDbEntity
  8
Defpoints
 62
   179
420
  2301728
370
    18
100
AcDbVertex
100
AcDb2dVertex
 10
86.47302220865731
 20
343.625
 30
0.0
  0
VERTEX
  5
11B
330
117
100
AcDbEntity
  8
Defpoints
 62
   179
420
  2301728
370
    18
100
AcDbVertex
100
AcDb2dVertex
 10
86.50014176741934
 20
345.160406029423
 30
0.0
  0
VERTEX
  5
11C
330
117
100
AcDbEntity
  8
Defpoints
 62
   179
420
  2301728
370
    18
100
AcDbVertex
100
AcDb2dVertex
 10
86.88209965745318
 20
346.7099961832873
 30
0.0
  0
VERTEX
  5
11D
330
117
100
AcDbEntity
  8
Defpoints
 62
   179
420
  2301728
370
    18
100
AcDbVertex
100
AcDb2dVertex
 10
87.39194709237654
 20
348.226236450445
 30
0.0
  0
VERTEX
  5
11E
330
117
100
AcDbEntity
  8
Defpoints
 62
   179
420
  2301728
370
    18
100
AcDbVertex
100
AcDb2dVertex
 10
88.04588736074766
 20
349.6967948792199
 30
0.0
  0
VERTEX
  5
11F
330
117
100
AcDbEntity
  8
Defpoints
 62
   179
420
  2301728
370
    18
100
AcDbVertex
100
AcDb2dVertex
 10
88.435514330351
 20
350.3995552732085
 30
0.0
  0
VERTEX
  5
120
330
117
100
AcDbEntity
  8
Defpoints
 62
   179
420
  2301728
370
    18
100
AcDbVertex
100
AcDb2dVertex
 10
88.87545215316368
 20
351.064542363044
 30
0.0
  0
VERTEX
  5
121
330
117
100
AcDbEntity
  8
Defpoints
 62
   179
420
  2301728
370
    18
100
AcDbVertex
100
AcDb2dVertex
 10
89.37421552397609
 20
351.6829897395965
 30
0.0
  0
VERTEX
  5
122
330
117
100
AcDbEntity
  8
Defpoints
 62
   179
420
  2301728
370
    18
100
AcDbVertex
100
AcDb2dVertex
 10
89.93521942732968
 20
352.2443348181714
 30
0.0
  0
VERTEX
  5
123
330
117
100
AcDbEntity
  8
Defpoints
 62
   179
420
  2301728
370
    18
100
AcDbVertex
100
AcDb2dVertex
 10
90.56357658293564
 20
352.7274792379658
 30
0.0
  0
VERTEX
  5
124
330
117
100
AcDbEntity
  8
Defpoints
 62
   179
420
  2301728
370
    18
100
AcDbVertex
100
AcDb2dVertex
 10
91.25929024316338
 20
353.0867679691873
 30
0.0
  0
VERTEX
  5
125
330
117
100
AcDbEntity
  8
Defpoints
 62
   179
420
  2301728
370
    18
100
AcDbVertex
100
AcDb2dVertex
 10
92.01382619902233
 20
353.2826851492928
 30
0.0
  0
VERTEX
  5
126
330
117
100
AcDbEntity
  8
Defpoints
 62
   179
420
  2301728
370
    18
100
AcDbVertex
100
AcDb2dVertex
 10
92.76922077956715
 20
353.3784186263256
 30
0.0
  0
VERTEX
  5
127
330
117
100
AcDbEntity
  8
Defpoints
 62
   179
420
  2301728
370
    18
100
AcDbVertex
100
AcDb2dVertex
 10
93.49477164758719
 20
353.4346630494038
 30
0.0
  0
VERTEX
  5
128
330
117
100
AcDbEntity
  8
Defpoints
 62
   179
420
  2301728
370
    18
100
AcDbVertex
100
AcDb2dVertex
 10
94.17684488384657
 20
353.4627584523532
 30
0.0
  0
VERTEX
  5
129
330
117
100
AcDbEntity
  8
Defpoints
 62
   179
420
  2301728
370
    18
100
AcDbVertex
100
AcDb2dVertex
 10
94.80520203945343
 20
353.480318079196
 30
0.0
  0
VERTEX
  5
12A
330
117
100
AcDbEntity
  8
Defpoints
 62
   179
420
  2301728
370
    18
100
AcDbVertex
100
AcDb2dVertex
 10
95.36791343507684
 20
353.504928365367
 30
0.0
  0
SEQEND
  5
12B
330
117
100
AcDbEntity
  8
Defpoints
 62
   179
420
  2301728
370
    18
  0
POLYLINE
  5
12C
330
1F
100
AcDbEntity
  8
Defpoints
 62
   179
420
  2301728
370
    18
100
AcDb2dPolyline
 66
     1
 10
0.0
 20
0.0
 30
0.0
  0
VERTEX
  5
12D
330
12C
100
AcDbEntity
  8
Defpoints
 62
   179
420
  2301728
370
    18
100
AcDbVertex
100
AcDb2dVertex
 10
124.1248607939306
 20
363.5554421727356
 30
0.0
  0
VERTEX
  5
12E
330
12C
100
AcDbEntity
  8
Defpoints
 62
   179
420
  2301728
370
    18
100
AcDbVertex
100
AcDb2dVertex
 10
125.2588047847021
 20
363.6107751037343
 30
0.0
  0
VERTEX
  5
12F
330
12C
100
AcDbEntity
  8
Defpoints
 62
   179
420
  2301728
370
    18
100
AcDbVertex
100
AcDb2dVertex
 10
126.385073191168
 20
363.502736483616
 30
0.0
  0
VERTEX
  5
130
330
12C
100
AcDbEntity
  8
Defpoints
 62
   179
420
  2301728
370
    18
100
AcDbVertex
100
AcDb2dVertex
 10
127.4908777093169
 20
363.2488591306337
 30
0.0
  0
VERTEX
  5
131
330
12C
100
AcDbEntity
  8
Defpoints
 62
   179
420
  2301728
370
    18
100
AcDbVertex
100
AcDb2dVertex
 10
128.5617322999597
 20
362.8675873551192
 30
0.0
  0
VERTEX
  5
132
330
12C
100
AcDbEntity
  8
Defpoints
 62
   179
420
  2301728
370
    18
100
AcDbVertex
100
AcDb2dVertex
 10
129.5925112339182
 20
362.3686258668713
 30
0.0
  0
VERTEX
  5
133
330
12C
100
AcDbEntity
  8
Defpoints
 62
   179
420
  2301728
370
    18
100
AcDbVertex
100
AcDb2dVertex
 10
130.7963615844328
 20
361.5964580318187
 30
0.0
  0
VERTEX
  5
134
330
12C
100
AcDbEntity
  8
Defpoints
 62
   179
420
  2301728
370
    18
100
AcDbVertex
100
AcDb2dVertex
 10
131.8851171988044
 20
360.6661731294062
 30
0.0
  0
VERTEX
  5
135
330
12C
100
AcDbEntity
  8
Defpoints
 62
   179
420
  2301728
370
    18
100
AcDbVertex
100
AcDb2dVertex
 10
132.8493982528271
 20
359.5970733448667
 30
0.0
  0
VERTEX
  5
136
330
12C
100
AcDbEntity
  8
Defpoints
 62
   179
420
  2301728
370
    18
100
AcDbVertex
100
AcDb2dVertex
 10
133.6977194412902
 20
358.4181655732291
 30
0.0
  0
VERTEX
  5
137
330
12C
100
AcDbEntity
  8
Defpoints
 62
   179
420
  2301728
370
    18
100
AcDbVertex
100
AcDb2dVertex
 10
134.5383715501848
 20
356.9748714810939
 30
0.0
  0
VERTEX
  5
138
330
12C
100
AcDbEntity
  8
Defpoints
 62
   179
420
  2301728
370
    18
100
AcDbVertex
100
AcDb2dVertex
 10
135.2588096984909
 20
355.4709363570219
 30
0.0
  0
VERTEX
  5
139
330
12C
100
AcDbEntity
  8
Defpoints
 62
   179
420
  2301728
370
    18
100
AcDbVertex
100
AcDb2dVertex
 10
135.8453934622421
 20
353.9160381022184
 30
0.0
  0
VERTEX
  5
13A
330
12C
100
AcDbEntity
  8
Defpoints
 62
   179
420
  2301728
370
    18
100
AcDbVertex
100
AcDb2dVertex
 10
136.285328032689
 20
352.3154848176237
 30
0.0
  0
VERTEX
  5
13B
330
12C
100
AcDbEntity
  8
Defpoints
 62
   179
420
  2301728
370
    18
100
AcDbVertex
100
AcDb2dVertex
 10
136.5700922103097
 20
350.6753888618941
 30
0.0
  0
VERTEX
  5
13C
330
12C
100
AcDbEntity
  8
Defpoints
 62
   179
420
  2301728
370
    18
100
AcDbVertex
100
AcDb2dVertex
 10
136.7158827789281
 20
349.0151060374419
 30
0.0
  0
VERTEX
  5
13D
330
12C
100
AcDbEntity
  8
Defpoints
 62
   179
420
  2301728
370
    18
100
AcDbVertex
100
AcDb2dVertex
 10
136.7985839474213
 20
347.352169162521
 30
0.0
  0
SEQEND
  5
13E
330
12C
100
AcDbEntity
  8
Defpoints
 62
   179
420
  2301728
370
    18
  0
POLYLINE
  5
13F
330
1F
100
AcDbEntity
  8
Defpoints
 62
   179
420
  2301728
370
    18
100
AcDb2dPolyline
 66
     1
 10
0.0
 20
0.0
 30
0.0
  0
VERTEX
  5
140
330
13F
100
AcDbEntity
  8
Defpoints
 62
   179
420
  2301728
370
    18
100
AcDbVertex
100
AcDb2dVertex
 10
78.5693638011162
 20
340.4404051426054
 30
0.0
  0
VERTEX
  5
141
330
13F
100
AcDbEntity
  8
Defpoints
 62
   179
420
  2301728
370
    18
100
AcDbVertex
100
AcDb2dVertex
 10
78.63245970597563
 20
342.293977905284
 30
0.0
  0
VERTEX
  5
142
330
13F
100
AcDbEntity
  8
Defpoints
 62
   179
420
  2301728
370
    18
100
AcDbVertex
100
AcDb2dVertex
 10
78.74329384235625
 20
344.1554323935989
 30
0.0
  0
VERTEX
  5
143
330
13F
100
AcDbEntity
  8
Defpoints
 62
   179
420
  2301728
370
    18
100
AcDbVertex
100
AcDb2dVertex
 10
78.9547366756924
 20
346.0019544969491
 30
0.0
  0
VERTEX
  5
144
330
13F
100
AcDbEntity
  8
Defpoints
 62
   179
420
  2301728
370
    18
100
AcDbVertex
100
AcDb2dVertex
 10
79.3230541417579
 20
347.8142420301028
 30
0.0
  0
VERTEX
  5
145
330
13F
100
AcDbEntity
  8
Defpoints
 62
   179
420
  2301728
370
    18
100
AcDbVertex
100
AcDb2dVertex
 10
79.87297072863294
 20
349.5799630413849
 30
0.0
  0
VERTEX
  5
146
330
13F
100
AcDbEntity
  8
Defpoints
 62
   179
420
  2301728
370
    18
100
AcDbVertex
100
AcDb2dVertex
 10
80.55419184493894
 20
351.2709953192552
 30
0.0
  0
VERTEX
  5
147
330
13F
100
AcDbEntity
  8
Defpoints
 62
   179
420
  2301728
370
    18
100
AcDbVertex
100
AcDb2dVertex
 10
81.3334587936115
 20
352.9251389764604
 30
0.0
  0
VERTEX
  5
148
330
13F
100
AcDbEntity
  8
Defpoints
 62
   179
420
  2301728
370
    18
100
AcDbVertex
100
AcDb2dVertex
 10
82.22100351880727
 20
354.5142718014604
 30
0.0
  0
VERTEX
  5
149
330
13F
100
AcDbEntity
  8
Defpoints
 62
   179
420
  2301728
370
    18
100
AcDbVertex
100
AcDb2dVertex
 10
83.24325474851139
 20
355.9971353733199
 30
0.0
  0
VERTEX
  5
14A
330
13F
100
AcDbEntity
  8
Defpoints
 62
   179
420
  2301728
370
    18
100
AcDbVertex
100
AcDb2dVertex
 10
84.17683997005679
 20
357.0820254177215
 30
0.0
  0
VERTEX
  5
14B
330
13F
100
AcDbEntity
  8
Defpoints
 62
   179
420
  2301728
370
    18
100
AcDbVertex
100
AcDb2dVertex
 10
85.21614660826981
 20
358.0632734508654
 30
0.0
  0
VERTEX
  5
14C
330
13F
100
AcDbEntity
  8
Defpoints
 62
   179
420
  2301728
370
    18
100
AcDbVertex
100
AcDb2dVertex
 10
86.36116815841797
 20
358.9338288134213
 30
0.0
  0
VERTEX
  5
14D
330
13F
100
AcDbEntity
  8
Defpoints
 62
   179
420
  2301728
370
    18
100
AcDbVertex
100
AcDb2dVertex
 10
87.61362186987026
 20
359.6893217051211
 30
0.0
  0
VERTEX
  5
14E
330
13F
100
AcDbEntity
  8
Defpoints
 62
   179
420
  2301728
370
    18
100
AcDbVertex
100
AcDb2dVertex
 10
88.94706925754508
 20
360.3095116400627
 30
0.0
  0
VERTEX
  5
14F
330
13F
100
AcDbEntity
  8
Defpoints
 62
   179
420
  2301728
370
    18
100
AcDbVertex
100
AcDb2dVertex
 10
89.61209033766136
 20
360.5493412915712
 30
0.0
  0
VERTEX
  5
150
330
13F
100
AcDbEntity
  8
Defpoints
 62
   179
420
  2301728
370
    18
100
AcDbVertex
100
AcDb2dVertex
 10
90.26260911675854
 20
360.7338112034904
 30
0.0
  0
VERTEX
  5
151
330
13F
100
AcDbEntity
  8
Defpoints
 62
   179
420
  2301728
370
    18
100
AcDbVertex
100
AcDb2dVertex
 10
90.89182489704945
 20
360.8567822085715
 30
0.0
  0
VERTEX
  5
152
330
13F
100
AcDbEntity
  8
Defpoints
 62
   179
420
  2301728
370
    18
100
AcDbVertex
100
AcDb2dVertex
 10
91.51506282820992
 20
360.9288168915155
 30
0.0
  0
VERTEX
  5
153
330
13F
100
AcDbEntity
  8
Defpoints
 62
   179
420
  2301728
370
    18
100
AcDbVertex
100
AcDb2dVertex
 10
92.17922853600885
 20
360.9841766311038
 30
0.0
  0
VERTEX
  5
154
330
13F
100
AcDbEntity
  8
Defpoints
 62
   179
420
  2301728
370
    18
100
AcDbVertex
100
AcDb2dVertex
 10
92.8894347401556
 20
361.0447908544502
 30
0.0
  0
VERTEX
  5
155
330
13F
100
AcDbEntity
  8
Defpoints
 62
   179
420
  2301728
370
    18
100
AcDbVertex
100
AcDb2dVertex
 10
93.56895161655848
 20
361.1010084689387
 30
0.0
  0
VERTEX
  5
156
330
13F
100
AcDbEntity
  8
Defpoints
 62
   179
420
  2301728
370
    18
100
AcDbVertex
100
AcDb2dVertex
 10
94.13762785184645
 20
361.1466903073224
 30
0.0
  0
SEQEND
  5
157
330
13F
100
AcDbEntity
  8
Defpoints
 62
   179
420
  2301728
370
    18
  0
POLYLINE
  5
158
330
1F
100
AcDbEntity
  8
Defpoints
 62
   179
420
  2301728
370
    18
100
AcDb2dPolyline
 66
     1
 10
0.0
 20
0.0
 30
0.0
  0
VERTEX
  5
159
330
158
100
AcDbEntity
  8
Defpoints
 62
   179
420
  2301728
370
    18
100
AcDbVertex
100
AcDb2dVertex
 10
78.84132336758012
 20
328.1356920232865
 30
0.0
  0
VERTEX
  5
15A
330
158
100
AcDbEntity
  8
Defpoints
 62
   179
420
  2301728
370
    18
100
AcDbVertex
100
AcDb2dVertex
 10
78.54890641753082
 20
337.2586275672384
 30
0.0
  0
VERTEX
  5
15B
330
158
100
AcDbEntity
  8
Defpoints
 62
   179
420
  2301728
370
    18
100
AcDbVertex
100
AcDb2dVertex
 10
78.5693638011162
 20
340.4404051426054
 30
0.0
  0
SEQEND
  5
15C
330
158
100
AcDbEntity
  8
Defpoints
 62
   179
420
  2301728
370
    18
  0
POLYLINE
  5
15D
330
1F
100
AcDbEntity
  8
Defpoints
 62
   179
420
  2301728
370
    18
100
AcDb2dPolyline
 66
     1
 10
0.0
 20
0.0
 30
0.0
  0
VERTEX
  5
15E
330
15D
100
AcDbEntity
  8
Defpoints
 62
   179
420
  2301728
370
    18
100
AcDbVertex
100
AcDb2dVertex
 10
78.7876072869285
 20
322.8745865437995
 30
0.0
  0
VERTEX
  5
15F
330
15D
100
AcDbEntity
  8
Defpoints
 62
   179
420
  2301728
370
    18
100
AcDbVertex
100
AcDb2dVertex
 10
79.35117080250438
 20
322.56183752586
 30
0.0
  0
VERTEX
  5
160
330
15D
100
AcDbEntity
  8
Defpoints
 62
   179
420
  2301728
370
    18
100
AcDbVertex
100
AcDb2dVertex
 10
79.95224060544297
 20
322.3975812912531
 30
0.0
  0
VERTEX
  5
161
330
15D
100
AcDbEntity
  8
Defpoints
 62
   179
420
  2301728
370
    18
100
AcDbVertex
100
AcDb2dVertex
 10
80.57037232162293
 20
322.3290585336799
 30
0.0
  0
VERTEX
  5
162
330
15D
100
AcDbEntity
  8
Defpoints
 62
   179
420
  2301728
370
    18
100
AcDbVertex
100
AcDb2dVertex
 10
81.19702523732485
 20
322.3027056891196
 30
0.0
  0
VERTEX
  5
163
330
15D
100
AcDbEntity
  8
Defpoints
 62
   179
420
  2301728
370
    18
100
AcDbVertex
100
AcDb2dVertex
 10
81.8185589285822
 20
322.2860039371762
 30
0.0
  0
VERTEX
  5
164
330
15D
100
AcDbEntity
  8
Defpoints
 62
   179
420
  2301728
370
    18
100
AcDbVertex
100
AcDb2dVertex
 10
82.43924049988618
 20
322.2736987940907
 30
0.0
  0
VERTEX
  5
165
330
15D
100
AcDbEntity
  8
Defpoints
 62
   179
420
  2301728
370
    18
100
AcDbVertex
100
AcDb2dVertex
 10
83.06418917568408
 20
322.2614204595957
 30
0.0
  0
VERTEX
  5
166
330
15D
100
AcDbEntity
  8
Defpoints
 62
   179
420
  2301728
370
    18
100
AcDbVertex
100
AcDb2dVertex
 10
83.63968887532337
 20
322.25
 30
0.0
  0
VERTEX
  5
167
330
15D
100
AcDbEntity
  8
Defpoints
 62
   179
420
  2301728
370
    18
100
AcDbVertex
100
AcDb2dVertex
 10
84.2220055345806
 20
322.2359254899347
 30
0.0
  0
VERTEX
  5
168
330
15D
100
AcDbEntity
  8
Defpoints
 62
   179
420
  2301728
370
    18
100
AcDbVertex
100
AcDb2dVertex
 10
84.80091371402887
 20
322.2482306330203
 30
0.0
  0
VERTEX
  5
169
330
15D
100
AcDbEntity
  8
Defpoints
 62
   179
420
  2301728
370
    18
100
AcDbVertex
100
AcDb2dVertex
 10
85.36191436501576
 20
322.3272891667002
 30
0.0
  0
VERTEX
  5
16A
330
15D
100
AcDbEntity
  8
Defpoints
 62
   179
420
  2301728
370
    18
100
AcDbVertex
100
AcDb2dVertex
 10
85.89052144835205
 20
322.5223216633149
 30
0.0
  0
VERTEX
  5
16B
330
15D
100
AcDbEntity
  8
Defpoints
 62
   179
420
  2301728
370
    18
100
AcDbVertex
100
AcDb2dVertex
 10
86.37138379543558
 20
322.8737018603106
 30
0.0
  0
SEQEND
  5
16C
330
15D
100
AcDbEntity
  8
Defpoints
 62
   179
420
  2301728
370
    18
  0
POLYLINE
  5
16D
330
1F
100
AcDbEntity
  8
Defpoints
 62
   179
420
  2301728
370
    18
100
AcDb2dPolyline
 66
     1
 10
0.0
 20
0.0
 30
0.0
  0
VERTEX
  5
16E
330
16D
100
AcDbEntity
  8
Defpoints
 62
   179
420
  2301728
370
    18
100
AcDbVertex
100
AcDb2dVertex
 10
150.6377393544544
 20
15.55276611378576
 30
0.0
  0
VERTEX
  5
16F
330
16D
100
AcDbEntity
  8
Defpoints
 62
   179
420
  2301728
370
    18
100
AcDbVertex
100
AcDb2dVertex
 10
150.6222045674904
 20
8.818474963642075
 30
0.0
  0
SEQEND
  5
170
330
16D
100
AcDbEntity
  8
Defpoints
 62
   179
420
  2301728
370
    18
  0
POLYLINE
  5
171
330
1F
100
AcDbEntity
  8
Defpoints
 62
   179
420
  2301728
370
    18
100
AcDb2dPolyline
 66
     1
 10
0.0
 20
0.0
 30
0.0
  0
VERTEX
  5
172
330
171
100
AcDbEntity
  8
Defpoints
 62
   179
420
  2301728
370
    18
100
AcDbVertex
100
AcDb2dVertex
 10
120.6873185360246
 20
15.55276611378576
 30
0.0
  0
VERTEX
  5
173
330
171
100
AcDbEntity
  8
Defpoints
 62
   179
420
  2301728
370
    18
100
AcDbVertex
100
AcDb2dVertex
 10
120.6873185360246
 20
8.641028902460675
 30
0.0
  0
SEQEND
  5
174
330
171
100
AcDbEntity
  8
Defpoints
 62
   179
420
  2301728
370
    18
  0
POLYLINE
  5
175
330
1F
100
AcDbEntity
  8
Defpoints
 62
   179
420
  2301728
370
    18
100
AcDb2dPolyline
 66
     1
 10
0.0
 20
0.0
 30
0.0
  0
VERTEX
  5
176
330
175
100
AcDbEntity
  8
Defpoints
 62
   179
420
  2301728
370
    18
100
AcDbVertex
100
AcDb2dVertex
 10
139.4254095708166
 20
263.9385129185121
 30
0.0
  0
VERTEX
  5
177
330
175
100
AcDbEntity
  8
Defpoints
 62
   179
420
  2301728
370
    18
100
AcDbVertex
100
AcDb2dVertex
 10
142.2928952509337
 20
14.88953498663614
 30
0.0
  0
SEQEND
  5
178
330
175
100
AcDbEntity
  8
Defpoints
 62
   179
420
  2301728
370
    18
  0
POLYLINE
  5
179
330
1F
100
AcDbEntity
  8
Defpoints
 62
   179
420
  2301728
370
    18
100
AcDb2dPolyline
 66
     1
 10
0.0
 20
0.0
 30
0.0
  0
VERTEX
  5
17A
330
179
100
AcDbEntity
  8
Defpoints
 62
   179
420
  2301728
370
    18
100
AcDbVertex
100
AcDb2dVertex
 10
139.4254095708166
 20
263.9385129185121
 30
0.0
  0
VERTEX
  5
17B
330
179
100
AcDbEntity
  8
Defpoints
 62
   179
420
  2301728
370
    18
100
AcDbVertex
100
AcDb2dVertex
 10
139.3512361065796
 20
279.8114638796487
 30
0.0
  0
SEQEND
  5
17C
330
179
100
AcDbEntity
  8
Defpoints
 62
   179
420
  2301728
370
    18
  0
POLYLINE
  5
17D
330
1F
100
AcDbEntity
  8
Defpoints
 62
   179
420
  2301728
370
    18
100
AcDb2dPolyline
 66
     1
 10
0.0
 20
0.0
 30
0.0
  0
VERTEX
  5
17E
330
17D
100
AcDbEntity
  8
Defpoints
 62
   179
420
  2301728
370
    18
100
AcDbVertex
100
AcDb2dVertex
 10
143.4342826904622
 20
279.5593558936453
 30
0.0
  0
VERTEX
  5
17F
330
17D
100
AcDbEntity
  8
Defpoints
 62
   179
420
  2301728
370
    18
100
AcDbVertex
100
AcDb2dVertex
 10
150.7123252403026
 20
278.6660760215727
 30
0.0
  0
SEQEND
  5
180
330
17D
100
AcDbEntity
  8
Defpoints
 62
   179
420
  2301728
370
    18
  0
POLYLINE
  5
181
330
1F
100
AcDbEntity
  8
Defpoints
 62
   179
420
  2301728
370
    18
100
AcDb2dPolyline
 66
     1
 10
0.0
 20
0.0
 30
0.0
  0
VERTEX
  5
182
330
181
100
AcDbEntity
  8
Defpoints
 62
   179
420
  2301728
370
    18
100
AcDbVertex
100
AcDb2dVertex
 10
129.0330760403931
 20
15.3006581277823
 30
0.0
  0
VERTEX
  5
183
330
181
100
AcDbEntity
  8
Defpoints
 62
   179
420
  2301728
370
    18
100
AcDbVertex
100
AcDb2dVertex
 10
126.4728870793742
 20
281.6096769027372
 30
0.0
  0
SEQEND
  5
184
330
181
100
AcDbEntity
  8
Defpoints
 62
   179
420
  2301728
370
    18
  0
POLYLINE
  5
185
330
1F
100
AcDbEntity
  8
Defpoints
 62
   179
420
  2301728
370
    18
100
AcDb2dPolyline
 66
     1
 10
0.0
 20
0.0
 30
0.0
  0
VERTEX
  5
186
330
185
100
AcDbEntity
  8
Defpoints
 62
   179
420
  2301728
370
    18
100
AcDbVertex
100
AcDb2dVertex
 10
150.5554011795502
 20
292.7219835881351
 30
0.0
  0
VERTEX
  5
187
330
185
100
AcDbEntity
  8
Defpoints
 62
   179
420
  2301728
370
    18
100
AcDbVertex
100
AcDb2dVertex
 10
152.3688555419903
 20
292.375
 30
0.0
  0
SEQEND
  5
188
330
185
100
AcDbEntity
  8
Defpoints
 62
   179
420
  2301728
370
    18
  0
POLYLINE
  5
189
330
1F
100
AcDbEntity
  8
Defpoints
 62
   179
420
  2301728
370
    18
100
AcDb2dPolyline
 66
     1
 10
0.0
 20
0.0
 30
0.0
  0
VERTEX
  5
18A
330
189
100
AcDbEntity
  8
Defpoints
 62
   179
420
  2301728
370
    18
100
AcDbVertex
100
AcDb2dVertex
 10
150.4242177637298
 20
304.5971016679941
 30
0.0
  0
VERTEX
  5
18B
330
189
100
AcDbEntity
  8
Defpoints
 62
   179
420
  2301728
370
    18
100
AcDbVertex
100
AcDb2dVertex
 10
150.5938541347123
 20
292.9557725197574
 30
0.0
  0
SEQEND
  5
18C
330
189
100
AcDbEntity
  8
Defpoints
 62
   179
420
  2301728
370
    18
  0
POLYLINE
  5
18D
330
1F
100
AcDbEntity
  8
Defpoints
 62
   179
420
  2301728
370
    18
100
AcDb2dPolyline
 66
     1
 10
0.0
 20
0.0
 30
0.0
  0
VERTEX
  5
18E
330
18D
100
AcDbEntity
  8
Defpoints
 62
   179
420
  2301728
370
    18
100
AcDbVertex
100
AcDb2dVertex
 10
148.130767214021
 20
304.624789605059
 30
0.0
  0
VERTEX
  5
18F
330
18D
100
AcDbEntity
  8
Defpoints
 62
   179
420
  2301728
370
    18
100
AcDbVertex
100
AcDb2dVertex
 10
148.2405277573089
 20
292.8493925995335
 30
0.0
  0
SEQEND
  5
190
330
18D
100
AcDbEntity
  8
Defpoints
 62
   179
420
  2301728
370
    18
  0
POLYLINE
  5
191
330
1F
100
AcDbEntity
  8
Defpoints
 62
   179
420
  2301728
370
    18
100
AcDb2dPolyline
 66
     1
 10
0.0
 20
0.0
 30
0.0
  0
VERTEX
  5
192
330
191
100
AcDbEntity
  8
Defpoints
 62
   179
420
  2301728
370
    18
100
AcDbVertex
100
AcDb2dVertex
 10
139.3512361065796
 20
279.8114638796487
 30
0.0
  0
VERTEX
  5
193
330
191
100
AcDbEntity
  8
Defpoints
 62
   179
420
  2301728
370
    18
100
AcDbVertex
100
AcDb2dVertex
 10
142.3114227638043
 20
279.5690069862612
 30
0.0
  0
SEQEND
  5
194
330
191
100
AcDbEntity
  8
Defpoints
 62
   179
420
  2301728
370
    18
  0
POLYLINE
  5
195
330
1F
100
AcDbEntity
  8
Defpoints
 62
   179
420
  2301728
370
    18
100
AcDb2dPolyline
 66
     1
 10
0.0
 20
0.0
 30
0.0
  0
VERTEX
  5
196
330
195
100
AcDbEntity
  8
Defpoints
 62
   179
420
  2301728
370
    18
100
AcDbVertex
100
AcDb2dVertex
 10
136.7457264914538
 20
293.9204766007788
 30
0.0
  0
VERTEX
  5
197
330
195
100
AcDbEntity
  8
Defpoints
 62
   179
420
  2301728
370
    18
100
AcDbVertex
100
AcDb2dVertex
 10
142.9227245109014
 20
293.0402433370164
 30
0.0
  0
SEQEND
  5
198
330
195
100
AcDbEntity
  8
Defpoints
 62
   179
420
  2301728
370
    18
  0
POLYLINE
  5
199
330
1F
100
AcDbEntity
  8
Defpoints
 62
   179
420
  2301728
370
    18
100
AcDb2dPolyline
 66
     1
 10
0.0
 20
0.0
 30
0.0
  0
VERTEX
  5
19A
330
199
100
AcDbEntity
  8
Defpoints
 62
   179
420
  2301728
370
    18
100
AcDbVertex
100
AcDb2dVertex
 10
126.4313555419903
 20
281.3124928934485
 30
0.0
  0
VERTEX
  5
19B
330
199
100
AcDbEntity
  8
Defpoints
 62
   179
420
  2301728
370
    18
100
AcDbVertex
100
AcDb2dVertex
 10
121.3063555419903
 20
281.625
 30
0.0
  0
SEQEND
  5
19C
330
199
100
AcDbEntity
  8
Defpoints
 62
   179
420
  2301728
370
    18
  0
POLYLINE
  5
19D
330
1F
100
AcDbEntity
  8
Defpoints
 62
   179
420
  2301728
370
    18
100
AcDb2dPolyline
 66
     1
 10
0.0
 20
0.0
 30
0.0
  0
VERTEX
  5
19E
330
19D
100
AcDbEntity
  8
Defpoints
 62
   179
420
  2301728
370
    18
100
AcDbVertex
100
AcDb2dVertex
 10
129.0563555419903
 20
294.1874925681986
 30
0.0
  0
VERTEX
  5
19F
330
19D
100
AcDbEntity
  8
Defpoints
 62
   179
420
  2301728
370
    18
100
AcDbVertex
100
AcDb2dVertex
 10
122.4768918699592
 20
294.7352855761346
 30
0.0
  0
SEQEND
  5
1A0
330
19D
100
AcDbEntity
  8
Defpoints
 62
   179
420
  2301728
370
    18
  0
POLYLINE
  5
1A1
330
1F
100
AcDbEntity
  8
Defpoints
 62
   179
420
  2301728
370
    18
100
AcDb2dPolyline
 66
     1
 10
0.0
 20
0.0
 30
0.0
  0
VERTEX
  5
1A2
330
1A1
100
AcDbEntity
  8
Defpoints
 62
   179
420
  2301728
370
    18
100
AcDbVertex
100
AcDb2dVertex
 10
129.5345345535052
 20
348.2728029723166
 30
0.0
  0
VERTEX
  5
1A3
330
1A1
100
AcDbEntity
  8
Defpoints
 62
   179
420
  2301728
370
    18
100
AcDbVertex
100
AcDb2dVertex
 10
129.2736427440113
 20
293.9204766007788
 30
0.0
  0
SEQEND
  5
1A4
330
1A1
100
AcDbEntity
  8
Defpoints
 62
   179
420
  2301728
370
    18
  0
POLYLINE
  5
1A5
330
1F
100
AcDbEntity
  8
Defpoints
 62
   179
420
  2301728
370
    18
100
AcDb2dPolyline
 66
     1
 10
0.0
 20
0.0
 30
0.0
  0
VERTEX
  5
1A6
330
1A5
100
AcDbEntity
  8
Defpoints
 62
   179
420
  2301728
370
    18
100
AcDbVertex
100
AcDb2dVertex
 10
95.36791343507684
 20
353.504928365367
 30
0.0
  0
VERTEX
  5
1A7
330
1A5
100
AcDbEntity
  8
Defpoints
 62
   179
420
  2301728
370
    18
100
AcDbVertex
100
AcDb2dVertex
 10
124.6185114450309
 20
355.9426603172215
 30
0.0
  0
SEQEND
  5
1A8
330
1A5
100
AcDbEntity
  8
Defpoints
 62
   179
420
  2301728
370
    18
  0
POLYLINE
  5
1A9
330
1F
100
AcDbEntity
  8
Defpoints
 62
   179
420
  2301728
370
    18
100
AcDb2dPolyline
 66
     1
 10
0.0
 20
0.0
 30
0.0
  0
VERTEX
  5
1AA
330
1A9
100
AcDbEntity
  8
Defpoints
 62
   179
420
  2301728
370
    18
100
AcDbVertex
100
AcDb2dVertex
 10
86.38968887532337
 20
340.0
 30
0.0
  0
VERTEX
  5
1AB
330
1A9
100
AcDbEntity
  8
Defpoints
 62
   179
420
  2301728
370
    18
100
AcDbVertex
100
AcDb2dVertex
 10
86.37138379543558
 20
328.0531215642404
 30
0.0
  0
SEQEND
  5
1AC
330
1A9
100
AcDbEntity
  8
Defpoints
 62
   179
420
  2301728
370
    18
  0
POLYLINE
  5
1AD
330
1F
100
AcDbEntity
  8
Defpoints
 62
   179
420
  2301728
370
    18
100
AcDb2dPolyline
 66
     1
 10
0.0
 20
0.0
 30
0.0
  0
VERTEX
  5
1AE
330
1AD
100
AcDbEntity
  8
Defpoints
 62
   179
420
  2301728
370
    18
100
AcDbVertex
100
AcDb2dVertex
 10
136.7985839474213
 20
347.352169162521
 30
0.0
  0
VERTEX
  5
1AF
330
1AD
100
AcDbEntity
  8
Defpoints
 62
   179
420
  2301728
370
    18
100
AcDbVertex
100
AcDb2dVertex
 10
136.7457264914538
 20
293.9204766007788
 30
0.0
  0
SEQEND
  5
1B0
330
1AD
100
AcDbEntity
  8
Defpoints
 62
   179
420
  2301728
370
    18
  0
POLYLINE
  5
1B1
330
1F
100
AcDbEntity
  8
Defpoints
 62
   179
420
  2301728
370
    18
100
AcDb2dPolyline
 66
     1
 10
0.0
 20
0.0
 30
0.0
  0
VERTEX
  5
1B2
330
1B1
100
AcDbEntity
  8
Defpoints
 62
   179
420
  2301728
370
    18
100
AcDbVertex
100
AcDb2dVertex
 10
94.13762785184645
 20
361.1458056238316
 30
0.0
  0
VERTEX
  5
1B3
330
1B1
100
AcDbEntity
  8
Defpoints
 62
   179
420
  2301728
370
    18
100
AcDbVertex
100
AcDb2dVertex
 10
124.1248607939306
 20
363.5554421727356
 30
0.0
  0
SEQEND
  5
1B4
330
1B1
100
AcDbEntity
  8
Defpoints
 62
   179
420
  2301728
370
    18
  0
POLYLINE
  5
1B5
330
1F
100
AcDbEntity
  8
Defpoints
 62
   179
420
  2301728
370
    18
100
AcDb2dPolyline
 66
     1
 10
0.0
 20
0.0
 30
0.0
  0
VERTEX
  5
1B6
330
1B5
100
AcDbEntity
  8
Defpoints
 62
   179
420
  2301728
370
    18
100
AcDbVertex
100
AcDb2dVertex
 10
86.37138379543558
 20
328.0531215642404
 30
0.0
  0
VERTEX
  5
1B7
330
1B5
100
AcDbEntity
  8
Defpoints
 62
   179
420
  2301728
370
    18
100
AcDbVertex
100
AcDb2dVertex
 10
86.37138379543558
 20
322.8728171768207
 30
0.0
  0
SEQEND
  5
1B8
330
1B5
100
AcDbEntity
  8
Defpoints
 62
   179
420
  2301728
370
    18
  0
POLYLINE
  5
1B9
330
1F
100
AcDbEntity
  8
Defpoints
 62
   179
420
  2301728
370
    18
100
AcDb2dPolyline
 66
     1
 10
0.0
 20
0.0
 30
0.0
  0
VERTEX
  5
1BA
330
1B9
100
AcDbEntity
  8
Defpoints
 62
   179
420
  2301728
370
    18
100
AcDbVertex
100
AcDb2dVertex
 10
78.7876072869285
 20
322.8745865437995
 30
0.0
  0
VERTEX
  5
1BB
330
1B9
100
AcDbEntity
  8
Defpoints
 62
   179
420
  2301728
370
    18
100
AcDbVertex
100
AcDb2dVertex
 10
78.84132336758012
 20
328.1356920232865
 30
0.0
  0
SEQEND
  5
1BC
330
1B9
100
AcDbEntity
  8
Defpoints
 62
   179
420
  2301728
370
    18
  0
SPLINE
  5
1BD
330
1F
100
AcDbEntity
  8
Defpoints
 62
   179
420
  2301728
370
    18
100
AcDbSpline
210
0.0
220
0.0
230
1.0
 70
     8
 71
     3
 72
    14
 73
    10
 74
     0
 42
0.0000000001
 43
0.0000000001
 12
1.0
 22
0.0
 32
0.0
 13
1.0
 23
0.0
 33
0.0
 40
0.0
 40
0.0
 40
0.0
 40
0.0
 40
1.0
 40
1.0
 40
1.0
 40
2.0
 40
2.0
 40
2.0
 40
3.0
 40
3.0
 40
3.0
 40
3.0
 10
120.6873185360246
 20
8.641028902460675
 30
0.0
 10
120.6873185360246
 20
6.418516315945453
 30
0.0
 10
127.3917086593974
 20
4.615906683997309
 30
0.0
 10
135.6606986572779
 20
4.615906683997309
 30
0.0
 10
143.932435830231
 20
4.615906683997309
 30
0.0
 10
150.6377393544544
 20
6.418516315945453
 30
0.0
 10
150.6377393544544
 20
8.641028902460675
 30
0.0
 10
150.6377393544544
 20
8.69987375882738
 30
0.0
 10
150.6313385759822
 20
8.75960329868576
 30
0.0
 10
150.6222045674904
 20
8.818474963642075
 30
0.0
  0
SPLINE
  5
1BE
330
1F
100
AcDbEntity
  8
Defpoints
 62
   179
420
  2301728
370
    18
100
AcDbSpline
210
0.0
220
0.0
230
1.0
 70
     8
 71
     3
 72
    17
 73
    13
 74
     0
 42
0.0000000001
 43
0.0000000001
 12
1.0
 22
0.0
 32
0.0
 13
1.0
 23
0.0
 33
0.0
 40
0.0
 40
0.0
 40
0.0
 40
0.0
 40
1.0
 40
1.0
 40
1.0
 40
2.0
 40
2.0
 40
2.0
 40
3.0
 40
3.0
 40
3.0
 40
4.0
 40
4.0
 40
4.0
 40
4.0
 10
129.0330760403931
 20
19.36355365040072
 30
0.0
 10
121.6158427931987
 20
18.32520331928026
 30
0.0
 10
118.5725445591615
 20
15.77502273415485
 30
0.0
 10
122.2345568218734
 20
13.67198263164755
 30
0.0
 10
125.8947353103586
 20
11.56718656645717
 30
0.0
 10
134.8738282295153
 20
10.70365505463815
 30
0.0
 10
142.2928952509337
 20
11.74112070227056
 30
0.0
 10
149.7064748947323
 20
12.78034231258607
 30
0.0
 10
152.7497731287694
 20
15.32963821422163
 30
0.0
 10
149.0895876677559
 20
17.43443427941202
 30
0.0
 10
147.6355720487336
 20
18.27161294667167
 30
0.0
 10
145.2521117991637
 20
18.94714921690684
 30
0.0
 10
142.3047764344992
 20
19.36266896691268
 30
0.0
  0
SPLINE
  5
1BF
330
1F
100
AcDbEntity
  8
Defpoints
 62
   179
420
  2301728
370
    18
100
AcDbSpline
210
0.0
220
0.0
230
1.0
 70
     8
 71
     3
 72
    14
 73
    10
 74
     0
 42
0.0000000001
 43
0.0000000001
 12
1.0
 22
0.0
 32
0.0
 13
1.0
 23
0.0
 33
0.0
 40
0.0
 40
0.0
 40
0.0
 40
0.0
 40
1.0
 40
1.0
 40
1.0
 40
2.0
 40
2.0
 40
2.0
 40
3.0
 40
3.0
 40
3.0
 40
3.0
 10
129.0330760403931
 20
15.3006581277823
 30
0.0
 10
129.0084002724143
 20
14.5829519445324
 30
0.0
 10
131.9566560104522
 20
13.91004291617719
 30
0.0
 10
135.6186613006375
 20
13.79583832022035
 30
0.0
 10
139.2788397891236
 20
13.68164712856014
 30
0.0
 10
142.268219482954
 20
14.17094411989638
 30
0.0
 10
142.2928952509337
 20
14.88953498663614
 30
0.0
 10
142.2928952509337
 20
14.88953498663614
 30
0.0
 10
142.2928952509337
 20
14.90446737159982
 30
0.0
 10
142.2928952509337
 20
14.90446737159982
 30
0.0
  0
SPLINE
  5
1C0
330
1F
100
AcDbEntity
  8
Defpoints
 62
   179
420
  2301728
370
    18
100
AcDbSpline
210
0.0
220
0.0
230
1.0
 70
    11
 71
     3
 72
    17
 73
    13
 74
     0
 42
0.0000000001
 43
0.0000000001
 12
1.0
 22
0.0
 32
0.0
 13
1.0
 23
0.0
 33
0.0
 40
0.0
 40
0.0
 40
0.0
 40
0.0
 40
1.0
 40
1.0
 40
1.0
 40
2.0
 40
2.0
 40
2.0
 40
3.0
 40
3.0
 40
3.0
 40
4.0
 40
4.0
 40
4.0
 40
4.0
 10
152.9179629322034
 20
292.1548988077611
 30
0.0
 10
150.5477685185369
 20
292.5668932281023
 30
0.0
 10
148.1323922332076
 20
289.8814230905136
 30
0.0
 10
147.5236403412346
 20
286.1549753799245
 30
0.0
 10
146.9157470739456
 20
282.4302970363169
 30
0.0
 10
148.3421308266388
 20
279.0763278835257
 30
0.0
 10
150.7123252403026
 20
278.6660760215727
 30
0.0
 10
153.0808154140632
 20
278.2549662847196
 30
0.0
 10
155.4970503240784
 20
280.9404096137187
 30
0.0
 10
156.1057892065855
 20
284.6651147659177
 30
0.0
 10
156.7145410985604
 20
288.3915624765068
 30
0.0
 10
155.2864531059622
 20
291.7437622623183
 30
0.0
 10
152.9179629322034
 20
292.1548988077611
 30
0.0
  0
SPLINE
  5
1C1
330
1F
100
AcDbEntity
  8
Defpoints
 62
   179
420
  2301728
370
    18
100
AcDbSpline
210
0.0
220
0.0
230
1.0
 70
     8
 71
     3
 72
    14
 73
    10
 74
     0
 42
0.0000000001
 43
0.0000000001
 12
1.0
 22
0.0
 32
0.0
 13
1.0
 23
0.0
 33
0.0
 40
0.0
 40
0.0
 40
0.0
 40
0.0
 40
1.0
 40
1.0
 40
1.0
 40
2.0
 40
2.0
 40
2.0
 40
3.0
 40
3.0
 40
3.0
 40
3.0
 10
148.2530738045134
 20
292.728925067031
 30
0.0
 10
148.2402855004966
 20
292.5795744087991
 30
0.0
 10
148.7595062548944
 20
292.4530914783481
 30
0.0
 10
149.4100315387232
 20
292.4478101860004
 30
0.0
 10
150.0588525826488
 20
292.4434135771407
 30
0.0
 10
150.5976916101454
 20
292.5611300984656
 30
0.0
 10
150.6087756742563
 20
292.7104807566993
 30
0.0
 10
150.6087756742563
 20
292.7104807566993
 30
0.0
 10
150.6087756742563
 20
292.7148505569676
 30
0.0
 10
150.6087756742563
 20
292.7148505569676
 30
0.0
  0
SPLINE
  5
1C2
330
1F
100
AcDbEntity
  8
Defpoints
 62
   179
420
  2301728
370
    18
100
AcDbSpline
210
0.0
220
0.0
230
1.0
 70
    11
 71
     3
 72
    17
 73
    13
 74
     0
 42
0.0000000001
 43
0.0000000001
 12
1.0
 22
0.0
 32
0.0
 13
1.0
 23
0.0
 33
0.0
 40
0.0
 40
0.0
 40
0.0
 40
0.0
 40
1.0
 40
1.0
 40
1.0
 40
2.0
 40
2.0
 40
2.0
 40
3.0
 40
3.0
 40
3.0
 40
4.0
 40
4.0
 40
4.0
 40
4.0
 10
150.4242177637298
 20
304.5971016679941
 30
0.0
 10
150.4253826088816
 20
304.7273444833281
 30
0.0
 10
149.9127312719629
 20
304.838896743624
 30
0.0
 10
149.2789653846903
 20
304.8458748957419
 30
0.0
 10
148.6460141540229
 20
304.853752781326
 30
0.0
 10
148.131118743011
 20
304.7541059118703
 30
0.0
 10
148.130767214021
 20
304.624789605059
 30
0.0
 10
148.1304156850319
 20
304.4954732982496
 30
0.0
 10
148.6422224644302
 20
304.3838787568347
 30
0.0
 10
149.2760195930596
 20
304.3760163773113
 30
0.0
 10
149.9080391375464
 20
304.3698365893979
 30
0.0
 10
150.4238220001889
 20
304.4686689381087
 30
0.0
 10
150.4242177637298
 20
304.5971016679941
 30
0.0
  0
SPLINE
  5
1C3
330
1F
100
AcDbEntity
  8
Defpoints
 62
   179
420
  2301728
370
    18
100
AcDbSpline
210
0.0
220
0.0
230
1.0
 70
     8
 71
     3
 72
    11
 73
     7
 74
     0
 42
0.0000000001
 43
0.0000000001
 12
1.0
 22
0.0
 32
0.0
 13
1.0
 23
0.0
 33
0.0
 40
0.0
 40
0.0
 40
0.0
 40
0.0
 40
1.0
 40
1.0
 40
1.0
 40
2.0
 40
2.0
 40
2.0
 40
2.0
 10
126.4728870793742
 20
263.9385129185121
 30
0.0
 10
126.4728870793742
 20
263.4474465601943
 30
0.0
 10
129.371688576377
 20
263.0512692083066
 30
0.0
 10
132.9500004450483
 20
263.0512692083066
 30
0.0
 10
136.5266080738165
 20
263.0512692083066
 30
0.0
 10
139.4254095708166
 20
263.4474465601943
 30
0.0
 10
139.4254095708166
 20
263.9385129185121
 30
0.0
  0
SPLINE
  5
1C4
330
1F
100
AcDbEntity
  8
Defpoints
 62
   179
420
  2301728
370
    18
100
AcDbSpline
210
0.0
220
0.0
230
1.0
 70
     8
 71
     3
 72
     8
 73
     4
 74
     0
 42
0.0000000001
 43
0.0000000001
 12
1.0
 22
0.0
 32
0.0
 13
1.0
 23
0.0
 33
0.0
 40
0.0
 40
0.0
 40
0.0
 40
0.0
 40
1.0
 40
1.0
 40
1.0
 40
1.0
 10
143.0497619358403
 20
279.5892206635745
 30
0.0
 10
143.1776514807307
 20
279.5690069862612
 30
0.0
 10
143.3063931455727
 20
279.5593558936453
 30
0.0
 10
143.4342826904622
 20
279.5593558936453
 30
0.0
  0
SPLINE
  5
1C5
330
1F
100
AcDbEntity
  8
Defpoints
 62
   179
420
  2301728
370
    18
100
AcDbSpline
210
0.0
220
0.0
230
1.0
 70
     8
 71
     3
 72
    11
 73
     7
 74
     0
 42
0.0000000001
 43
0.0000000001
 12
1.0
 22
0.0
 32
0.0
 13
1.0
 23
0.0
 33
0.0
 40
0.0
 40
0.0
 40
0.0
 40
0.0
 40
1.0
 40
1.0
 40
1.0
 40
2.0
 40
2.0
 40
2.0
 40
2.0
 10
122.4768918699592
 20
294.7352855761346
 30
0.0
 10
119.9395908794049
 20
294.7352855761346
 30
0.0
 10
117.8839978511533
 20
291.7770446340255
 30
0.0
 10
117.8839978511533
 20
288.1295493943144
 30
0.0
 10
117.8839978511533
 20
284.7647955575503
 30
0.0
 10
118.9813495047229
 20
281.9996979297357
 30
0.0
 10
121.3063555419903
 20
281.625
 30
0.0
  0
SPLINE
  5
1C6
330
1F
100
AcDbEntity
  8
Defpoints
 62
   179
420
  2301728
370
    18
100
AcDbSpline
210
0.0
220
0.0
230
1.0
 70
     8
 71
     3
 72
    14
 73
    10
 74
     0
 42
0.0000000001
 43
0.0000000001
 12
1.0
 22
0.0
 32
0.0
 13
1.0
 23
0.0
 33
0.0
 40
0.0
 40
0.0
 40
0.0
 40
0.0
 40
1.0
 40
1.0
 40
1.0
 40
2.0
 40
2.0
 40
2.0
 40
3.0
 40
3.0
 40
3.0
 40
3.0
 10
129.2932480076443
 20
298.0299386452698
 30
0.0
 10
129.1704776872011
 20
297.8858692793838
 30
0.0
 10
130.7392370239713
 20
297.7417999134996
 30
0.0
 10
132.7965342921261
 20
297.7084232182024
 30
0.0
 10
134.8538315602827
 20
297.6767890812953
 30
0.0
 10
136.6195411864683
 20
297.769895316449
 30
0.0
 10
136.7431636268648
 20
297.9148493658231
 30
0.0
 10
136.7474307313578
 20
297.919245974681
 30
0.0
 10
136.7499870912143
 20
297.9253851419289
 30
0.0
 10
136.7499870912143
 20
297.9306664342766
 30
0.0
  0
SPLINE
  5
1C7
330
1F
100
AcDbEntity
  8
Defpoints
 62
   179
420
  2301728
370
    18
100
AcDbSpline
210
0.0
220
0.0
230
1.0
 70
     8
 71
     3
 72
    11
 73
     7
 74
     0
 42
0.0000000001
 43
0.0000000001
 12
1.0
 22
0.0
 32
0.0
 13
1.0
 23
0.0
 33
0.0
 40
0.0
 40
0.0
 40
0.0
 40
0.0
 40
1.0
 40
1.0
 40
1.0
 40
2.0
 40
2.0
 40
2.0
 40
2.0
 10
78.84132336758012
 20
328.1356920232865
 30
0.0
 10
78.8396126229436
 20
327.9441982606313
 30
0.0
 10
80.52518394522576
 20
327.769379441329
 30
0.0
 10
82.60208647701438
 20
327.7465385221376
 30
0.0
 10
84.6815518733938
 20
327.7228129194564
 30
0.0
 10
86.3688209308466
 20
327.8598584346037
 30
0.0
 10
86.37138379543558
 20
328.0522368807497
 30
0.0
  0
SPLINE
  5
1C8
330
1F
100
AcDbEntity
  8
Defpoints
 62
   179
420
  2301728
370
    18
100
AcDbSpline
210
0.0
220
0.0
230
1.0
 70
     8
 71
     3
 72
    11
 73
     7
 74
     0
 42
0.0000000001
 43
0.0000000001
 12
1.0
 22
0.0
 32
0.0
 13
1.0
 23
0.0
 33
0.0
 40
0.0
 40
0.0
 40
0.0
 40
0.0
 40
1.0
 40
1.0
 40
1.0
 40
2.0
 40
2.0
 40
2.0
 40
2.0
 10
145.6217826904622
 20
293.0249723330289
 30
0.0
 10
143.367535132892
 20
293.0249723330289
 30
0.0
 10
141.2438555419903
 20
290.0857470518094
 30
0.0
 10
141.2438555419903
 20
286.4374927639801
 30
0.0
 10
141.2438555419903
 20
285.5555241778493
 30
0.0
 10
141.2885571666648
 20
284.196149131958
 30
0.0
 10
141.5
 20
283.3826692587918
 30
0.0
  0
SPLINE
  5
1C9
330
1F
100
AcDbEntity
  8
Defpoints
 62
   179
420
  2301728
370
    18
100
AcDbSpline
210
0.0
220
0.0
230
1.0
 70
     8
 71
     3
 72
    14
 73
    10
 74
     0
 42
0.0000000001
 43
0.0000000001
 12
1.0
 22
0.0
 32
0.0
 13
1.0
 23
0.0
 33
0.0
 40
0.0
 40
0.0
 40
0.0
 40
0.0
 40
1.0
 40
1.0
 40
1.0
 40
2.0
 40
2.0
 40
2.0
 40
3.0
 40
3.0
 40
3.0
 40
3.0
 10
143.4342826904622
 20
292.7749723330289
 30
0.0
 10
141.1970905414018
 20
292.9585575614583
 30
0.0
 10
139.1542858171651
 20
290.1501164187866
 30
0.0
 10
138.872077999401
 20
286.5000999999993
 30
0.0
 10
138.5898701816377
 20
282.8509414561104
 30
0.0
 10
140.1739806870128
 20
279.7438258055645
 30
0.0
 10
142.4103207161224
 20
279.5593558936453
 30
0.0
 10
142.6217635494577
 20
279.541769458212
 30
0.0
 10
142.8374669825535
 20
279.5523320429074
 30
0.0
 10
143.0497619358403
 20
279.5883359800846
 30
0.0
  0
SPLINE
  5
1CA
330
1F
100
AcDbEntity
  8
Defpoints
 62
   179
420
  2301728
370
    18
100
AcDbSpline
210
0.0
220
0.0
230
1.0
 70
     8
 71
     3
 72
     8
 73
     4
 74
     0
 42
0.0000000001
 43
0.0000000001
 12
1.0
 22
0.0
 32
0.0
 13
1.0
 23
0.0
 33
0.0
 40
0.0
 40
0.0
 40
0.0
 40
0.0
 40
1.0
 40
1.0
 40
1.0
 40
1.0
 10
144.1188555419903
 20
292.75
 30
0.0
 10
143.9866988926069
 20
292.9028357750103
 30
0.0
 10
143.1196748003167
 20
293.0217990266829
 30
0.0
 10
142.9227245109014
 20
293.0402433370164
 30
0.0
  0
INSERT
  5
1CC
330
1F
100
AcDbEntity
  8
Defpoints
100
AcDbBlockReference
  2
block 22
 10
0.0
 20
0.0
 30
0.0
  0
INSERT
  5
1D4
330
1F
100
AcDbEntity
  8
Defpoints
100
AcDbBlockReference
  2
block 23
 10
0.0
 20
0.0
 30
0.0
  0
INSERT
  5
1DC
330
1F
100
AcDbEntity
  8
Defpoints
100
AcDbBlockReference
  2
block 24
 10
0.0
 20
0.0
 30
0.0
  0
INSERT
  5
1E4
330
1F
100
AcDbEntity
  8
Defpoints
100
AcDbBlockReference
  2
block 25
 10
0.0
 20
0.0
 30
0.0
  0
INSERT
  5
1E9
330
1F
100
AcDbEntity
  8
Defpoints
100
AcDbBlockReference
  2
block 26
 10
0.0
 20
0.0
 30
0.0
  0
INSERT
  5
1F1
330
1F
100
AcDbEntity
  8
Defpoints
100
AcDbBlockReference
  2
block 27
 10
0.0
 20
0.0
 30
0.0
  0
POLYLINE
  5
1F8
330
1F
100
AcDbEntity
  8
Defpoints
 62
     7
420
 16777215
370
    18
100
AcDb2dPolyline
 66
     1
 10
0.0
 20
0.0
 30
0.0
  0
VERTEX
  5
1F9
330
1F8
100
AcDbEntity
  8
Defpoints
 62
     7
420
 16777215
370
    18
100
AcDbVertex
100
AcDb2dVertex
 10
81.5
 20
359.5
 30
0.0
  0
VERTEX
  5
1FA
330
1F8
100
AcDbEntity
  8
Defpoints
 62
     7
420
 16777215
370
    18
100
AcDbVertex
100
AcDb2dVertex
 10
24.5
 20
359.5
 30
0.0
  0
SEQEND
  5
1FB
330
1F8
100
AcDbEntity
  8
Defpoints
 62
     7
420
 16777215
370
    18
  0
POLYLINE
  5
1FC
330
1F
100
AcDbEntity
  8
Defpoints
 62
     7
420
 16777215
370
    18
100
AcDb2dPolyline
 66
     1
 10
0.0
 20
0.0
 30
0.0
  0
VERTEX
  5
1FD
330
1FC
100
AcDbEntity
  8
Defpoints
 62
     7
420
 16777215
370
    18
100
AcDbVertex
100
AcDb2dVertex
 10
116.595703125
 20
7.5
 30
0.0
  0
VERTEX
  5
1FE
330
1FC
100
AcDbEntity
  8
Defpoints
 62
     7
420
 16777215
370
    18
100
AcDbVertex
100
AcDb2dVertex
 10
24.5
 20
7.5
 30
0.0
  0
SEQEND
  5
1FF
330
1FC
100
AcDbEntity
  8
Defpoints
 62
     7
420
 16777215
370
    18
  0
POLYLINE
  5
200
330
1F
100
AcDbEntity
  8
Defpoints
 62
     7
420
 16777215
370
    18
100
AcDb2dPolyline
 66
     1
 10
0.0
 20
0.0
 30
0.0
  0
VERTEX
  5
201
330
200
100
AcDbEntity
  8
Defpoints
 62
     7
420
 16777215
370
    18
100
AcDbVertex
100
AcDb2dVertex
 10
115.5
 20
281.5
 30
0.0
  0
VERTEX
  5
202
330
200
100
AcDbEntity
  8
Defpoints
 62
     7
420
 16777215
370
    18
100
AcDbVertex
100
AcDb2dVertex
 10
53.5
 20
281.5
 30
0.0
  0
SEQEND
  5
203
330
200
100
AcDbEntity
  8
Defpoints
 62
     7
420
 16777215
370
    18
  0
POLYLINE
  5
204
330
1F
100
AcDbEntity
  8
Defpoints
 62
     7
420
 16777215
370
    18
100
AcDb2dPolyline
 66
     1
 10
0.0
 20
0.0
 30
0.0
  0
VERTEX
  5
205
330
204
100
AcDbEntity
  8
Defpoints
 62
     7
420
 16777215
370
    18
100
AcDbVertex
100
AcDb2dVertex
 10
75.640625
 20
321.8745865437995
 30
0.0
  0
VERTEX
  5
206
330
204
100
AcDbEntity
  8
Defpoints
 62
     7
420
 16777215
370
    18
100
AcDbVertex
100
AcDb2dVertex
 10
53.5
 20
321.8745865437995
 30
0.0
  0
SEQEND
  5
207
330
204
100
AcDbEntity
  8
Defpoints
 62
     7
420
 16777215
370
    18
  0
ENDSEC
  0
SECTION
  2
OBJECTS
  0
DICTIONARY
  5
C
330
0
100
AcDbDictionary
281
     1
  3
ACAD_GROUP
350
D
  3
ACAD_LAYOUT
350
1A
  3
ACAD_MATERIAL
350
3B
  3
ACAD_MLEADERSTYLE
350
209
  3
ACAD_MLINESTYLE
350
17
  3
ACAD_PLOTSETTINGS
350
19
  3
ACAD_PLOTSTYLENAME
350
E
  3
ACAD_TABLESTYLE
350
208
  3
ACAD_VISUALSTYLE
350
2A
  0
SUN
  5
3F
330
29
100
AcDbSun
 90
        1
290
     0
 63
     7
421
 16777215
 40
1.0
291
     1
 91
  2455826
 92
 54000000
292
     0
 70
     2
 71
   256
280
     1
  0
DICTIONARY
  5
D
102
{ACAD_REACTORS
330
C
102
}
330
C
100
AcDbDictionary
281
     1
  0
DICTIONARY
  5
1A
102
{ACAD_REACTORS
330
C
102
}
330
C
100
AcDbDictionary
281
     1
  3
Layout1
350
1E
  3
Layout2
350
26
  3
Model
350
22
  0
DICTIONARY
  5
3B
102
{ACAD_REACTORS
330
C
102
}
330
C
100
AcDbDictionary
281
     1
  3
ByBlock
350
3D
  3
ByLayer
350
3C
  3
Global
350
3E
  0
DICTIONARY
  5
209
102
{ACAD_REACTORS
330
C
102
}
330
C
100
AcDbDictionary
281
     1
  0
DICTIONARY
  5
17
102
{ACAD_REACTORS
330
C
102
}
330
C
100
AcDbDictionary
281
     1
  3
Standard
350
18
  0
DICTIONARY
  5
19
102
{ACAD_REACTORS
330
C
102
}
330
C
100
AcDbDictionary
281
     1
  0
ACDBDICTIONARYWDFLT
  5
E
102
{ACAD_REACTORS
330
C
102
}
330
C
100
AcDbDictionary
281
     1
  3
Normal
350
F
100
AcDbDictionaryWithDefault
340
F
  0
DICTIONARY
  5
208
102
{ACAD_REACTORS
330
C
102
}
330
C
100
AcDbDictionary
281
     1
  0
DICTIONARY
  5
2A
102
{ACAD_REACTORS
330
C
102
}
330
C
100
AcDbDictionary
281
     1
  3
2dWireframe
350
2F
  3
3D Hidden
350
31
  3
3dWireframe
350
30
  3
Basic
350
32
  3
Brighten
350
36
  3
ColorChange
350
3A
  3
Conceptual
350
34
  3
Dim
350
35
  3
Facepattern
350
39
  3
Flat
350
2B
  3
FlatWithEdges
350
2C
  3
Gouraud
350
2D
  3
GouraudWithEdges
350
2E
  3
Linepattern
350
38
  3
Realistic
350
33
  3
Thicken
350
37
  0
LAYOUT
  5
1E
102
{ACAD_REACTORS
330
1A
102
}
330
1A
100
AcDbPlotSettings
  1

  2
none_device
  4

  6

 40
0.0
 41
0.0
 42
0.0
 43
0.0
 44
0.0
 45
0.0
 46
0.0
 47
0.0
 48
0.0
 49
0.0
140
0.0
141
0.0
142
1.0
143
1.0
 70
   688
 72
     0
 73
     0
 74
     5
  7

 75
    16
 76
     0
 77
     2
 78
   300
147
1.0
148
0.0
149
0.0
100
AcDbLayout
  1
Layout1
 70
     1
 71
     1
 10
0.0
 20
0.0
 11
12.0
 21
9.0
 12
0.0
 22
0.0
 32
0.0
 14
1.000000000000000E+20
 24
1.000000000000000E+20
 34
1.000000000000000E+20
 15
-1.000000000000000E+20
 25
-1.000000000000000E+20
 35
-1.000000000000000E+20
146
0.0
 13
0.0
 23
0.0
 33
0.0
 16
1.0
 26
0.0
 36
0.0
 17
0.0
 27
1.0
 37
0.0
 76
     0
330
1B
  0
LAYOUT
  5
26
102
{ACAD_REACTORS
330
1A
102
}
330
1A
100
AcDbPlotSettings
  1

  2
none_device
  4

  6

 40
0.0
 41
0.0
 42
0.0
 43
0.0
 44
0.0
 45
0.0
 46
0.0
 47
0.0
 48
0.0
 49
0.0
140
0.0
141
0.0
142
1.0
143
1.0
 70
   688
 72
     0
 73
     0
 74
     5
  7

 75
    16
 76
     0
 77
     2
 78
   300
147
1.0
148
0.0
149
0.0
100
AcDbLayout
  1
Layout2
 70
     1
 71
     2
 10
0.0
 20
0.0
 11
0.0
 21
0.0
 12
0.0
 22
0.0
 32
0.0
 14
0.0
 24
0.0
 34
0.0
 15
0.0
 25
0.0
 35
0.0
146
0.0
 13
0.0
 23
0.0
 33
0.0
 16
1.0
 26
0.0
 36
0.0
 17
0.0
 27
1.0
 37
0.0
 76
     0
330
23
  0
LAYOUT
  5
22
102
{ACAD_REACTORS
330
1A
102
}
330
1A
100
AcDbPlotSettings
  1

  2
none_device
  4

  6

 40
0.0
 41
0.0
 42
0.0
 43
0.0
 44
0.0
 45
0.0
 46
0.0
 47
0.0
 48
0.0
 49
0.0
140
0.0
141
0.0
142
1.0
143
1.0
 70
  1712
 72
     0
 73
     0
 74
     0
  7

 75
     0
 76
     0
 77
     2
 78
   300
147
1.0
148
0.0
149
0.0
100
AcDbLayout
  1
Model
 70
     1
 71
     0
 10
0.0
 20
0.0
 11
12.0
 21
9.0
 12
0.0
 22
0.0
 32
0.0
 14
1.000000000000000E+20
 24
1.000000000000000E+20
 34
1.000000000000000E+20
 15
-1.000000000000000E+20
 25
-1.000000000000000E+20
 35
-1.000000000000000E+20
146
0.0
 13
0.0
 23
0.0
 33
0.0
 16
1.0
 26
0.0
 36
0.0
 17
0.0
 27
1.0
 37
0.0
 76
     0
330
1F
331
29
  0
MATERIAL
  5
3D
102
{ACAD_REACTORS
330
3B
102
}
330
3B
100
AcDbMaterial
  1
ByBlock
 72
     1
 94
      127
  0
MATERIAL
  5
3C
102
{ACAD_REACTORS
330
3B
102
}
330
3B
100
AcDbMaterial
  1
ByLayer
 72
     1
 94
      127
  0
MATERIAL
  5
3E
102
{ACAD_REACTORS
330
3B
102
}
330
3B
100
AcDbMaterial
  1
Global
 72
     1
 94
      127
  0
MLINESTYLE
  5
18
102
{ACAD_REACTORS
330
17
102
}
330
17
100
AcDbMlineStyle
  2
Standard
 70
     0
  3

 62
   256
 51
90.0
 52
90.0
 71
     2
 49
0.5
 62
   256
  6
BYLAYER
 49
-0.5
 62
   256
  6
BYLAYER
  0
ACDBPLACEHOLDER
  5
F
102
{ACAD_REACTORS
330
E
102
}
330
E
  0
VISUALSTYLE
  5
2F
102
{ACAD_REACTORS
330
2A
102
}
330
2A
100
AcDbVisualStyle
  2
2dWireframe
 70
     4
177
     2
291
     0
 71
     0
176
     1
 72
     2
176
     1
 73
     0
176
     1
 90
        0
176
     1
 40
-0.6
176
     1
 41
-30.0
176
     1
 62
     5
 63
     7
421
 16777215
176
     1
 74
     1
176
     1
 91
        4
176
     1
 64
     7
176
     1
 65
   257
176
     1
 75
     1
176
     1
175
     1
176
     1
 42
1.0
176
     1
 92
        0
176
     1
 66
   257
176
     1
 43
1.0
176
     1
 76
     1
176
     1
 77
     6
176
     1
 78
     2
176
     1
 67
     7
176
     1
 79
     5
176
     1
170
     0
176
     1
171
     0
176
     1
290
     0
176
     1
 93
        1
176
     1
 44
0.0
176
     1
173
     0
176
     1
  0
VISUALSTYLE
  5
31
102
{ACAD_REACTORS
330
2A
102
}
330
2A
100
AcDbVisualStyle
  2
3D Hidden
 70
     6
177
     2
291
     0
 71
     1
176
     1
 72
     2
176
     1
 73
     2
176
     1
 90
        0
176
     1
 40
-0.6
176
     1
 41
-30.0
176
     1
 62
     5
 63
     7
421
 16777215
176
     1
 74
     2
176
     1
 91
        2
176
     1
 64
     7
176
     1
 65
   257
176
     1
 75
     2
176
     1
175
     1
176
     1
 42
40.0
176
     1
 92
        0
176
     1
 66
   257
176
     1
 43
1.0
176
     1
 76
     1
176
     1
 77
     6
176
     1
 78
     2
176
     1
 67
     7
176
     1
 79
     3
176
     1
170
     0
176
     1
171
     0
176
     1
290
     0
176
     1
 93
        1
176
     1
 44
0.0
176
     1
173
     0
176
     1
  0
VISUALSTYLE
  5
30
102
{ACAD_REACTORS
330
2A
102
}
330
2A
100
AcDbVisualStyle
  2
3dWireframe
 70
     5
177
     2
291
     0
 71
     0
176
     1
 72
     2
176
     1
 73
     0
176
     1
 90
        0
176
     1
 40
-0.6
176
     1
 41
-30.0
176
     1
 62
     5
 63
     7
421
 16777215
176
     1
 74
     1
176
     1
 91
        4
176
     1
 64
     7
176
     1
 65
   257
176
     1
 75
     1
176
     1
175
     1
176
     1
 42
1.0
176
     1
 92
        0
176
     1
 66
   257
176
     1
 43
1.0
176
     1
 76
     1
176
     1
 77
     6
176
     1
 78
     2
176
     1
 67
     7
176
     1
 79
     5
176
     1
170
     0
176
     1
171
     0
176
     1
290
     0
176
     1
 93
        1
176
     1
 44
0.0
176
     1
173
     0
176
     1
  0
VISUALSTYLE
  5
32
102
{ACAD_REACTORS
330
2A
102
}
330
2A
100
AcDbVisualStyle
  2
Basic
 70
     7
177
     2
291
     1
 71
     1
176
     1
 72
     0
176
     1
 73
     1
176
     1
 90
        0
176
     1
 40
-0.6
176
     1
 41
-30.0
176
     1
 62
     5
 63
     7
421
 16777215
176
     1
 74
     0
176
     1
 91
        4
176
     1
 64
     7
176
     1
 65
   257
176
     1
 75
     1
176
     1
175
     1
176
     1
 42
1.0
176
     1
 92
        8
176
     1
 66
     7
176
     1
 43
1.0
176
     1
 76
     1
176
     1
 77
     6
176
     1
 78
     2
176
     1
 67
     7
176
     1
 79
     5
176
     1
170
     0
176
     1
171
     0
176
     1
290
     0
176
     1
 93
        1
176
     1
 44
0.0
176
     1
173
     0
176
     1
  0
VISUALSTYLE
  5
36
102
{ACAD_REACTORS
330
2A
102
}
330
2A
100
AcDbVisualStyle
  2
Brighten
 70
    12
177
     2
291
     1
 71
     2
176
     1
 72
     2
176
     1
 73
     0
176
     1
 90
        0
176
     1
 40
-0.6
176
     1
 41
-30.0
176
     1
 62
     5
 63
     7
421
 16777215
176
     1
 74
     1
176
     1
 91
        4
176
     1
 64
     7
176
     1
 65
   257
176
     1
 75
     1
176
     1
175
     1
176
     1
 42
1.0
176
     1
 92
        8
176
     1
 66
     7
176
     1
 43
1.0
176
     1
 76
     1
176
     1
 77
     6
176
     1
 78
     2
176
     1
 67
     7
176
     1
 79
     5
176
     1
170
     0
176
     1
171
     0
176
     1
290
     0
176
     1
 93
        1
176
     1
 44
50.0
176
     1
173
     0
176
     1
  0
VISUALSTYLE
  5
3A
102
{ACAD_REACTORS
330
2A
102
}
330
2A
100
AcDbVisualStyle
  2
ColorChange
 70
    16
177
     2
291
     1
 71
     2
176
     1
 72
     2
176
     1
 73
     3
176
     1
 90
        0
176
     1
 40
-0.6
176
     1
 41
-30.0
176
     1
 62
     5
 63
     8
421
  8421504
176
     1
 74
     1
176
     1
 91
        4
176
     1
 64
     7
176
     1
 65
   257
176
     1
 75
     1
176
     1
175
     1
176
     1
 42
1.0
176
     1
 92
        8
176
     1
 66
     8
424
  8421504
176
     1
 43
1.0
176
     1
 76
     1
176
     1
 77
     6
176
     1
 78
     2
176
     1
 67
     7
176
     1
 79
     5
176
     1
170
     0
176
     1
171
     0
176
     1
290
     0
176
     1
 93
        1
176
     1
 44
0.0
176
     1
173
     0
176
     1
  0
VISUALSTYLE
  5
34
102
{ACAD_REACTORS
330
2A
102
}
330
2A
100
AcDbVisualStyle
  2
Conceptual
 70
     9
177
     2
291
     0
 71
     3
176
     1
 72
     2
176
     1
 73
     0
176
     1
 90
        0
176
     1
 40
-0.6
176
     1
 41
-30.0
176
     1
 62
     5
 63
     7
421
 16777215
176
     1
 74
     2
176
     1
 91
        2
176
     1
 64
     7
176
     1
 65
   257
176
     1
 75
     1
176
     1
175
     1
176
     1
 42
40.0
176
     1
 92
        8
176
     1
 66
     7
176
     1
 43
1.0
176
     1
 76
     1
176
     1
 77
     6
176
     1
 78
     2
176
     1
 67
     7
176
     1
 79
     3
176
     1
170
     0
176
     1
171
     0
176
     1
290
     0
176
     1
 93
        1
176
     1
 44
0.0
176
     1
173
     0
176
     1
  0
VISUALSTYLE
  5
35
102
{ACAD_REACTORS
330
2A
102
}
330
2A
100
AcDbVisualStyle
  2
Dim
 70
    11
177
     2
291
     1
 71
     2
176
     1
 72
     2
176
     1
 73
     0
176
     1
 90
        0
176
     1
 40
-0.6
176
     1
 41
-30.0
176
     1
 62
     5
 63
     7
421
 16777215
176
     1
 74
     1
176
     1
 91
        4
176
     1
 64
     7
176
     1
 65
   257
176
     1
 75
     1
176
     1
175
     1
176
     1
 42
1.0
176
     1
 92
        8
176
     1
 66
     7
176
     1
 43
1.0
176
     1
 76
     1
176
     1
 77
     6
176
     1
 78
     2
176
     1
 67
     7
176
     1
 79
     5
176
     1
170
     0
176
     1
171
     0
176
     1
290
     0
176
     1
 93
        1
176
     1
 44
-50.0
176
     1
173
     0
176
     1
  0
VISUALSTYLE
  5
39
102
{ACAD_REACTORS
330
2A
102
}
330
2A
100
AcDbVisualStyle
  2
Facepattern
 70
    15
177
     2
291
     1
 71
     2
176
     1
 72
     2
176
     1
 73
     0
176
     1
 90
        0
176
     1
 40
-0.6
176
     1
 41
-30.0
176
     1
 62
     5
 63
     7
421
 16777215
176
     1
 74
     1
176
     1
 91
        4
176
     1
 64
     7
176
     1
 65
   257
176
     1
 75
     1
176
     1
175
     1
176
     1
 42
1.0
176
     1
 92
        8
176
     1
 66
     7
176
     1
 43
1.0
176
     1
 76
     1
176
     1
 77
     6
176
     1
 78
     2
176
     1
 67
     7
176
     1
 79
     5
176
     1
170
     0
176
     1
171
     0
176
     1
290
     0
176
     1
 93
        1
176
     1
 44
0.0
176
     1
173
     0
176
     1
  0
VISUALSTYLE
  5
2B
102
{ACAD_REACTORS
330
2A
102
}
330
2A
100
AcDbVisualStyle
  2
Flat
 70
     0
177
     2
291
     1
 71
     2
176
     1
 72
     1
176
     1
 73
     1
176
     1
 90
        2
176
     1
 40
-0.6
176
     1
 41
30.0
176
     1
 62
     5
 63
     7
421
 16777215
176
     1
 74
     0
176
     1
 91
        4
176
     1
 64
     7
176
     1
 65
   257
176
     1
 75
     1
176
     1
175
     1
176
     1
 42
1.0
176
     1
 92
        8
176
     1
 66
     7
176
     1
 43
1.0
176
     1
 76
     1
176
     1
 77
     6
176
     1
 78
     2
176
     1
 67
     7
176
     1
 79
     5
176
     1
170
     0
176
     1
171
     0
176
     1
290
     0
176
     1
 93
       13
176
     1
 44
0.0
176
     1
173
     0
176
     1
  0
VISUALSTYLE
  5
2C
102
{ACAD_REACTORS
330
2A
102
}
330
2A
100
AcDbVisualStyle
  2
FlatWithEdges
 70
     1
177
     2
291
     1
 71
     2
176
     1
 72
     1
176
     1
 73
     1
176
     1
 90
        2
176
     1
 40
-0.6
176
     1
 41
30.0
176
     1
 62
     5
 63
     7
421
 16777215
176
     1
 74
     1
176
     1
 91
        4
176
     1
 64
     7
176
     1
 65
   257
176
     1
 75
     1
176
     1
175
     1
176
     1
 42
1.0
176
     1
 92
        0
176
     1
 66
   257
176
     1
 43
1.0
176
     1
 76
     1
176
     1
 77
     6
176
     1
 78
     2
176
     1
 67
     7
176
     1
 79
     5
176
     1
170
     0
176
     1
171
     0
176
     1
290
     0
176
     1
 93
       13
176
     1
 44
0.0
176
     1
173
     0
176
     1
  0
VISUALSTYLE
  5
2D
102
{ACAD_REACTORS
330
2A
102
}
330
2A
100
AcDbVisualStyle
  2
Gouraud
 70
     2
177
     2
291
     1
 71
     2
176
     1
 72
     2
176
     1
 73
     1
176
     1
 90
        2
176
     1
 40
-0.6
176
     1
 41
30.0
176
     1
 62
     5
 63
     7
421
 16777215
176
     1
 74
     0
176
     1
 91
        4
176
     1
 64
     7
176
     1
 65
   257
176
     1
 75
     1
176
     1
175
     1
176
     1
 42
1.0
176
     1
 92
        0
176
     1
 66
     7
176
     1
 43
1.0
176
     1
 76
     1
176
     1
 77
     6
176
     1
 78
     2
176
     1
 67
     7
176
     1
 79
     5
176
     1
170
     0
176
     1
171
     0
176
     1
290
     0
176
     1
 93
       13
176
     1
 44
0.0
176
     1
173
     0
176
     1
  0
VISUALSTYLE
  5
2E
102
{ACAD_REACTORS
330
2A
102
}
330
2A
100
AcDbVisualStyle
  2
GouraudWithEdges
 70
     3
177
     2
291
     1
 71
     2
176
     1
 72
     2
176
     1
 73
     1
176
     1
 90
        2
176
     1
 40
-0.6
176
     1
 41
30.0
176
     1
 62
     5
 63
     7
421
 16777215
176
     1
 74
     1
176
     1
 91
        4
176
     1
 64
     7
176
     1
 65
   257
176
     1
 75
     1
176
     1
175
     1
176
     1
 42
1.0
176
     1
 92
        0
176
     1
 66
   257
176
     1
 43
1.0
176
     1
 76
     1
176
     1
 77
     6
176
     1
 78
     2
176
     1
 67
     7
176
     1
 79
     5
176
     1
170
     0
176
     1
171
     0
176
     1
290
     0
176
     1
 93
       13
176
     1
 44
0.0
176
     1
173
     0
176
     1
  0
VISUALSTYLE
  5
38
102
{ACAD_REACTORS
330
2A
102
}
330
2A
100
AcDbVisualStyle
  2
Linepattern
 70
    14
177
     2
291
     1
 71
     2
176
     1
 72
     2
176
     1
 73
     0
176
     1
 90
        0
176
     1
 40
-0.6
176
     1
 41
-30.0
176
     1
 62
     5
 63
     7
421
 16777215
176
     1
 74
     1
176
     1
 91
        4
176
     1
 64
     7
176
     1
 65
   257
176
     1
 75
     7
176
     1
175
     7
176
     1
 42
1.0
176
     1
 92
        8
176
     1
 66
     7
176
     1
 43
1.0
176
     1
 76
     1
176
     1
 77
     6
176
     1
 78
     2
176
     1
 67
     7
176
     1
 79
     5
176
     1
170
     0
176
     1
171
     0
176
     1
290
     0
176
     1
 93
        1
176
     1
 44
0.0
176
     1
173
     0
176
     1
  0
VISUALSTYLE
  5
33
102
{ACAD_REACTORS
330
2A
102
}
330
2A
100
AcDbVisualStyle
  2
Realistic
 70
     8
177
     2
291
     0
 71
     2
176
     1
 72
     2
176
     1
 73
     0
176
     1
 90
        0
176
     1
 40
-0.6
176
     1
 41
-30.0
176
     1
 62
     5
 63
     7
421
 16777215
176
     1
 74
     1
176
     1
 91
        0
176
     1
 64
     7
176
     1
 65
   257
176
     1
 75
     1
176
     1
175
     1
176
     1
 42
1.0
176
     1
 92
        8
176
     1
 66
     8
424
  7895160
176
     1
 43
1.0
176
     1
 76
     1
176
     1
 77
     6
176
     1
 78
     2
176
     1
 67
     7
176
     1
 79
     5
176
     1
170
     0
176
     1
171
     0
176
     1
290
     0
176
     1
 93
       13
176
     1
 44
0.0
176
     1
173
     0
176
     1
  0
VISUALSTYLE
  5
37
102
{ACAD_REACTORS
330
2A
102
}
330
2A
100
AcDbVisualStyle
  2
Thicken
 70
    13
177
     2
291
     1
 71
     2
176
     1
 72
     2
176
     1
 73
     0
176
     1
 90
        0
176
     1
 40
-0.6
176
     1
 41
-30.0
176
     1
 62
     5
 63
     7
421
 16777215
176
     1
 74
     1
176
     1
 91
        4
176
     1
 64
     7
176
     1
 65
   257
176
     1
 75
     1
176
     1
175
     1
176
     1
 42
1.0
176
     1
 92
       12
176
     1
 66
     7
176
     1
 43
1.0
176
     1
 76
     1
176
     1
 77
     6
176
     1
 78
     2
176
     1
 67
     7
176
     1
 79
     5
176
     1
170
     0
176
     1
171
     0
176
     1
290
     0
176
     1
 93
        1
176
     1
 44
0.0
176
     1
173
     0
176
     1
  0
ENDSEC
  0
EOF
