  0
SECTION
  2
HEADER
  9
$ACADVER
  1
AC1015
  9
$ACADMAINTVER
 70
     6
  9
$DWGCODEPAGE
  3
ANSI_932
  9
$INSBASE
 10
0.0
 20
0.0
 30
0.0
  9
$EXTMIN
 10
0.0
 20
0.0
 30
1.000000E+20
  9
$EXTMAX
 10
210.440902
 20
297.000132
 30
-1.000000E+20
  9
$LIMMIN
 10
0.0
 20
0.0
  9
$LIMMAX
 10
210.440902
 20
297.000132
  9
$ORTHOMODE
 70
     0
  9
$REGENMODE
 70
     1
  9
$FILLMODE
 70
     1
  9
$QTEXTMODE
 70
     0
  9
$MIRRTEXT
 70
     1
  9
$LTSCALE
 40
1.0
  9
$ATTMODE
 70
     1
  9
$TEXTSIZE
 40
0.2
  9
$TRACEWID
 40
0.05
  9
$TEXTSTYLE
  7
Standard
  9
$CLAYER
  8
0
  9
$CELTYPE
  6
Continuous
  9
$CECOLOR
 62
   256
  9
$CELTSCALE
 40
1.0
  9
$DISPSILH
 70
     0
  9
$DIMSCALE
 40
1.0
  9
$DIMASZ
 40
0.18
  9
$DIMEXO
 40
0.0625
  9
$DIMDLI
 40
0.38
  9
$DIMRND
 40
0.0
  9
$DIMDLE
 40
0.0
  9
$DIMEXE
 40
0.18
  9
$DIMTP
 40
0.0
  9
$DIMTM
 40
0.0
  9
$DIMTXT
 40
0.18
  9
$DIMCEN
 40
0.09
  9
$DIMTSZ
 40
0.0
  9
$DIMTOL
 70
     0
  9
$DIMLIM
 70
     0
  9
$DIMTIH
 70
     1
  9
$DIMTOH
 70
     1
  9
$DIMSE1
 70
     0
  9
$DIMSE2
 70
     0
  9
$DIMTAD
 70
     0
  9
$DIMZIN
 70
     0
  9
$DIMBLK
  1

  9
$DIMASO
 70
     1
  9
$DIMSHO
 70
     1
  9
$DIMPOST
  1

  9
$DIMAPOST
  1

  9
$DIMALT
 70
     0
  9
$DIMALTD
 70
     2
  9
$DIMALTF
 40
25.4
  9
$DIMLFAC
 40
1.0
  9
$DIMTOFL
 70
     0
  9
$DIMTVP
 40
0.0
  9
$DIMTIX
 70
     0
  9
$DIMSOXD
 70
     0
  9
$DIMSAH
 70
     0
  9
$DIMBLK1
  1

  9
$DIMBLK2
  1

  9
$DIMSTYLE
  2
Standard
  9
$DIMCLRD
 70
     0
  9
$DIMCLRE
 70
     0
  9
$DIMCLRT
 70
     0
  9
$DIMTFAC
 40
1.0
  9
$DIMGAP
 40
0.09
  9
$DIMJUST
 70
     0
  9
$DIMSD1
 70
     0
  9
$DIMSD2
 70
     0
  9
$DIMTOLJ
 70
     1
  9
$DIMTZIN
 70
     0
  9
$DIMALTZ
 70
     0
  9
$DIMALTTZ
 70
     0
  9
$DIMUPT
 70
     0
  9
$DIMDEC
 70
     4
  9
$DIMTDEC
 70
     4
  9
$DIMALTU
 70
     2
  9
$DIMALTTD
 70
     2
  9
$DIMTXSTY
  7
Standard
  9
$DIMAUNIT
 70
     0
  9
$DIMADEC
 70
     0
  9
$DIMALTRND
 40
0.0
  9
$DIMAZIN
 70
     0
  9
$DIMDSEP
 70
     0
  9
$DIMATFIT
 70
     3
  9
$DIMFRAC
 70
     0
  9
$DIMLDRBLK
  1

  9
$DIMLUNIT
 70
     2
  9
$DIMLWD
 70
     0
  9
$DIMLWE
 70
     0
  9
$DIMTMOVE
 70
     0
  9
$LUNITS
 70
     2
  9
$LUPREC
 70
     4
  9
$SKETCHINC
 40
0.1
  9
$FILLETRAD
 40
0.0
  9
$AUNITS
 70
     0
  9
$AUPREC
 70
     0
  9
$MENU
  1
acad
  9
$ELEVATION
 40
0.0
  9
$PELEVATION
 40
0.0
  9
$THICKNESS
 40
0.0
  9
$LIMCHECK
 70
     0
  9
$CHAMFERA
 40
0.0
  9
$CHAMFERB
 40
0.0
  9
$CHAMFERC
 40
0.0
  9
$CHAMFERD
 40
0.0
  9
$SKPOLY
 70
     0
  9
$TDCREATE
 40
0.000000000
  9
$TDUCREATE
 40
0.000000000
  9
$TDUPDATE
 40
0.000000000
  9
$TDUUPDATE
 40
0.000000000
  9
$TDINDWG
 40
0.0000000000
  9
$TDUSRTIMER
 40
0.0000000000
  9
$USRTIMER
 70
     1
  9
$ANGBASE
 50
0.0
  9
$ANGDIR
 70
     0
  9
$PDMODE
 70
     0
  9
$PDSIZE
 40
0.0
  9
$PLINEWID
 40
0.0
  9
$SPLFRAME
 70
     0
  9
$SPLINETYPE
 70
     6
  9
$SPLINESEGS
 70
     8
  9
$HANDSEED
  5
620
  9
$SURFTAB1
 70
     6
  9
$SURFTAB2
 70
     6
  9
$SURFTYPE
 70
     6
  9
$SURFU
 70
     6
  9
$SURFV
 70
     6
  9
$UCSBASE
  2

  9
$UCSNAME
  2

  9
$UCSORG
 10
0.0
 20
0.0
 30
0.0
  9
$UCSXDIR
 10
1.0
 20
0.0
 30
0.0
  9
$UCSYDIR
 10
0.0
 20
1.0
 30
0.0
  9
$UCSORTHOREF
  2

  9
$UCSORTHOVIEW
 70
     0
  9
$UCSORGTOP
 10
0.0
 20
0.0
 30
0.0
  9
$UCSORGBOTTOM
 10
0.0
 20
0.0
 30
0.0
  9
$UCSORGLEFT
 10
0.0
 20
0.0
 30
0.0
  9
$UCSORGRIGHT
 10
0.0
 20
0.0
 30
0.0
  9
$UCSORGFRONT
 10
0.0
 20
0.0
 30
0.0
  9
$UCSORGBACK
 10
0.0
 20
0.0
 30
0.0
  9
$PUCSBASE
  2

  9
$PUCSNAME
  2

  9
$PUCSORG
 10
0.0
 20
0.0
 30
0.0
  9
$PUCSXDIR
 10
1.0
 20
0.0
 30
0.0
  9
$PUCSYDIR
 10
0.0
 20
1.0
 30
0.0
  9
$PUCSORTHOREF
  2

  9
$PUCSORTHOVIEW
 70
     0
  9
$PUCSORGTOP
 10
0.0
 20
0.0
 30
0.0
  9
$PUCSORGBOTTOM
 10
0.0
 20
0.0
 30
0.0
  9
$PUCSORGLEFT
 10
0.0
 20
0.0
 30
0.0
  9
$PUCSORGRIGHT
 10
0.0
 20
0.0
 30
0.0
  9
$PUCSORGFRONT
 10
0.0
 20
0.0
 30
0.0
  9
$PUCSORGBACK
 10
0.0
 20
0.0
 30
0.0
  9
$USERI1
 70
     0
  9
$USERI2
 70
     0
  9
$USERI3
 70
     0
  9
$USERI4
 70
     0
  9
$USERI5
 70
     0
  9
$USERR1
 40
0.0
  9
$USERR2
 40
0.0
  9
$USERR3
 40
0.0
  9
$USERR4
 40
0.0
  9
$USERR5
 40
0.0
  9
$WORLDVIEW
 70
     1
  9
$SHADEDGE
 70
     3
  9
$SHADEDIF
 70
    70
  9
$TILEMODE
 70
     1
  9
$MAXACTVP
 70
    16
  9
$PINSBASE
 10
0.0
 20
0.0
 30
0.0
  9
$PLIMCHECK
 70
     0
  9
$PEXTMIN
 10
1.000000E+20
 20
1.000000E+20
 30
1.000000E+20
  9
$PEXTMAX
 10
-1.000000E+20
 20
-1.000000E+20
 30
-1.000000E+20
  9
$PLIMMIN
 10
0.0
 20
0.0
  9
$PLIMMAX
 10
12.0
 20
9.0
  9
$UNITMODE
 70
     0
  9
$VISRETAIN
 70
     0
  9
$PLINEGEN
 70
     1
  9
$PSLTSCALE
 70
     0
  9
$TREEDEPTH
 70
  3020
  9
$CMLSTYLE
  2
Standard
  9
$CMLJUST
 70
     0
  9
$CMLSCALE
 40
1.0
  9
$PROXYGRAPHICS
 70
     0
  9
$MEASUREMENT
 70
     1
  9
$CELWEIGHT
370
     0
  9
$ENDCAPS
280
     0
  9
$JOINSTYLE
280
     0
  9
$LWDISPLAY
290
     0
  9
$INSUNITS
 70
     0
  9
$HYPERLINKBASE
  1

  9
$STYLESHEET
  1

  9
$XEDIT
290
     1
  9
$CEPSNTYPE
380
     0
  9
$PSTYLEMODE
290
     1
  9
$FINGERPRINTGUID
  2

  9
$VERSIONGUID
  2

  9
$EXTNAMES
290
     1
  9
$PSVPSCALE
 40
0.0
  0
ENDSEC
  0
SECTION
  2
CLASSES
  0
CLASS
  1
LWPOLYLINE
  2
AcDbPolyline
  3
AutoCAD 2000
 90
    32768
280
     0
281
     1
  0
CLASS
  1
IMAGE
  2
AcDbRasterImage
  3
ISM
 90
    32895
280
     0
281
     1
  0
CLASS
  1
OLE2FRAME
  2
AcDbOle2Frame
  3
AutoCAD 2000
 90
    32768
280
     0
281
     1
  0
CLASS
  1
HATCH
  2
AcDbHatch
  3
AutoCAD 2000
 90
    32768
280
     0
281
     1
  0
CLASS
  1
DICTIONARYVAR
  2
AcDbDictionaryVar
  3
AutoCAD 2000
 90
    32768
280
     0
281
     0
  0
CLASS
  1
RASTERVARIABLES
  2
AcDbRasterVariables
  3
ISM
 90
    32768
280
     0
281
     0
  0
CLASS
  1
IMAGEDEF
  2
AcDbRasterImageDef
  3
ISM
 90
    32768
280
     0
281
     0
  0
CLASS
  1
IMAGEDEF_REACTOR
  2
AcDbRasterImageDefReactor
  3
ISM
 90
    32769
280
     0
281
     0
  0
CLASS
  1
IDBUFFER
  2
AcDbIdBuffer
  3
AutoCAD 2000
 90
    32768
280
     0
281
     0
  0
CLASS
  1
SPATIAL_FILTER
  2
AcDbSpatialFilter
  3
AutoCAD 2000
 90
    32768
280
     0
281
     0
  0
CLASS
  1
XRECORD
  2
AcDbXrecord
  3
AutoCAD 2000
 90
    32768
280
     0
281
     0
  0
CLASS
  1
SORTENTSTABLE
  2
AcDbSortentsTable
  3
AutoCAD 2000
 90
    32768
280
     0
281
     0
  0
CLASS
  1
LAYER_INDEX
  2
AcDbLayerIndex
  3
AutoCAD 2000
 90
    32768
280
     0
281
     0
  0
CLASS
  1
SPATIAL_INDEX
  2
AcDbSpatialIndex
  3
AutoCAD 2000
 90
    32768
280
     0
281
     0
  0
CLASS
  1
OBJECT_PTR
  2
CAseDLPNTableRecord
  3
"ASE-LPNTableRecord"
 90
    32769
280
     0
281
     0
  0
CLASS
  1
LAYOUT
  2
AcDbLayout
  3
AutoCAD 2000
 90
        0
280
     0
281
     0
  0
CLASS
  1
PLOTSETTINGS
  2
AcDbPlotSettings
  3
AutoCAD 2000
 90
    32768
280
     0
281
     0
  0
CLASS
  1
ACDBDICTIONARYWDFLT
  2
AcDbDictionaryWithDefault
  3
AutoCAD 2000
 90
        0
280
     0
281
     0
  0
CLASS
  1
ACDBPLACEHOLDER
  2
AcDbPlaceHolder
  3
AutoCAD 2000
 90
        0
280
     0
281
     0
  0
CLASS
  1
VBA_PROJECT
  2
AcDbVbaProject
  3
acadvba
 90
    32768
280
     0
281
     0
  0
CLASS
  1
WIPEOUT
  2
AcDbWipeout
  3
WipeOut|AutoCAD Express Tool|expresstools@autodesk.com
 90
    32895
280
     0
281
     1
  0
CLASS
  1
WIPEOUTVARIABLES
  2
AcDbWipeoutVariables
  3
WipeOut|AutoCAD Express Tool|expresstools@autodesk.com
 90
        0
280
     0
281
     0
  0
CLASS
  1
RTEXT
  2
RText
  3
RText|AutoCAD Express Tool|expresstools@autodesk.com
 90
    32768
280
     0
281
     1
  0
CLASS
  1
ARCALIGNEDTEXT
  2
AcDbArcAlignedText
  3
ATEXT|AutoCAD Express Tool|expresstools@autodesk.com
 90
    32768
280
     0
281
     1
  0
ENDSEC
  0
SECTION
  2
TABLES
  0
TABLE
  2
VPORT
  5
7
100
AcDbSymbolTable
 70
     1
  0
VPORT
  5
15
100
AcDbSymbolTableRecord
100
AcDbViewportTableRecord
  2
*ACTIVE
 70
     0
 10
0.0
 20
0.0
 11
1.0
 21
1.0
 12
6.591288
 22
4.579184
 13
0.0
 23
0.0
 14
1.0
 24
1.0
 15
0.0
 25
0.0
 16
0.0
 26
0.0
 36
1.0
 17
0.0
 27
0.0
 37
0.0
 40
9.158369
 41
0.688564
 42
50.0
 43
0.0
 44
0.0
 50
0.0
 51
0.0
 71
     0
 72
   100
 73
     1
 74
     1
 75
     0
 76
     0
 77
     0
 78
     0
281
     0
 65
     0
110
0.0
120
0.0
130
0.0
111
1.0
121
0.0
131
0.0
112
0.0
122
1.0
132
0.0
345
0
346
0
 79
     0
146
0.0
  0
ENDTAB
  0
TABLE
  2
LTYPE
  5
4
100
AcDbSymbolTable
 70
     3
  0
LTYPE
  5
11
100
AcDbSymbolTableRecord
100
AcDbLinetypeTableRecord
  2
ByBlock
 70
    64
  3

 72
    65
 73
     0
 40
0.0
  0
LTYPE
  5
12
100
AcDbSymbolTableRecord
100
AcDbLinetypeTableRecord
  2
ByLayer
 70
    64
  3

 72
    65
 73
     0
 40
0.0
  0
LTYPE
  5
13
100
AcDbSymbolTableRecord
100
AcDbLinetypeTableRecord
  2
Continuous
 70
    64
  3
Solid line
 72
    65
 73
     0
 40
0.0
  0
ENDTAB
  0
TABLE
  2
LAYER
  5
2
100
AcDbSymbolTable
 70
     2
  0
LAYER
  5
14
100
AcDbSymbolTableRecord
100
AcDbLayerTableRecord
  2
0
 70
     0
 62
     7
  6
Continuous
290
     1
370
    -3
390
1D
  0
LAYER
  5
28
100
AcDbSymbolTableRecord
100
AcDbLayerTableRecord
  2
LAYER_1
 70
     0
 62
   160
  6
Continuous
290
     1
370
    -3
390
1D
  0
ENDTAB
  0
TABLE
  2
STYLE
  5
3
100
AcDbSymbolTable
 70
     5
  0
STYLE
  5
17
100
AcDbSymbolTableRecord
100
AcDbTextStyleTableRecord
  2
Standard
 70
     0
 40
0.0
 41
1.0
 50
0.0
 71
     0
 42
0.0
  3
txt
  4

  0
STYLE
  5
24
100
AcDbSymbolTableRecord
100
AcDbTextStyleTableRecord
  2
STD
 70
     0
 40
0.0
 41
1.0
 50
0.0
 71
     0
 42
0.0
  3
txt
  4

  0
STYLE
  5
25
100
AcDbSymbolTableRecord
100
AcDbTextStyleTableRecord
  2
TATESTD
 70
     4
 40
0.0
 41
1.0
 50
0.0
 71
     0
 42
0.0
  3
txt
  4

  0
STYLE
  5
26
100
AcDbSymbolTableRecord
100
AcDbTextStyleTableRecord
  2
KANJISTD
 70
     0
 40
0.0
 41
1.0
 50
0.0
 71
     0
 42
0.0
  3
txt
  4
extfont
  0
STYLE
  5
27
100
AcDbSymbolTableRecord
100
AcDbTextStyleTableRecord
  2
KANJITATE
 70
     4
 40
0.0
 41
1.0
 50
0.0
 71
     0
 42
0.0
  3
txt
  4
extfont
  0
ENDTAB
  0
TABLE
  2
VIEW
  5
5
100
AcDbSymbolTable
 70
     0
  0
ENDTAB
  0
TABLE
  2
UCS
  5
6
100
AcDbSymbolTable
 70
     0
  0
ENDTAB
  0
TABLE
  2
APPID
  5
8
100
AcDbSymbolTable
 70
     1
  0
APPID
  5
16
100
AcDbSymbolTableRecord
100
AcDbRegAppTableRecord
  2
ACAD
 70
     0
  0
ENDTAB
  0
TABLE
  2
DIMSTYLE
  5
9
100
AcDbSymbolTable
 70
     1
100
AcDbDimStyleTable
 71
     0
  0
DIMSTYLE
105
18
100
AcDbSymbolTableRecord
100
AcDbDimStyleTableRecord
  2
Standard
 70
     0
  3

  4

 40
1.0
 41
0.18
 42
0.0625
 43
0.38
 44
0.18
 45
0.0
 46
0.0
 47
0.0
 48
0.0
 71
     0
 72
     0
 73
     1
 74
     1
 75
     0
 76
     0
 77
     0
 78
     0
 79
     0
140
0.18
141
0.09
142
0.0
143
25.4
144
1.0
145
0.0
146
1.0
147
0.09
148
0.0
170
     0
171
     2
172
     0
173
     0
174
     0
175
     0
176
     0
177
     0
178
     0
179
     0
271
     4
272
     4
273
     2
274
     2
275
     0
276
     0
277
     2
278
    46
279
     0
280
     0
281
     0
282
     0
283
     1
284
     0
285
     0
286
     0
288
     0
340
17
341
0
342
0
343
0
344
0
371
    -2
372
    -2
  0
ENDTAB
  0
TABLE
  2
BLOCK_RECORD
  5
1
100
AcDbSymbolTable
 70
     3
  0
BLOCK_RECORD
  5
A
100
AcDbSymbolTableRecord
100
AcDbBlockTableRecord
  2
*MODEL_SPACE
340
20
  0
BLOCK_RECORD
  5
B
100
AcDbSymbolTableRecord
100
AcDbBlockTableRecord
  2
*PAPER_SPACE
340
21
  0
BLOCK_RECORD
  5
2A
100
AcDbSymbolTableRecord
100
AcDbBlockTableRecord
  2
AI9-BLK1
340
0
102
{BLKREFS
331
2B
102
}
  0
BLOCK_RECORD
  5
348
100
AcDbSymbolTableRecord
100
AcDbBlockTableRecord
  2
AI9-BLK2
340
0
102
{BLKREFS
331
349
102
}
  0
BLOCK_RECORD
  5
486
100
AcDbSymbolTableRecord
100
AcDbBlockTableRecord
  2
AI9-BLK3
340
0
102
{BLKREFS
331
487
102
}
  0
ENDTAB
  0
ENDSEC
  0
SECTION
  2
BLOCKS
  0
BLOCK
  5
D
100
AcDbEntity
  8
0
100
AcDbBlockBegin
  2
*MODEL_SPACE
 70
     0
 10
0.0
 20
0.0
 30
0.0
  3
*MODEL_SPACE
  1

  0
ENDBLK
  5
E
100
AcDbEntity
  8
0
100
AcDbBlockEnd
  0
BLOCK
  5
F
100
AcDbEntity
 67
     1
  8
0
100
AcDbBlockBegin
  2
*PAPER_SPACE
 70
     0
 10
0.0
 20
0.0
 30
0.0
  3
*PAPER_SPACE
  1

  0
ENDBLK
  5
10
100
AcDbEntity
 67
     1
  8
0
100
AcDbBlockEnd
  0
BLOCK
  5
2C
100
AcDbEntity
  8
LAYER_1
 62
     7
100
AcDbBlockBegin
  2
AI9-BLK1
 70
     0
 10
0.0
 20
0.0
 30
0.0
  3
AI9-BLK1
  1

  0
MTEXT
  5
44
100
AcDbEntity
  8
LAYER_1
 62
     7
100
AcDbMText
 10
3.126252
 20
61.519238
 30
0.0
 40
2.099868
 41
0.0
 71
     1
 72
     2
  1
\fArial|b0|i0;\H2.0999;\C7;\U+0048\U+0049\U+004E\U+0047\U+0045\U+0044
  7
STD
210
0.0
220
0.0
230
1.0
 73
     1
 44
1.0
  0
MTEXT
  5
43
100
AcDbEntity
  8
LAYER_1
 62
     7
100
AcDbMText
 10
3.126252
 20
58.203161
 30
0.0
 40
2.099868
 41
0.0
 71
     1
 72
     2
  1
\fArial|b0|i0;\H2.0999;\C7;\U+0052\U+0045\U+0046\U+0049\U+004C\U+004C
  7
STD
210
0.0
220
0.0
230
1.0
 73
     1
 44
1.0
  0
MTEXT
  5
42
100
AcDbEntity
  8
LAYER_1
 62
     7
100
AcDbMText
 10
3.126252
 20
54.887085
 30
0.0
 40
2.099868
 41
0.0
 71
     1
 72
     2
  1
\fArial|b0|i0;\H2.0999;\C7;\U+0044\U+004F\U+004F\U+0052
  7
STD
210
0.0
220
0.0
230
1.0
 73
     1
 44
1.0
  0
MTEXT
  5
41
100
AcDbEntity
  8
LAYER_1
 62
     7
100
AcDbMText
 10
-4.988326
 20
1.370972
 30
0.0
 40
2.099868
 41
0.0
 71
     1
 72
     2
  1
\fArial|b0|i0;\H2.0999;\C7;\U+0057\U+0041\U+004C\U+004C\U+0020\U+004D\U+004F\U+0055\U+004E\U+0054\U+0049\U+004E\U+0047
  7
STD
210
0.0
220
0.0
230
1.0
 73
     1
 44
1.0
  0
MTEXT
  5
40
100
AcDbEntity
  8
LAYER_1
 62
     7
100
AcDbMText
 10
-4.988326
 20
-1.945277
 30
0.0
 40
2.099868
 41
0.0
 71
     1
 72
     2
  1
\fArial|b0|i0;\H2.0999;\C7;\U+0050\U+004C\U+0041\U+0054\U+0045
  7
STD
210
0.0
220
0.0
230
1.0
 73
     1
 44
1.0
  0
MTEXT
  5
3F
100
AcDbEntity
  8
LAYER_1
 62
     7
100
AcDbMText
 10
-5.516804
 20
-20.854028
 30
0.0
 40
2.099868
 41
0.0
 71
     1
 72
     2
  1
\fArial|b0|i0;\H2.0999;\C7;\U+0053\U+0049\U+0047\U+0048\U+0054
  7
STD
210
0.0
220
0.0
230
1.0
 73
     1
 44
1.0
  0
MTEXT
  5
3E
100
AcDbEntity
  8
LAYER_1
 62
     7
100
AcDbMText
 10
-5.516804
 20
-24.170277
 30
0.0
 40
2.099868
 41
0.0
 71
     1
 72
     2
  1
\fArial|b0|i0;\H2.0999;\C7;\U+0047\U+0041\U+0055\U+0047\U+0045
  7
STD
210
0.0
220
0.0
230
1.0
 73
     1
 44
1.0
  0
MTEXT
  5
3D
100
AcDbEntity
  8
LAYER_1
 62
     7
100
AcDbMText
 10
35.021635
 20
-23.499173
 30
0.0
 40
2.099868
 41
0.0
 71
     1
 72
     2
  1
\fArial|b0|i0;\H2.0999;\C7;\U+0041\U+004C\U+004C\U+0020\U+0050\U+0055\U+0052\U+0050\U+004F\U+0053\U+0045
  7
STD
210
0.0
220
0.0
230
1.0
 73
     1
 44
1.0
  0
MTEXT
  5
3C
100
AcDbEntity
  8
LAYER_1
 62
     7
100
AcDbMText
 10
29.564948
 20
-26.815422
 30
0.0
 40
2.099868
 41
0.0
 71
     1
 72
     2
  1
\fArial|b0|i0;\H2.0999;\C7;\U+004C\U+004F\U+0057\U+0020\U+0053\U+0049\U+004C\U+0048\U+004F\U+0055\U+0045\U+0054\U+0054\U+0045
  7
STD
210
0.0
220
0.0
230
1.0
 73
     1
 44
1.0
  0
MTEXT
  5
3B
100
AcDbEntity
  8
LAYER_1
 62
     7
100
AcDbMText
 10
36.350064
 20
-30.131326
 30
0.0
 40
2.099868
 41
0.0
 71
     1
 72
     2
  1
\fArial|b0|i0;\H2.0999;\C7;\U+004C\U+0049\U+0051\U+0055\U+0049\U+0044\U+0020\U+0053\U+004F\U+0041\U+0050
  7
STD
210
0.0
220
0.0
230
1.0
 73
     1
 44
1.0
  0
MTEXT
  5
3A
100
AcDbEntity
  8
LAYER_1
 62
     7
100
AcDbMText
 10
45.550191
 20
-33.094797
 30
0.0
 40
2.099868
 41
0.0
 71
     1
 72
     2
  1
\fArial|b0|i0;\H2.0999;\C7;\U+0056\U+0041\U+004C\U+0056\U+0045
  7
STD
210
0.0
220
0.0
230
1.0
 73
     1
 44
1.0
  0
MTEXT
  5
39
100
AcDbEntity
  8
LAYER_1
 62
     7
100
AcDbMText
 10
69.964894
 20
29.240416
 30
0.0
 40
2.099868
 41
0.0
 71
     1
 72
     2
  1
\fArial|b0|i0;\H2.0999;\C7;\U+0046\U+0049\U+004E\U+0049\U+0053\U+0048\U+0045\U+0044\U+0020\U+0057\U+0041\U+004C\U+004C
  7
STD
210
0.0
220
0.0
230
1.0
 73
     1
 44
1.0
  0
MTEXT
  5
38
100
AcDbEntity
  8
LAYER_1
 62
     7
100
AcDbMText
 10
69.458809
 20
20.420283
 30
0.0
 40
2.099868
 41
0.0
 71
     1
 72
     2
  1
\fArial|b0|i0;\H2.0999;\C7;\U+0057\U+0041\U+004C\U+004C\U+0020\U+004D\U+004F\U+0055\U+004E\U+0054\U+0049\U+004E\U+0047\U+0020
  7
STD
210
0.0
220
0.0
230
1.0
 73
     1
 44
1.0
  0
MTEXT
  5
37
100
AcDbEntity
  8
LAYER_1
 62
     7
100
AcDbMText
 10
82.489883
 20
17.456984
 30
0.0
 40
2.099868
 41
0.0
 71
     1
 72
     2
  1
\fArial|b0|i0;\H2.0999;\C7;\U+0050\U+004C\U+0041\U+0054\U+0045
  7
STD
210
0.0
220
0.0
230
1.0
 73
     1
 44
1.0
  0
MTEXT
  5
36
100
AcDbEntity
  8
LAYER_1
 62
     7
100
AcDbMText
 10
82.541904
 20
-56.884313
 30
0.0
 40
2.887318
 41
0.0
 71
     1
 72
     2
  1
\fArial|b0|i0;\H2.8873;\C7;\U+0037\U+0036
  7
STD
210
0.0
220
0.0
230
1.0
 73
     1
 44
1.0
  0
MTEXT
  5
35
100
AcDbEntity
  8
LAYER_1
 62
     7
100
AcDbMText
 10
78.661348
 20
-63.058269
 30
0.0
 40
2.887318
 41
0.0
 71
     1
 72
     2
  1
\fArial|b0|i0;\H2.8873;\C7;\U+0031\U+0030\U+0030
  7
STD
210
0.0
220
0.0
230
1.0
 73
     1
 44
1.0
  0
MTEXT
  5
34
100
AcDbEntity
  8
LAYER_1
 62
     7
100
AcDbMText
 10
59.611693
 20
-50.182569
 30
0.0
 40
2.887318
 41
0.0
 71
     1
 72
     2
  1
\fArial|b0|i0;\H2.8873;\C7;\U+0031\U+0038
  7
STD
210
0.0
220
0.0
230
1.0
 73
     1
 44
1.0
  0
MTEXT
  5
33
100
AcDbEntity
  8
LAYER_1
 62
     7
100
AcDbMText
 10
-55.082081
 20
-45.242647
 30
0.0
 40
2.887318
 41
0.0
 71
     1
 72
     2
  1
\fArial|b0|i0;\H2.8873;\C7;\U+0033\U+0032
  7
STD
210
0.0
220
0.0
230
1.0
 73
     1
 44
1.0
  0
MTEXT
  5
32
100
AcDbEntity
  8
LAYER_1
 62
     7
100
AcDbMText
 10
-62.841298
 20
-21.606191
 30
0.0
 40
2.887318
 41
0.0
 71
     1
 72
     2
  1
\fArial|b0|i0;\H2.8873;\C7;\U+0032\U+0030\U+0038
  7
STD
210
0.0
220
0.0
230
1.0
 73
     1
 44
1.0
  0
MTEXT
  5
31
100
AcDbEntity
  8
LAYER_1
 62
     7
100
AcDbMText
 10
-31.092504
 20
15.612209
 30
0.0
 40
2.887318
 41
0.0
 71
     1
 72
     2
  1
\fArial|b0|i0;\H2.8873;\C7;\U+0031\U+0032\U+0032
  7
STD
210
0.0
220
0.0
230
1.0
 73
     1
 44
1.0
  0
MTEXT
  5
30
100
AcDbEntity
  8
LAYER_1
 62
     7
100
AcDbMText
 10
-57.022359
 20
39.778176
 30
0.0
 40
2.887318
 41
0.0
 71
     1
 72
     2
  1
\fArial|b0|i0;\H2.8873;\C7;\U+0031\U+0033
  7
STD
210
0.0
220
0.0
230
1.0
 73
     1
 44
1.0
  0
MTEXT
  5
2F
100
AcDbEntity
  8
LAYER_1
 62
     7
100
AcDbMText
 10
-56.847693
 20
54.243098
 30
0.0
 40
2.887318
 41
0.0
 71
     1
 72
     2
  1
\fArial|b0|i0;\H2.8873;\C7;\U+0034\U+0030
  7
STD
210
0.0
220
0.0
230
1.0
 73
     1
 44
1.0
  0
MTEXT
  5
2E
100
AcDbEntity
  8
LAYER_1
 62
     7
100
AcDbMText
 10
-28.624437
 20
-55.293368
 30
0.0
 40
2.887318
 41
0.0
 71
     1
 72
     2
  1
\fArial|b0|i0;\H2.8873;\C7;\U+0043
  7
STD
210
0.0
220
0.0
230
1.0
 73
     1
 44
1.0
  0
MTEXT
  5
2D
100
AcDbEntity
  8
LAYER_1
 62
     7
100
AcDbMText
 10
-27.743526
 20
-56.527402
 30
0.0
 40
2.887318
 41
0.0
 71
     1
 72
     2
  1
\fArial|b0|i0;\H2.8873;\C7;\U+004C
  7
STD
210
0.0
220
0.0
230
1.0
 73
     1
 44
1.0
  0
ENDBLK
  5
45
100
AcDbEntity
  8
LAYER_1
100
AcDbBlockEnd
  0
BLOCK
  5
34A
100
AcDbEntity
  8
LAYER_1
 62
     7
100
AcDbBlockBegin
  2
AI9-BLK2
 70
     0
 10
0.0
 20
0.0
 30
0.0
  3
AI9-BLK2
  1

  0
LINE
  5
3A6
100
AcDbEntity
  8
LAYER_1
 62
     7
100
AcDbLine
 10
-34.961174
 20
47.700878
 30
0.0
 11
-34.961174
 21
58.368789
 31
0.0
  0
LINE
  5
3A5
100
AcDbEntity
  8
LAYER_1
 62
     7
100
AcDbLine
 10
-34.961174
 20
47.700878
 30
0.0
 11
-23.23493
 21
47.700878
 31
0.0
  0
LINE
  5
3A4
100
AcDbEntity
  8
LAYER_1
 62
     7
100
AcDbLine
 10
-23.23493
 20
58.368789
 30
0.0
 11
-34.961174
 21
58.368789
 31
0.0
  0
LINE
  5
3A3
100
AcDbEntity
  8
LAYER_1
 62
     7
100
AcDbLine
 10
-23.23493
 20
47.616129
 30
0.0
 11
-23.23493
 21
47.700878
 31
0.0
  0
LINE
  5
3A2
100
AcDbEntity
  8
LAYER_1
 62
     7
100
AcDbLine
 10
-21.456916
 20
58.495913
 30
0.0
 11
-21.456916
 21
47.616129
 31
0.0
  0
LINE
  5
3A1
100
AcDbEntity
  8
LAYER_1
 62
     7
100
AcDbLine
 10
-35.172875
 20
47.489177
 30
0.0
 11
-35.172875
 21
58.58049
 31
0.0
  0
LINE
  5
3A0
100
AcDbEntity
  8
LAYER_1
 62
     7
100
AcDbLine
 10
-20.567909
 20
58.58049
 30
0.0
 11
-20.567909
 21
47.489177
 31
0.0
  0
LINE
  5
39F
100
AcDbEntity
  8
LAYER_1
 62
     7
100
AcDbLine
 10
-20.567909
 20
58.58049
 30
0.0
 11
-35.172875
 21
58.58049
 31
0.0
  0
POLYLINE
  5
39A
100
AcDbEntity
  8
LAYER_1
 62
     7
100
AcDb2dPolyline
 66
     1
 10
0.0
 20
0.0
 30
0.0
  0
VERTEX
  5
39B
100
AcDbEntity
  8
LAYER_1
 62
     7
100
AcDbVertex
100
AcDb2dVertex
 10
103.73527
 20
12.832378
 30
0.0
  0
VERTEX
  5
39C
100
AcDbEntity
  8
LAYER_1
 62
     7
100
AcDbVertex
100
AcDb2dVertex
 10
93.871617
 20
27.352594
 30
0.0
  0
VERTEX
  5
39D
100
AcDbEntity
  8
LAYER_1
 62
     7
100
AcDbVertex
100
AcDb2dVertex
 10
92.051229
 20
27.352594
 30
0.0
  0
SEQEND
  5
39E
100
AcDbEntity
  8
LAYER_1
 62
     7
  0
POLYLINE
  5
394
100
AcDbEntity
  8
LAYER_1
 62
     7
100
AcDb2dPolyline
 66
     1
 10
0.0
 20
0.0
 30
0.0
  0
VERTEX
  5
395
100
AcDbEntity
  8
LAYER_1
 62
     7
100
AcDbVertex
100
AcDb2dVertex
 10
105.089882
 20
11.562343
 30
0.0
  0
VERTEX
  5
396
100
AcDbEntity
  8
LAYER_1
 62
     7
100
AcDbVertex
100
AcDb2dVertex
 10
103.946799
 20
13.043907
 30
0.0
  0
VERTEX
  5
397
100
AcDbEntity
  8
LAYER_1
 62
     7
100
AcDbVertex
100
AcDb2dVertex
 10
103.565771
 20
12.578302
 30
0.0
  0
VERTEX
  5
398
100
AcDbEntity
  8
LAYER_1
 62
     7
100
AcDbVertex
100
AcDb2dVertex
 10
105.089882
 20
11.562343
 30
0.0
  0
SEQEND
  5
399
100
AcDbEntity
  8
LAYER_1
 62
     7
  0
POLYLINE
  5
380
100
AcDbEntity
  8
LAYER_1
 62
     7
100
AcDb2dPolyline
 66
     1
 10
0.0
 20
0.0
 30
0.0
  0
VERTEX
  5
381
100
AcDbEntity
  8
LAYER_1
 62
     7
100
AcDbVertex
100
AcDb2dVertex
 10
105.089882
 20
11.562343
 30
0.0
  0
VERTEX
  5
382
100
AcDbEntity
  8
LAYER_1
 62
     7
100
AcDbVertex
100
AcDb2dVertex
 10
104.962758
 20
11.64692
 30
0.0
  0
VERTEX
  5
383
100
AcDbEntity
  8
LAYER_1
 62
     7
100
AcDbVertex
100
AcDb2dVertex
 10
104.878353
 20
11.73167
 30
0.0
  0
VERTEX
  5
384
100
AcDbEntity
  8
LAYER_1
 62
     7
100
AcDbVertex
100
AcDb2dVertex
 10
104.708854
 20
11.816247
 30
0.0
  0
VERTEX
  5
385
100
AcDbEntity
  8
LAYER_1
 62
     7
100
AcDbVertex
100
AcDb2dVertex
 10
104.835978
 20
11.900996
 30
0.0
  0
VERTEX
  5
386
100
AcDbEntity
  8
LAYER_1
 62
     7
100
AcDbVertex
100
AcDb2dVertex
 10
104.497325
 20
11.985573
 30
0.0
  0
VERTEX
  5
387
100
AcDbEntity
  8
LAYER_1
 62
     7
100
AcDbVertex
100
AcDb2dVertex
 10
104.708854
 20
12.070323
 30
0.0
  0
VERTEX
  5
388
100
AcDbEntity
  8
LAYER_1
 62
     7
100
AcDbVertex
100
AcDb2dVertex
 10
104.243077
 20
12.1549
 30
0.0
  0
VERTEX
  5
389
100
AcDbEntity
  8
LAYER_1
 62
     7
100
AcDbVertex
100
AcDb2dVertex
 10
104.582075
 20
12.197274
 30
0.0
  0
VERTEX
  5
38A
100
AcDbEntity
  8
LAYER_1
 62
     7
100
AcDbVertex
100
AcDb2dVertex
 10
103.989174
 20
12.282024
 30
0.0
  0
VERTEX
  5
38B
100
AcDbEntity
  8
LAYER_1
 62
     7
100
AcDbVertex
100
AcDb2dVertex
 10
104.454951
 20
12.366601
 30
0.0
  0
VERTEX
  5
38C
100
AcDbEntity
  8
LAYER_1
 62
     7
100
AcDbVertex
100
AcDb2dVertex
 10
103.73527
 20
12.45135
 30
0.0
  0
VERTEX
  5
38D
100
AcDbEntity
  8
LAYER_1
 62
     7
100
AcDbVertex
100
AcDb2dVertex
 10
104.327827
 20
12.535927
 30
0.0
  0
VERTEX
  5
38E
100
AcDbEntity
  8
LAYER_1
 62
     7
100
AcDbVertex
100
AcDb2dVertex
 10
103.565771
 20
12.620677
 30
0.0
  0
VERTEX
  5
38F
100
AcDbEntity
  8
LAYER_1
 62
     7
100
AcDbVertex
100
AcDb2dVertex
 10
104.201047
 20
12.705254
 30
0.0
  0
VERTEX
  5
390
100
AcDbEntity
  8
LAYER_1
 62
     7
100
AcDbVertex
100
AcDb2dVertex
 10
103.692896
 20
12.790003
 30
0.0
  0
VERTEX
  5
391
100
AcDbEntity
  8
LAYER_1
 62
     7
100
AcDbVertex
100
AcDb2dVertex
 10
104.116298
 20
12.87458
 30
0.0
  0
VERTEX
  5
392
100
AcDbEntity
  8
LAYER_1
 62
     7
100
AcDbVertex
100
AcDb2dVertex
 10
103.862394
 20
12.95933
 30
0.0
  0
SEQEND
  5
393
100
AcDbEntity
  8
LAYER_1
 62
     7
  0
LINE
  5
37F
100
AcDbEntity
  8
LAYER_1
 62
     7
100
AcDbLine
 10
-35.172875
 20
47.489177
 30
0.0
 11
-20.567909
 21
47.489177
 31
0.0
  0
LINE
  5
37E
100
AcDbEntity
  8
LAYER_1
 62
     7
100
AcDbLine
 10
-11.000534
 20
65.311517
 30
0.0
 11
-44.740249
 21
65.311517
 31
0.0
  0
LINE
  5
37D
100
AcDbEntity
  8
LAYER_1
 62
     7
100
AcDbLine
 10
-11.000534
 20
65.311517
 30
0.0
 11
-11.000534
 21
61.75549
 31
0.0
  0
LINE
  5
37C
100
AcDbEntity
  8
LAYER_1
 62
     7
100
AcDbLine
 10
-44.740249
 20
61.75549
 30
0.0
 11
-44.740249
 21
65.311517
 31
0.0
  0
LINE
  5
37B
100
AcDbEntity
  8
LAYER_1
 62
     7
100
AcDbLine
 10
-43.42784
 20
59.511871
 30
0.0
 11
-43.42784
 21
47.954782
 31
0.0
  0
LINE
  5
37A
100
AcDbEntity
  8
LAYER_1
 62
     7
100
AcDbLine
 10
-12.312771
 20
47.954782
 30
0.0
 11
-12.312771
 21
59.511871
 31
0.0
  0
LINE
  5
379
100
AcDbEntity
  8
LAYER_1
 62
     7
100
AcDbLine
 10
-16.292201
 20
43.975524
 30
0.0
 11
-39.448583
 21
43.975524
 31
0.0
  0
LINE
  5
378
100
AcDbEntity
  8
LAYER_1
 62
     7
100
AcDbLine
 10
-44.740249
 20
61.75549
 30
0.0
 11
-11.000534
 21
61.75549
 31
0.0
  0
POLYLINE
  5
367
100
AcDbEntity
  8
LAYER_1
 62
     7
100
AcDb2dPolyline
 66
     1
 10
0.0
 20
0.0
 30
0.0
  0
VERTEX
  5
368
100
AcDbEntity
  8
LAYER_1
 62
     7
100
AcDbVertex
100
AcDb2dVertex
 10
-43.42784
 20
47.954782
 30
0.0
  0
VERTEX
  5
369
100
AcDbEntity
  8
LAYER_1
 62
     7
100
AcDbVertex
100
AcDb2dVertex
 10
-43.42784
 20
47.658504
 30
0.0
  0
VERTEX
  5
36A
100
AcDbEntity
  8
LAYER_1
 62
     7
100
AcDbVertex
100
AcDb2dVertex
 10
-43.385465
 20
47.319851
 30
0.0
  0
VERTEX
  5
36B
100
AcDbEntity
  8
LAYER_1
 62
     7
100
AcDbVertex
100
AcDb2dVertex
 10
-43.300888
 20
47.023572
 30
0.0
  0
VERTEX
  5
36C
100
AcDbEntity
  8
LAYER_1
 62
     7
100
AcDbVertex
100
AcDb2dVertex
 10
-43.216139
 20
46.642545
 30
0.0
  0
VERTEX
  5
36D
100
AcDbEntity
  8
LAYER_1
 62
     7
100
AcDbVertex
100
AcDb2dVertex
 10
-43.046813
 20
46.303892
 30
0.0
  0
VERTEX
  5
36E
100
AcDbEntity
  8
LAYER_1
 62
     7
100
AcDbVertex
100
AcDb2dVertex
 10
-42.877486
 20
45.922864
 30
0.0
  0
VERTEX
  5
36F
100
AcDbEntity
  8
LAYER_1
 62
     7
100
AcDbVertex
100
AcDb2dVertex
 10
-42.623583
 20
45.541837
 30
0.0
  0
VERTEX
  5
370
100
AcDbEntity
  8
LAYER_1
 62
     7
100
AcDbVertex
100
AcDb2dVertex
 10
-42.327132
 20
45.203184
 30
0.0
  0
VERTEX
  5
371
100
AcDbEntity
  8
LAYER_1
 62
     7
100
AcDbVertex
100
AcDb2dVertex
 10
-41.946105
 20
44.864531
 30
0.0
  0
VERTEX
  5
372
100
AcDbEntity
  8
LAYER_1
 62
     7
100
AcDbVertex
100
AcDb2dVertex
 10
-41.522875
 20
44.568253
 30
0.0
  0
VERTEX
  5
373
100
AcDbEntity
  8
LAYER_1
 62
     7
100
AcDbVertex
100
AcDb2dVertex
 10
-41.05727
 20
44.314177
 30
0.0
  0
VERTEX
  5
374
100
AcDbEntity
  8
LAYER_1
 62
     7
100
AcDbVertex
100
AcDb2dVertex
 10
-40.549118
 20
44.102476
 30
0.0
  0
VERTEX
  5
375
100
AcDbEntity
  8
LAYER_1
 62
     7
100
AcDbVertex
100
AcDb2dVertex
 10
-39.998937
 20
43.975524
 30
0.0
  0
VERTEX
  5
376
100
AcDbEntity
  8
LAYER_1
 62
     7
100
AcDbVertex
100
AcDb2dVertex
 10
-39.448583
 20
43.975524
 30
0.0
  0
SEQEND
  5
377
100
AcDbEntity
  8
LAYER_1
 62
     7
  0
POLYLINE
  5
356
100
AcDbEntity
  8
LAYER_1
 62
     7
100
AcDb2dPolyline
 66
     1
 10
0.0
 20
0.0
 30
0.0
  0
VERTEX
  5
357
100
AcDbEntity
  8
LAYER_1
 62
     7
100
AcDbVertex
100
AcDb2dVertex
 10
-16.292201
 20
43.975524
 30
0.0
  0
VERTEX
  5
358
100
AcDbEntity
  8
LAYER_1
 62
     7
100
AcDbVertex
100
AcDb2dVertex
 10
-15.741847
 20
43.975524
 30
0.0
  0
VERTEX
  5
359
100
AcDbEntity
  8
LAYER_1
 62
     7
100
AcDbVertex
100
AcDb2dVertex
 10
-15.191493
 20
44.102476
 30
0.0
  0
VERTEX
  5
35A
100
AcDbEntity
  8
LAYER_1
 62
     7
100
AcDbVertex
100
AcDb2dVertex
 10
-14.683514
 20
44.314177
 30
0.0
  0
VERTEX
  5
35B
100
AcDbEntity
  8
LAYER_1
 62
     7
100
AcDbVertex
100
AcDb2dVertex
 10
-14.175534
 20
44.568253
 30
0.0
  0
VERTEX
  5
35C
100
AcDbEntity
  8
LAYER_1
 62
     7
100
AcDbVertex
100
AcDb2dVertex
 10
-13.794507
 20
44.864531
 30
0.0
  0
VERTEX
  5
35D
100
AcDbEntity
  8
LAYER_1
 62
     7
100
AcDbVertex
100
AcDb2dVertex
 10
-13.413479
 20
45.203184
 30
0.0
  0
VERTEX
  5
35E
100
AcDbEntity
  8
LAYER_1
 62
     7
100
AcDbVertex
100
AcDb2dVertex
 10
-13.117201
 20
45.541837
 30
0.0
  0
VERTEX
  5
35F
100
AcDbEntity
  8
LAYER_1
 62
     7
100
AcDbVertex
100
AcDb2dVertex
 10
-12.863125
 20
45.922864
 30
0.0
  0
VERTEX
  5
360
100
AcDbEntity
  8
LAYER_1
 62
     7
100
AcDbVertex
100
AcDb2dVertex
 10
-12.651596
 20
46.303892
 30
0.0
  0
VERTEX
  5
361
100
AcDbEntity
  8
LAYER_1
 62
     7
100
AcDbVertex
100
AcDb2dVertex
 10
-12.524472
 20
46.642545
 30
0.0
  0
VERTEX
  5
362
100
AcDbEntity
  8
LAYER_1
 62
     7
100
AcDbVertex
100
AcDb2dVertex
 10
-12.439895
 20
47.023572
 30
0.0
  0
VERTEX
  5
363
100
AcDbEntity
  8
LAYER_1
 62
     7
100
AcDbVertex
100
AcDb2dVertex
 10
-12.355146
 20
47.319851
 30
0.0
  0
VERTEX
  5
364
100
AcDbEntity
  8
LAYER_1
 62
     7
100
AcDbVertex
100
AcDb2dVertex
 10
-12.312771
 20
47.658504
 30
0.0
  0
VERTEX
  5
365
100
AcDbEntity
  8
LAYER_1
 62
     7
100
AcDbVertex
100
AcDb2dVertex
 10
-12.312771
 20
47.954782
 30
0.0
  0
SEQEND
  5
366
100
AcDbEntity
  8
LAYER_1
 62
     7
  0
POLYLINE
  5
34B
100
AcDbEntity
  8
LAYER_1
 62
     7
100
AcDb2dPolyline
 66
     1
 10
0.0
 20
0.0
 30
0.0
  0
VERTEX
  5
34C
100
AcDbEntity
  8
LAYER_1
 62
     7
100
AcDbVertex
100
AcDb2dVertex
 10
-43.42784
 20
59.511871
 30
0.0
  0
VERTEX
  5
34D
100
AcDbEntity
  8
LAYER_1
 62
     7
100
AcDbVertex
100
AcDb2dVertex
 10
-43.42784
 20
59.723572
 30
0.0
  0
VERTEX
  5
34E
100
AcDbEntity
  8
LAYER_1
 62
     7
100
AcDbVertex
100
AcDb2dVertex
 10
-43.470215
 20
59.935101
 30
0.0
  0
VERTEX
  5
34F
100
AcDbEntity
  8
LAYER_1
 62
     7
100
AcDbVertex
100
AcDb2dVertex
 10
-43.554792
 20
60.146802
 30
0.0
  0
VERTEX
  5
350
100
AcDbEntity
  8
LAYER_1
 62
     7
100
AcDbVertex
100
AcDb2dVertex
 10
-43.724118
 20
60.654782
 30
0.0
  0
VERTEX
  5
351
100
AcDbEntity
  8
LAYER_1
 62
     7
100
AcDbVertex
100
AcDb2dVertex
 10
-43.851242
 20
60.866483
 30
0.0
  0
VERTEX
  5
352
100
AcDbEntity
  8
LAYER_1
 62
     7
100
AcDbVertex
100
AcDb2dVertex
 10
-44.020569
 20
61.120559
 30
0.0
  0
VERTEX
  5
353
100
AcDbEntity
  8
LAYER_1
 62
     7
100
AcDbVertex
100
AcDb2dVertex
 10
-44.23227
 20
61.332088
 30
0.0
  0
VERTEX
  5
354
100
AcDbEntity
  8
LAYER_1
 62
     7
100
AcDbVertex
100
AcDb2dVertex
 10
-44.740249
 20
61.75549
 30
0.0
  0
SEQEND
  5
355
100
AcDbEntity
  8
LAYER_1
 62
     7
  0
ENDBLK
  5
3A7
100
AcDbEntity
  8
LAYER_1
100
AcDbBlockEnd
  0
BLOCK
  5
488
100
AcDbEntity
  8
LAYER_1
 62
     7
100
AcDbBlockBegin
  2
AI9-BLK3
 70
     0
 10
0.0
 20
0.0
 30
0.0
  3
AI9-BLK3
  1

  0
POLYLINE
  5
4EB
100
AcDbEntity
  8
LAYER_1
 62
     7
100
AcDb2dPolyline
 66
     1
 10
0.0
 20
0.0
 30
0.0
  0
VERTEX
  5
4EC
100
AcDbEntity
  8
LAYER_1
 62
     7
100
AcDbVertex
100
AcDb2dVertex
 10
-25.859576
 20
-34.002662
 30
0.0
  0
VERTEX
  5
4ED
100
AcDbEntity
  8
LAYER_1
 62
     7
100
AcDbVertex
100
AcDb2dVertex
 10
-25.90195
 20
-33.706384
 30
0.0
  0
VERTEX
  5
4EE
100
AcDbEntity
  8
LAYER_1
 62
     7
100
AcDbVertex
100
AcDb2dVertex
 10
-25.9867
 20
-33.409761
 30
0.0
  0
VERTEX
  5
4EF
100
AcDbEntity
  8
LAYER_1
 62
     7
100
AcDbVertex
100
AcDb2dVertex
 10
-26.113307
 20
-33.071108
 30
0.0
  0
VERTEX
  5
4F0
100
AcDbEntity
  8
LAYER_1
 62
     7
100
AcDbVertex
100
AcDb2dVertex
 10
-26.367727
 20
-32.69008
 30
0.0
  0
VERTEX
  5
4F1
100
AcDbEntity
  8
LAYER_1
 62
     7
100
AcDbVertex
100
AcDb2dVertex
 10
-26.70638
 20
-32.393802
 30
0.0
  0
VERTEX
  5
4F2
100
AcDbEntity
  8
LAYER_1
 62
     7
100
AcDbVertex
100
AcDb2dVertex
 10
-27.12961
 20
-32.139899
 30
0.0
  0
VERTEX
  5
4F3
100
AcDbEntity
  8
LAYER_1
 62
     7
100
AcDbVertex
100
AcDb2dVertex
 10
-27.63759
 20
-32.012775
 30
0.0
  0
VERTEX
  5
4F4
100
AcDbEntity
  8
LAYER_1
 62
     7
100
AcDbVertex
100
AcDb2dVertex
 10
-28.187944
 20
-32.012775
 30
0.0
  0
VERTEX
  5
4F5
100
AcDbEntity
  8
LAYER_1
 62
     7
100
AcDbVertex
100
AcDb2dVertex
 10
-28.695923
 20
-32.139899
 30
0.0
  0
VERTEX
  5
4F6
100
AcDbEntity
  8
LAYER_1
 62
     7
100
AcDbVertex
100
AcDb2dVertex
 10
-29.1617
 20
-32.393802
 30
0.0
  0
VERTEX
  5
4F7
100
AcDbEntity
  8
LAYER_1
 62
     7
100
AcDbVertex
100
AcDb2dVertex
 10
-29.500353
 20
-32.69008
 30
0.0
  0
VERTEX
  5
4F8
100
AcDbEntity
  8
LAYER_1
 62
     7
100
AcDbVertex
100
AcDb2dVertex
 10
-29.712054
 20
-33.071108
 30
0.0
  0
VERTEX
  5
4F9
100
AcDbEntity
  8
LAYER_1
 62
     7
100
AcDbVertex
100
AcDb2dVertex
 10
-29.88138
 20
-33.409761
 30
0.0
  0
VERTEX
  5
4FA
100
AcDbEntity
  8
LAYER_1
 62
     7
100
AcDbVertex
100
AcDb2dVertex
 10
-29.965957
 20
-33.706384
 30
0.0
  0
VERTEX
  5
4FB
100
AcDbEntity
  8
LAYER_1
 62
     7
100
AcDbVertex
100
AcDb2dVertex
 10
-29.965957
 20
-34.29894
 30
0.0
  0
VERTEX
  5
4FC
100
AcDbEntity
  8
LAYER_1
 62
     7
100
AcDbVertex
100
AcDb2dVertex
 10
-29.88138
 20
-34.637593
 30
0.0
  0
VERTEX
  5
4FD
100
AcDbEntity
  8
LAYER_1
 62
     7
100
AcDbVertex
100
AcDb2dVertex
 10
-29.712054
 20
-34.976246
 30
0.0
  0
VERTEX
  5
4FE
100
AcDbEntity
  8
LAYER_1
 62
     7
100
AcDbVertex
100
AcDb2dVertex
 10
-29.500353
 20
-35.314899
 30
0.0
  0
VERTEX
  5
4FF
100
AcDbEntity
  8
LAYER_1
 62
     7
100
AcDbVertex
100
AcDb2dVertex
 10
-29.1617
 20
-35.653552
 30
0.0
  0
VERTEX
  5
500
100
AcDbEntity
  8
LAYER_1
 62
     7
100
AcDbVertex
100
AcDb2dVertex
 10
-28.695923
 20
-35.907455
 30
0.0
  0
VERTEX
  5
501
100
AcDbEntity
  8
LAYER_1
 62
     7
100
AcDbVertex
100
AcDb2dVertex
 10
-28.187944
 20
-36.034579
 30
0.0
  0
VERTEX
  5
502
100
AcDbEntity
  8
LAYER_1
 62
     7
100
AcDbVertex
100
AcDb2dVertex
 10
-27.63759
 20
-36.034579
 30
0.0
  0
VERTEX
  5
503
100
AcDbEntity
  8
LAYER_1
 62
     7
100
AcDbVertex
100
AcDb2dVertex
 10
-27.12961
 20
-35.907455
 30
0.0
  0
VERTEX
  5
504
100
AcDbEntity
  8
LAYER_1
 62
     7
100
AcDbVertex
100
AcDb2dVertex
 10
-26.70638
 20
-35.653552
 30
0.0
  0
VERTEX
  5
505
100
AcDbEntity
  8
LAYER_1
 62
     7
100
AcDbVertex
100
AcDb2dVertex
 10
-26.367727
 20
-35.314899
 30
0.0
  0
VERTEX
  5
506
100
AcDbEntity
  8
LAYER_1
 62
     7
100
AcDbVertex
100
AcDb2dVertex
 10
-26.113307
 20
-34.976246
 30
0.0
  0
VERTEX
  5
507
100
AcDbEntity
  8
LAYER_1
 62
     7
100
AcDbVertex
100
AcDb2dVertex
 10
-25.9867
 20
-34.637593
 30
0.0
  0
VERTEX
  5
508
100
AcDbEntity
  8
LAYER_1
 62
     7
100
AcDbVertex
100
AcDb2dVertex
 10
-25.90195
 20
-34.29894
 30
0.0
  0
VERTEX
  5
509
100
AcDbEntity
  8
LAYER_1
 62
     7
100
AcDbVertex
100
AcDb2dVertex
 10
-25.859576
 20
-34.002662
 30
0.0
  0
SEQEND
  5
50A
100
AcDbEntity
  8
LAYER_1
 62
     7
  0
POLYLINE
  5
4E2
100
AcDbEntity
  8
LAYER_1
 62
     7
100
AcDb2dPolyline
 66
     1
 10
0.0
 20
0.0
 30
0.0
  0
VERTEX
  5
4E3
100
AcDbEntity
  8
LAYER_1
 62
     7
100
AcDbVertex
100
AcDb2dVertex
 10
72.95851
 20
-33.818694
 30
0.0
  0
VERTEX
  5
4E4
100
AcDbEntity
  8
LAYER_1
 62
     7
100
AcDbVertex
100
AcDb2dVertex
 10
73.297507
 20
-34.157691
 30
0.0
  0
VERTEX
  5
4E5
100
AcDbEntity
  8
LAYER_1
 62
     7
100
AcDbVertex
100
AcDb2dVertex
 10
73.382256
 20
-34.200066
 30
0.0
  0
VERTEX
  5
4E6
100
AcDbEntity
  8
LAYER_1
 62
     7
100
AcDbVertex
100
AcDb2dVertex
 10
73.551411
 20
-34.36922
 30
0.0
  0
VERTEX
  5
4E7
100
AcDbEntity
  8
LAYER_1
 62
     7
100
AcDbVertex
100
AcDb2dVertex
 10
73.63616
 20
-34.411939
 30
0.0
  0
VERTEX
  5
4E8
100
AcDbEntity
  8
LAYER_1
 62
     7
100
AcDbVertex
100
AcDb2dVertex
 10
73.763284
 20
-34.496344
 30
0.0
  0
VERTEX
  5
4E9
100
AcDbEntity
  8
LAYER_1
 62
     7
100
AcDbVertex
100
AcDb2dVertex
 10
73.848033
 20
-34.538719
 30
0.0
  0
SEQEND
  5
4EA
100
AcDbEntity
  8
LAYER_1
 62
     7
  0
POLYLINE
  5
4D9
100
AcDbEntity
  8
LAYER_1
 62
     7
100
AcDb2dPolyline
 66
     1
 10
0.0
 20
0.0
 30
0.0
  0
VERTEX
  5
4DA
100
AcDbEntity
  8
LAYER_1
 62
     7
100
AcDbVertex
100
AcDb2dVertex
 10
73.848033
 20
-28.358217
 30
0.0
  0
VERTEX
  5
4DB
100
AcDbEntity
  8
LAYER_1
 62
     7
100
AcDbVertex
100
AcDb2dVertex
 10
73.763284
 20
-28.400248
 30
0.0
  0
VERTEX
  5
4DC
100
AcDbEntity
  8
LAYER_1
 62
     7
100
AcDbVertex
100
AcDb2dVertex
 10
73.63616
 20
-28.484997
 30
0.0
  0
VERTEX
  5
4DD
100
AcDbEntity
  8
LAYER_1
 62
     7
100
AcDbVertex
100
AcDb2dVertex
 10
73.551411
 20
-28.527027
 30
0.0
  0
VERTEX
  5
4DE
100
AcDbEntity
  8
LAYER_1
 62
     7
100
AcDbVertex
100
AcDb2dVertex
 10
73.212758
 20
-28.866024
 30
0.0
  0
VERTEX
  5
4DF
100
AcDbEntity
  8
LAYER_1
 62
     7
100
AcDbVertex
100
AcDb2dVertex
 10
73.128353
 20
-28.908399
 30
0.0
  0
VERTEX
  5
4E0
100
AcDbEntity
  8
LAYER_1
 62
     7
100
AcDbVertex
100
AcDb2dVertex
 10
72.95851
 20
-29.077553
 30
0.0
  0
SEQEND
  5
4E1
100
AcDbEntity
  8
LAYER_1
 62
     7
  0
LINE
  5
4D8
100
AcDbEntity
  8
LAYER_1
 62
     7
100
AcDbLine
 10
92.262758
 20
-14.430385
 30
0.0
 11
91.670201
 21
-14.726664
 31
0.0
  0
LINE
  5
4D7
100
AcDbEntity
  8
LAYER_1
 62
     7
100
AcDbLine
 10
93.40584
 20
-13.837829
 30
0.0
 11
92.855659
 21
-14.134107
 31
0.0
  0
LINE
  5
4D6
100
AcDbEntity
  8
LAYER_1
 62
     7
100
AcDbLine
 10
92.262758
 20
6.948155
 30
0.0
 11
91.670201
 21
7.244088
 31
0.0
  0
POLYLINE
  5
4D1
100
AcDbEntity
  8
LAYER_1
 62
     7
100
AcDb2dPolyline
 66
     1
 10
0.0
 20
0.0
 30
0.0
  0
VERTEX
  5
4D2
100
AcDbEntity
  8
LAYER_1
 62
     7
100
AcDbVertex
100
AcDb2dVertex
 10
93.40584
 20
4.111808
 30
0.0
  0
VERTEX
  5
4D3
100
AcDbEntity
  8
LAYER_1
 62
     7
100
AcDbVertex
100
AcDb2dVertex
 10
93.40584
 20
6.355082
 30
0.0
  0
VERTEX
  5
4D4
100
AcDbEntity
  8
LAYER_1
 62
     7
100
AcDbVertex
100
AcDb2dVertex
 10
92.855659
 20
6.651532
 30
0.0
  0
SEQEND
  5
4D5
100
AcDbEntity
  8
LAYER_1
 62
     7
  0
LINE
  5
4D0
100
AcDbEntity
  8
LAYER_1
 62
     7
100
AcDbLine
 10
93.40584
 20
-0.375774
 30
0.0
 11
93.40584
 21
1.868189
 31
0.0
  0
LINE
  5
4CF
100
AcDbEntity
  8
LAYER_1
 62
     7
100
AcDbLine
 10
93.40584
 20
-4.863011
 30
0.0
 11
93.40584
 21
-2.61922
 31
0.0
  0
LINE
  5
4CE
100
AcDbEntity
  8
LAYER_1
 62
     7
100
AcDbLine
 10
93.40584
 20
-9.350248
 30
0.0
 11
93.40584
 21
-7.106801
 31
0.0
  0
LINE
  5
4CD
100
AcDbEntity
  8
LAYER_1
 62
     7
100
AcDbLine
 10
93.40584
 20
-13.837829
 30
0.0
 11
93.40584
 21
-11.593694
 31
0.0
  0
LINE
  5
4CC
100
AcDbEntity
  8
LAYER_1
 62
     7
100
AcDbLine
 10
-14.641311
 20
-51.0204
 30
0.0
 11
-41.226596
 21
-51.0204
 31
0.0
  0
LINE
  5
4CB
100
AcDbEntity
  8
LAYER_1
 62
     7
100
AcDbLine
 10
103.354243
 20
6.355082
 30
0.0
 11
103.354243
 21
-13.837829
 31
0.0
  0
LINE
  5
4CA
100
AcDbEntity
  8
LAYER_1
 62
     7
100
AcDbLine
 10
103.354243
 20
6.355082
 30
0.0
 11
105.132256
 21
7.244088
 31
0.0
  0
LINE
  5
4C9
100
AcDbEntity
  8
LAYER_1
 62
     7
100
AcDbLine
 10
103.354243
 20
-13.837829
 30
0.0
 11
105.132256
 21
-14.768694
 31
0.0
  0
LINE
  5
4C8
100
AcDbEntity
  8
LAYER_1
 62
     7
100
AcDbLine
 10
105.132256
 20
-51.725956
 30
0.0
 11
105.132256
 21
17.785047
 31
0.0
  0
LINE
  5
4C7
100
AcDbEntity
  8
LAYER_1
 62
     7
100
AcDbLine
 10
-41.226596
 20
-51.0204
 30
0.0
 11
-14.641311
 21
-51.0204
 31
0.0
  0
LINE
  5
4C6
100
AcDbEntity
  8
LAYER_1
 62
     7
100
AcDbLine
 10
-15.064714
 20
-49.665788
 30
0.0
 11
-40.760647
 21
-49.665788
 31
0.0
  0
LINE
  5
4C5
100
AcDbEntity
  8
LAYER_1
 62
     7
100
AcDbLine
 10
-40.760647
 20
5.70637
 30
0.0
 11
-15.064714
 21
5.70637
 31
0.0
  0
LINE
  5
4C4
100
AcDbEntity
  8
LAYER_1
 62
     7
100
AcDbLine
 10
-14.641311
 20
7.018435
 30
0.0
 11
-41.226596
 21
7.018435
 31
0.0
  0
POLYLINE
  5
4B7
100
AcDbEntity
  8
LAYER_1
 62
     7
100
AcDb2dPolyline
 66
     1
 10
0.0
 20
0.0
 30
0.0
  0
VERTEX
  5
4B8
100
AcDbEntity
  8
LAYER_1
 62
     7
100
AcDbVertex
100
AcDb2dVertex
 10
91.670201
 20
-48.508581
 30
0.0
  0
VERTEX
  5
4B9
100
AcDbEntity
  8
LAYER_1
 62
     7
100
AcDbVertex
100
AcDb2dVertex
 10
91.543077
 20
-48.297052
 30
0.0
  0
VERTEX
  5
4BA
100
AcDbEntity
  8
LAYER_1
 62
     7
100
AcDbVertex
100
AcDb2dVertex
 10
91.373923
 20
-48.127898
 30
0.0
  0
VERTEX
  5
4BB
100
AcDbEntity
  8
LAYER_1
 62
     7
100
AcDbVertex
100
AcDb2dVertex
 10
91.204424
 20
-47.916024
 30
0.0
  0
VERTEX
  5
4BC
100
AcDbEntity
  8
LAYER_1
 62
     7
100
AcDbVertex
100
AcDb2dVertex
 10
90.992896
 20
-47.74687
 30
0.0
  0
VERTEX
  5
4BD
100
AcDbEntity
  8
LAYER_1
 62
     7
100
AcDbVertex
100
AcDb2dVertex
 10
90.781367
 20
-47.619746
 30
0.0
  0
VERTEX
  5
4BE
100
AcDbEntity
  8
LAYER_1
 62
     7
100
AcDbVertex
100
AcDb2dVertex
 10
90.527119
 20
-47.450248
 30
0.0
  0
VERTEX
  5
4BF
100
AcDbEntity
  8
LAYER_1
 62
     7
100
AcDbVertex
100
AcDb2dVertex
 10
90.273215
 20
-47.365843
 30
0.0
  0
VERTEX
  5
4C0
100
AcDbEntity
  8
LAYER_1
 62
     7
100
AcDbVertex
100
AcDb2dVertex
 10
89.976937
 20
-47.281093
 30
0.0
  0
VERTEX
  5
4C1
100
AcDbEntity
  8
LAYER_1
 62
     7
100
AcDbVertex
100
AcDb2dVertex
 10
89.723033
 20
-47.196344
 30
0.0
  0
VERTEX
  5
4C2
100
AcDbEntity
  8
LAYER_1
 62
     7
100
AcDbVertex
100
AcDb2dVertex
 10
89.426411
 20
-47.153969
 30
0.0
  0
SEQEND
  5
4C3
100
AcDbEntity
  8
LAYER_1
 62
     7
  0
POLYLINE
  5
4AC
100
AcDbEntity
  8
LAYER_1
 62
     7
100
AcDb2dPolyline
 66
     1
 10
0.0
 20
0.0
 30
0.0
  0
VERTEX
  5
4AD
100
AcDbEntity
  8
LAYER_1
 62
     7
100
AcDbVertex
100
AcDb2dVertex
 10
89.426411
 20
8.175814
 30
0.0
  0
VERTEX
  5
4AE
100
AcDbEntity
  8
LAYER_1
 62
     7
100
AcDbVertex
100
AcDb2dVertex
 10
89.723033
 20
8.218189
 30
0.0
  0
VERTEX
  5
4AF
100
AcDbEntity
  8
LAYER_1
 62
     7
100
AcDbVertex
100
AcDb2dVertex
 10
89.976937
 20
8.260047
 30
0.0
  0
VERTEX
  5
4B0
100
AcDbEntity
  8
LAYER_1
 62
     7
100
AcDbVertex
100
AcDb2dVertex
 10
90.273215
 20
8.345141
 30
0.0
  0
VERTEX
  5
4B1
100
AcDbEntity
  8
LAYER_1
 62
     7
100
AcDbVertex
100
AcDb2dVertex
 10
90.781367
 20
8.5987
 30
0.0
  0
VERTEX
  5
4B2
100
AcDbEntity
  8
LAYER_1
 62
     7
100
AcDbVertex
100
AcDb2dVertex
 10
91.204424
 20
8.93787
 30
0.0
  0
VERTEX
  5
4B3
100
AcDbEntity
  8
LAYER_1
 62
     7
100
AcDbVertex
100
AcDb2dVertex
 10
91.373923
 20
9.106852
 30
0.0
  0
VERTEX
  5
4B4
100
AcDbEntity
  8
LAYER_1
 62
     7
100
AcDbVertex
100
AcDb2dVertex
 10
91.543077
 20
9.31838
 30
0.0
  0
VERTEX
  5
4B5
100
AcDbEntity
  8
LAYER_1
 62
     7
100
AcDbVertex
100
AcDb2dVertex
 10
91.670201
 20
9.487879
 30
0.0
  0
SEQEND
  5
4B6
100
AcDbEntity
  8
LAYER_1
 62
     7
  0
POLYLINE
  5
49C
100
AcDbEntity
  8
LAYER_1
 62
     7
100
AcDb2dPolyline
 66
     1
 10
0.0
 20
0.0
 30
0.0
  0
VERTEX
  5
49D
100
AcDbEntity
  8
LAYER_1
 62
     7
100
AcDbVertex
100
AcDb2dVertex
 10
73.848033
 20
-43.174884
 30
0.0
  0
VERTEX
  5
49E
100
AcDbEntity
  8
LAYER_1
 62
     7
100
AcDbVertex
100
AcDb2dVertex
 10
73.848033
 20
-43.471162
 30
0.0
  0
VERTEX
  5
49F
100
AcDbEntity
  8
LAYER_1
 62
     7
100
AcDbVertex
100
AcDb2dVertex
 10
73.932438
 20
-43.76744
 30
0.0
  0
VERTEX
  5
4A0
100
AcDbEntity
  8
LAYER_1
 62
     7
100
AcDbVertex
100
AcDb2dVertex
 10
73.974813
 20
-44.106093
 30
0.0
  0
VERTEX
  5
4A1
100
AcDbEntity
  8
LAYER_1
 62
     7
100
AcDbVertex
100
AcDb2dVertex
 10
74.059562
 20
-44.444746
 30
0.0
  0
VERTEX
  5
4A2
100
AcDbEntity
  8
LAYER_1
 62
     7
100
AcDbVertex
100
AcDb2dVertex
 10
74.398215
 20
-45.206801
 30
0.0
  0
VERTEX
  5
4A3
100
AcDbEntity
  8
LAYER_1
 62
     7
100
AcDbVertex
100
AcDb2dVertex
 10
74.652119
 20
-45.587829
 30
0.0
  0
VERTEX
  5
4A4
100
AcDbEntity
  8
LAYER_1
 62
     7
100
AcDbVertex
100
AcDb2dVertex
 10
74.948397
 20
-45.926482
 30
0.0
  0
VERTEX
  5
4A5
100
AcDbEntity
  8
LAYER_1
 62
     7
100
AcDbVertex
100
AcDb2dVertex
 10
75.329424
 20
-46.265135
 30
0.0
  0
VERTEX
  5
4A6
100
AcDbEntity
  8
LAYER_1
 62
     7
100
AcDbVertex
100
AcDb2dVertex
 10
75.752827
 20
-46.561413
 30
0.0
  0
VERTEX
  5
4A7
100
AcDbEntity
  8
LAYER_1
 62
     7
100
AcDbVertex
100
AcDb2dVertex
 10
76.218604
 20
-46.815316
 30
0.0
  0
VERTEX
  5
4A8
100
AcDbEntity
  8
LAYER_1
 62
     7
100
AcDbVertex
100
AcDb2dVertex
 10
76.726411
 20
-46.984815
 30
0.0
  0
VERTEX
  5
4A9
100
AcDbEntity
  8
LAYER_1
 62
     7
100
AcDbVertex
100
AcDb2dVertex
 10
77.276937
 20
-47.111595
 30
0.0
  0
VERTEX
  5
4AA
100
AcDbEntity
  8
LAYER_1
 62
     7
100
AcDbVertex
100
AcDb2dVertex
 10
77.869493
 20
-47.153969
 30
0.0
  0
SEQEND
  5
4AB
100
AcDbEntity
  8
LAYER_1
 62
     7
  0
POLYLINE
  5
48B
100
AcDbEntity
  8
LAYER_1
 62
     7
100
AcDb2dPolyline
 66
     1
 10
0.0
 20
0.0
 30
0.0
  0
VERTEX
  5
48C
100
AcDbEntity
  8
LAYER_1
 62
     7
100
AcDbVertex
100
AcDb2dVertex
 10
77.869493
 20
8.175814
 30
0.0
  0
VERTEX
  5
48D
100
AcDbEntity
  8
LAYER_1
 62
     7
100
AcDbVertex
100
AcDb2dVertex
 10
77.276937
 20
8.133095
 30
0.0
  0
VERTEX
  5
48E
100
AcDbEntity
  8
LAYER_1
 62
     7
100
AcDbVertex
100
AcDb2dVertex
 10
76.726411
 20
8.006488
 30
0.0
  0
VERTEX
  5
48F
100
AcDbEntity
  8
LAYER_1
 62
     7
100
AcDbVertex
100
AcDb2dVertex
 10
76.218604
 20
7.794442
 30
0.0
  0
VERTEX
  5
490
100
AcDbEntity
  8
LAYER_1
 62
     7
100
AcDbVertex
100
AcDb2dVertex
 10
75.752827
 20
7.582741
 30
0.0
  0
VERTEX
  5
491
100
AcDbEntity
  8
LAYER_1
 62
     7
100
AcDbVertex
100
AcDb2dVertex
 10
75.329424
 20
7.244088
 30
0.0
  0
VERTEX
  5
492
100
AcDbEntity
  8
LAYER_1
 62
     7
100
AcDbVertex
100
AcDb2dVertex
 10
74.948397
 20
6.948155
 30
0.0
  0
VERTEX
  5
493
100
AcDbEntity
  8
LAYER_1
 62
     7
100
AcDbVertex
100
AcDb2dVertex
 10
74.652119
 20
6.566783
 30
0.0
  0
VERTEX
  5
494
100
AcDbEntity
  8
LAYER_1
 62
     7
100
AcDbVertex
100
AcDb2dVertex
 10
74.398215
 20
6.185755
 30
0.0
  0
VERTEX
  5
495
100
AcDbEntity
  8
LAYER_1
 62
     7
100
AcDbVertex
100
AcDb2dVertex
 10
74.228716
 20
5.847102
 30
0.0
  0
VERTEX
  5
496
100
AcDbEntity
  8
LAYER_1
 62
     7
100
AcDbVertex
100
AcDb2dVertex
 10
74.059562
 20
5.466075
 30
0.0
  0
VERTEX
  5
497
100
AcDbEntity
  8
LAYER_1
 62
     7
100
AcDbVertex
100
AcDb2dVertex
 10
73.974813
 20
5.127422
 30
0.0
  0
VERTEX
  5
498
100
AcDbEntity
  8
LAYER_1
 62
     7
100
AcDbVertex
100
AcDb2dVertex
 10
73.932438
 20
4.788769
 30
0.0
  0
VERTEX
  5
499
100
AcDbEntity
  8
LAYER_1
 62
     7
100
AcDbVertex
100
AcDb2dVertex
 10
73.848033
 20
4.492835
 30
0.0
  0
VERTEX
  5
49A
100
AcDbEntity
  8
LAYER_1
 62
     7
100
AcDbVertex
100
AcDb2dVertex
 10
73.848033
 20
4.196212
 30
0.0
  0
SEQEND
  5
49B
100
AcDbEntity
  8
LAYER_1
 62
     7
  0
LINE
  5
48A
100
AcDbEntity
  8
LAYER_1
 62
     7
100
AcDbLine
 10
91.670201
 20
9.487879
 30
0.0
 11
91.670201
 21
-48.508581
 31
0.0
  0
LINE
  5
489
100
AcDbEntity
  8
LAYER_1
 62
     7
100
AcDbLine
 10
73.848033
 20
-43.174884
 30
0.0
 11
73.848033
 21
4.196212
 31
0.0
  0
ENDBLK
  5
50B
100
AcDbEntity
  8
LAYER_1
100
AcDbBlockEnd
  0
ENDSEC
  0
SECTION
  2
ENTITIES
  0
POLYLINE
  5
617
100
AcDbEntity
  8
LAYER_1
 62
     7
100
AcDb2dPolyline
 66
     1
 10
0.0
 20
0.0
 30
0.0
  0
VERTEX
  5
618
100
AcDbEntity
  8
LAYER_1
 62
     7
100
AcDbVertex
100
AcDb2dVertex
 10
77.540314
 20
134.690487
 30
0.0
  0
VERTEX
  5
619
100
AcDbEntity
  8
LAYER_1
 62
     7
100
AcDbVertex
100
AcDb2dVertex
 10
77.583034
 20
134.648456
 30
0.0
  0
VERTEX
  5
61A
100
AcDbEntity
  8
LAYER_1
 62
     7
100
AcDbVertex
100
AcDb2dVertex
 10
77.836937
 20
134.605737
 30
0.0
  0
VERTEX
  5
61B
100
AcDbEntity
  8
LAYER_1
 62
     7
100
AcDbVertex
100
AcDb2dVertex
 10
78.048638
 20
134.648456
 30
0.0
  0
VERTEX
  5
61C
100
AcDbEntity
  8
LAYER_1
 62
     7
100
AcDbVertex
100
AcDb2dVertex
 10
78.217965
 20
134.732861
 30
0.0
  0
VERTEX
  5
61D
100
AcDbEntity
  8
LAYER_1
 62
     7
100
AcDbVertex
100
AcDb2dVertex
 10
78.344916
 20
134.902016
 30
0.0
  0
VERTEX
  5
61E
100
AcDbEntity
  8
LAYER_1
 62
     7
100
AcDbVertex
100
AcDb2dVertex
 10
78.429666
 20
135.156264
 30
0.0
  0
SEQEND
  5
61F
100
AcDbEntity
  8
LAYER_1
 62
     7
  0
POLYLINE
  5
60E
100
AcDbEntity
  8
LAYER_1
 62
     7
100
AcDb2dPolyline
 66
     1
 10
0.0
 20
0.0
 30
0.0
  0
VERTEX
  5
60F
100
AcDbEntity
  8
LAYER_1
 62
     7
100
AcDbVertex
100
AcDb2dVertex
 10
78.429666
 20
135.198638
 30
0.0
  0
VERTEX
  5
610
100
AcDbEntity
  8
LAYER_1
 62
     7
100
AcDbVertex
100
AcDb2dVertex
 10
78.429666
 20
135.325762
 30
0.0
  0
VERTEX
  5
611
100
AcDbEntity
  8
LAYER_1
 62
     7
100
AcDbVertex
100
AcDb2dVertex
 10
78.344916
 20
135.452542
 30
0.0
  0
VERTEX
  5
612
100
AcDbEntity
  8
LAYER_1
 62
     7
100
AcDbVertex
100
AcDb2dVertex
 10
78.260339
 20
135.62204
 30
0.0
  0
VERTEX
  5
613
100
AcDbEntity
  8
LAYER_1
 62
     7
100
AcDbVertex
100
AcDb2dVertex
 10
77.836937
 20
135.791195
 30
0.0
  0
VERTEX
  5
614
100
AcDbEntity
  8
LAYER_1
 62
     7
100
AcDbVertex
100
AcDb2dVertex
 10
77.583034
 20
135.74882
 30
0.0
  0
VERTEX
  5
615
100
AcDbEntity
  8
LAYER_1
 62
     7
100
AcDbVertex
100
AcDb2dVertex
 10
77.540314
 20
135.70679
 30
0.0
  0
SEQEND
  5
616
100
AcDbEntity
  8
LAYER_1
 62
     7
  0
POLYLINE
  5
605
100
AcDbEntity
  8
LAYER_1
 62
     7
100
AcDb2dPolyline
 66
     1
 10
0.0
 20
0.0
 30
0.0
  0
VERTEX
  5
606
100
AcDbEntity
  8
LAYER_1
 62
     7
100
AcDbVertex
100
AcDb2dVertex
 10
82.57825
 20
145.400944
 30
0.0
  0
VERTEX
  5
607
100
AcDbEntity
  8
LAYER_1
 62
     7
100
AcDbVertex
100
AcDb2dVertex
 10
82.620624
 20
145.358569
 30
0.0
  0
VERTEX
  5
608
100
AcDbEntity
  8
LAYER_1
 62
     7
100
AcDbVertex
100
AcDb2dVertex
 10
82.8747
 20
145.316195
 30
0.0
  0
VERTEX
  5
609
100
AcDbEntity
  8
LAYER_1
 62
     7
100
AcDbVertex
100
AcDb2dVertex
 10
83.086401
 20
145.316195
 30
0.0
  0
VERTEX
  5
60A
100
AcDbEntity
  8
LAYER_1
 62
     7
100
AcDbVertex
100
AcDb2dVertex
 10
83.255728
 20
145.443319
 30
0.0
  0
VERTEX
  5
60B
100
AcDbEntity
  8
LAYER_1
 62
     7
100
AcDbVertex
100
AcDb2dVertex
 10
83.38268
 20
145.612473
 30
0.0
  0
VERTEX
  5
60C
100
AcDbEntity
  8
LAYER_1
 62
     7
100
AcDbVertex
100
AcDb2dVertex
 10
83.467257
 20
145.866376
 30
0.0
  0
SEQEND
  5
60D
100
AcDbEntity
  8
LAYER_1
 62
     7
  0
POLYLINE
  5
5FB
100
AcDbEntity
  8
LAYER_1
 62
     7
100
AcDb2dPolyline
 66
     1
 10
0.0
 20
0.0
 30
0.0
  0
VERTEX
  5
5FC
100
AcDbEntity
  8
LAYER_1
 62
     7
100
AcDbVertex
100
AcDb2dVertex
 10
83.467257
 20
145.909096
 30
0.0
  0
VERTEX
  5
5FD
100
AcDbEntity
  8
LAYER_1
 62
     7
100
AcDbVertex
100
AcDb2dVertex
 10
83.467257
 20
145.9935
 30
0.0
  0
VERTEX
  5
5FE
100
AcDbEntity
  8
LAYER_1
 62
     7
100
AcDbVertex
100
AcDb2dVertex
 10
83.38268
 20
146.16231
 30
0.0
  0
VERTEX
  5
5FF
100
AcDbEntity
  8
LAYER_1
 62
     7
100
AcDbVertex
100
AcDb2dVertex
 10
83.29793
 20
146.290123
 30
0.0
  0
VERTEX
  5
600
100
AcDbEntity
  8
LAYER_1
 62
     7
100
AcDbVertex
100
AcDb2dVertex
 10
83.086401
 20
146.416903
 30
0.0
  0
VERTEX
  5
601
100
AcDbEntity
  8
LAYER_1
 62
     7
100
AcDbVertex
100
AcDb2dVertex
 10
82.8747
 20
146.459277
 30
0.0
  0
VERTEX
  5
602
100
AcDbEntity
  8
LAYER_1
 62
     7
100
AcDbVertex
100
AcDb2dVertex
 10
82.662999
 20
146.459277
 30
0.0
  0
VERTEX
  5
603
100
AcDbEntity
  8
LAYER_1
 62
     7
100
AcDbVertex
100
AcDb2dVertex
 10
82.57825
 20
146.416903
 30
0.0
  0
SEQEND
  5
604
100
AcDbEntity
  8
LAYER_1
 62
     7
  0
POLYLINE
  5
5F1
100
AcDbEntity
  8
LAYER_1
 62
     7
100
AcDb2dPolyline
 66
     1
 10
0.0
 20
0.0
 30
0.0
  0
VERTEX
  5
5F2
100
AcDbEntity
  8
LAYER_1
 62
     7
100
AcDbVertex
100
AcDb2dVertex
 10
72.291367
 20
145.400944
 30
0.0
  0
VERTEX
  5
5F3
100
AcDbEntity
  8
LAYER_1
 62
     7
100
AcDbVertex
100
AcDb2dVertex
 10
72.333742
 20
145.358569
 30
0.0
  0
VERTEX
  5
5F4
100
AcDbEntity
  8
LAYER_1
 62
     7
100
AcDbVertex
100
AcDb2dVertex
 10
72.54527
 20
145.316195
 30
0.0
  0
VERTEX
  5
5F5
100
AcDbEntity
  8
LAYER_1
 62
     7
100
AcDbVertex
100
AcDb2dVertex
 10
72.756972
 20
145.316195
 30
0.0
  0
VERTEX
  5
5F6
100
AcDbEntity
  8
LAYER_1
 62
     7
100
AcDbVertex
100
AcDb2dVertex
 10
72.968673
 20
145.443319
 30
0.0
  0
VERTEX
  5
5F7
100
AcDbEntity
  8
LAYER_1
 62
     7
100
AcDbVertex
100
AcDb2dVertex
 10
73.05325
 20
145.612473
 30
0.0
  0
VERTEX
  5
5F8
100
AcDbEntity
  8
LAYER_1
 62
     7
100
AcDbVertex
100
AcDb2dVertex
 10
73.137999
 20
145.739597
 30
0.0
  0
VERTEX
  5
5F9
100
AcDbEntity
  8
LAYER_1
 62
     7
100
AcDbVertex
100
AcDb2dVertex
 10
73.137999
 20
145.866376
 30
0.0
  0
SEQEND
  5
5FA
100
AcDbEntity
  8
LAYER_1
 62
     7
  0
POLYLINE
  5
5E7
100
AcDbEntity
  8
LAYER_1
 62
     7
100
AcDb2dPolyline
 66
     1
 10
0.0
 20
0.0
 30
0.0
  0
VERTEX
  5
5E8
100
AcDbEntity
  8
LAYER_1
 62
     7
100
AcDbVertex
100
AcDb2dVertex
 10
73.137999
 20
145.909096
 30
0.0
  0
VERTEX
  5
5E9
100
AcDbEntity
  8
LAYER_1
 62
     7
100
AcDbVertex
100
AcDb2dVertex
 10
73.137999
 20
145.9935
 30
0.0
  0
VERTEX
  5
5EA
100
AcDbEntity
  8
LAYER_1
 62
     7
100
AcDbVertex
100
AcDb2dVertex
 10
73.095624
 20
146.16231
 30
0.0
  0
VERTEX
  5
5EB
100
AcDbEntity
  8
LAYER_1
 62
     7
100
AcDbVertex
100
AcDb2dVertex
 10
73.011047
 20
146.290123
 30
0.0
  0
VERTEX
  5
5EC
100
AcDbEntity
  8
LAYER_1
 62
     7
100
AcDbVertex
100
AcDb2dVertex
 10
72.799346
 20
146.416903
 30
0.0
  0
VERTEX
  5
5ED
100
AcDbEntity
  8
LAYER_1
 62
     7
100
AcDbVertex
100
AcDb2dVertex
 10
72.587301
 20
146.459277
 30
0.0
  0
VERTEX
  5
5EE
100
AcDbEntity
  8
LAYER_1
 62
     7
100
AcDbVertex
100
AcDb2dVertex
 10
72.333742
 20
146.459277
 30
0.0
  0
VERTEX
  5
5EF
100
AcDbEntity
  8
LAYER_1
 62
     7
100
AcDbVertex
100
AcDb2dVertex
 10
72.291367
 20
146.416903
 30
0.0
  0
SEQEND
  5
5F0
100
AcDbEntity
  8
LAYER_1
 62
     7
  0
LINE
  5
5E6
100
AcDbEntity
  8
LAYER_1
 62
     7
100
AcDbLine
 10
81.392965
 20
131.134459
 30
0.0
 11
81.689415
 21
131.04971
 31
0.0
  0
LINE
  5
5E5
100
AcDbEntity
  8
LAYER_1
 62
     7
100
AcDbLine
 10
80.842611
 20
131.261583
 30
0.0
 11
81.096686
 21
131.219208
 31
0.0
  0
LINE
  5
5E4
100
AcDbEntity
  8
LAYER_1
 62
     7
100
AcDbLine
 10
74.323284
 20
131.219208
 30
0.0
 11
74.619735
 21
131.261583
 31
0.0
  0
LINE
  5
5E3
100
AcDbEntity
  8
LAYER_1
 62
     7
100
AcDbLine
 10
74.027006
 20
131.134459
 30
0.0
 11
73.77293
 21
131.04971
 31
0.0
  0
LINE
  5
5E2
100
AcDbEntity
  8
LAYER_1
 62
     7
100
AcDbLine
 10
87.108034
 20
153.274882
 30
0.0
 11
87.403967
 21
153.190133
 31
0.0
  0
LINE
  5
5E1
100
AcDbEntity
  8
LAYER_1
 62
     7
100
AcDbLine
 10
86.515305
 20
153.401834
 30
0.0
 11
86.811583
 21
153.317084
 31
0.0
  0
LINE
  5
5E0
100
AcDbEntity
  8
LAYER_1
 62
     7
100
AcDbLine
 10
68.184641
 20
153.274882
 30
0.0
 11
67.888707
 21
153.190133
 31
0.0
  0
LINE
  5
5DF
100
AcDbEntity
  8
LAYER_1
 62
     7
100
AcDbLine
 10
68.777714
 20
153.401834
 30
0.0
 11
68.481264
 21
153.359459
 31
0.0
  0
LINE
  5
5DE
100
AcDbEntity
  8
LAYER_1
 62
     7
100
AcDbLine
 10
86.006981
 20
151.369744
 30
0.0
 11
86.515305
 21
153.401834
 31
0.0
  0
LINE
  5
5DD
100
AcDbEntity
  8
LAYER_1
 62
     7
100
AcDbLine
 10
84.991367
 20
147.348456
 30
0.0
 11
85.499346
 21
149.337482
 31
0.0
  0
LINE
  5
5DC
100
AcDbEntity
  8
LAYER_1
 62
     7
100
AcDbLine
 10
83.933034
 20
143.326652
 30
0.0
 11
84.441013
 21
145.316195
 31
0.0
  0
LINE
  5
5DB
100
AcDbEntity
  8
LAYER_1
 62
     7
100
AcDbLine
 10
82.917075
 20
139.304848
 30
0.0
 11
83.425054
 21
141.294735
 31
0.0
  0
LINE
  5
5DA
100
AcDbEntity
  8
LAYER_1
 62
     7
100
AcDbLine
 10
81.858742
 20
135.283043
 30
0.0
 11
82.408923
 21
137.315305
 31
0.0
  0
LINE
  5
5D9
100
AcDbEntity
  8
LAYER_1
 62
     7
100
AcDbLine
 10
80.842611
 20
131.261583
 30
0.0
 11
81.35059
 21
133.251126
 31
0.0
  0
LINE
  5
5D8
100
AcDbEntity
  8
LAYER_1
 62
     7
100
AcDbLine
 10
74.111583
 20
133.2935
 30
0.0
 11
74.619735
 21
131.261583
 31
0.0
  0
LINE
  5
5D7
100
AcDbEntity
  8
LAYER_1
 62
     7
100
AcDbLine
 10
73.011047
 20
137.315305
 30
0.0
 11
73.561401
 21
135.325762
 31
0.0
  0
LINE
  5
5D6
100
AcDbEntity
  8
LAYER_1
 62
     7
100
AcDbLine
 10
71.952714
 20
141.336765
 30
0.0
 11
72.503068
 21
139.347222
 31
0.0
  0
LINE
  5
5D5
100
AcDbEntity
  8
LAYER_1
 62
     7
100
AcDbLine
 10
70.894381
 20
145.358569
 30
0.0
 11
71.444735
 21
143.368682
 31
0.0
  0
LINE
  5
5D4
100
AcDbEntity
  8
LAYER_1
 62
     7
100
AcDbLine
 10
69.836047
 20
149.380546
 30
0.0
 11
70.386401
 21
147.390487
 31
0.0
  0
LINE
  5
5D3
100
AcDbEntity
  8
LAYER_1
 62
     7
100
AcDbLine
 10
69.285693
 20
151.412119
 30
0.0
 11
68.777714
 21
153.401834
 31
0.0
  0
POLYLINE
  5
5C9
100
AcDbEntity
  8
LAYER_1
 62
     7
100
AcDb2dPolyline
 66
     1
 10
0.0
 20
0.0
 30
0.0
  0
VERTEX
  5
5CA
100
AcDbEntity
  8
LAYER_1
 62
     7
100
AcDbVertex
100
AcDb2dVertex
 10
78.302714
 20
150.480737
 30
0.0
  0
VERTEX
  5
5CB
100
AcDbEntity
  8
LAYER_1
 62
     7
100
AcDbVertex
100
AcDb2dVertex
 10
78.217965
 20
150.650236
 30
0.0
  0
VERTEX
  5
5CC
100
AcDbEntity
  8
LAYER_1
 62
     7
100
AcDbVertex
100
AcDb2dVertex
 10
78.091013
 20
150.734813
 30
0.0
  0
VERTEX
  5
5CD
100
AcDbEntity
  8
LAYER_1
 62
     7
100
AcDbVertex
100
AcDb2dVertex
 10
77.836937
 20
150.819907
 30
0.0
  0
VERTEX
  5
5CE
100
AcDbEntity
  8
LAYER_1
 62
     7
100
AcDbVertex
100
AcDb2dVertex
 10
77.709641
 20
150.819907
 30
0.0
  0
VERTEX
  5
5CF
100
AcDbEntity
  8
LAYER_1
 62
     7
100
AcDbVertex
100
AcDb2dVertex
 10
77.583034
 20
150.777188
 30
0.0
  0
VERTEX
  5
5D0
100
AcDbEntity
  8
LAYER_1
 62
     7
100
AcDbVertex
100
AcDb2dVertex
 10
77.413707
 20
150.607861
 30
0.0
  0
VERTEX
  5
5D1
100
AcDbEntity
  8
LAYER_1
 62
     7
100
AcDbVertex
100
AcDb2dVertex
 10
77.371332
 20
150.523456
 30
0.0
  0
SEQEND
  5
5D2
100
AcDbEntity
  8
LAYER_1
 62
     7
  0
LINE
  5
5C8
100
AcDbEntity
  8
LAYER_1
 62
     7
100
AcDbLine
 10
78.302714
 20
150.480737
 30
0.0
 11
79.361047
 21
147.602016
 31
0.0
  0
POLYLINE
  5
5C3
100
AcDbEntity
  8
LAYER_1
 62
     7
100
AcDb2dPolyline
 66
     1
 10
0.0
 20
0.0
 30
0.0
  0
VERTEX
  5
5C4
100
AcDbEntity
  8
LAYER_1
 62
     7
100
AcDbVertex
100
AcDb2dVertex
 10
79.361047
 20
147.602016
 30
0.0
  0
VERTEX
  5
5C5
100
AcDbEntity
  8
LAYER_1
 62
     7
100
AcDbVertex
100
AcDb2dVertex
 10
75.974346
 20
147.602016
 30
0.0
  0
VERTEX
  5
5C6
100
AcDbEntity
  8
LAYER_1
 62
     7
100
AcDbVertex
100
AcDb2dVertex
 10
77.371332
 20
150.523456
 30
0.0
  0
SEQEND
  5
5C7
100
AcDbEntity
  8
LAYER_1
 62
     7
  0
LINE
  5
5C2
100
AcDbEntity
  8
LAYER_1
 62
     7
100
AcDbLine
 10
86.853958
 20
151.158215
 30
0.0
 11
87.403967
 21
153.190133
 31
0.0
  0
LINE
  5
5C1
100
AcDbEntity
  8
LAYER_1
 62
     7
100
AcDbLine
 10
85.837999
 20
147.136583
 30
0.0
 11
86.345634
 21
149.126126
 31
0.0
  0
LINE
  5
5C0
100
AcDbEntity
  8
LAYER_1
 62
     7
100
AcDbLine
 10
84.779666
 20
143.072404
 30
0.0
 11
85.287301
 21
145.103977
 31
0.0
  0
LINE
  5
5BF
100
AcDbEntity
  8
LAYER_1
 62
     7
100
AcDbLine
 10
83.763707
 20
139.093319
 30
0.0
 11
84.314061
 21
141.082861
 31
0.0
  0
LINE
  5
5BE
100
AcDbEntity
  8
LAYER_1
 62
     7
100
AcDbLine
 10
82.747748
 20
135.02914
 30
0.0
 11
83.255728
 21
137.061401
 31
0.0
  0
LINE
  5
5BD
100
AcDbEntity
  8
LAYER_1
 62
     7
100
AcDbLine
 10
81.689415
 20
131.04971
 30
0.0
 11
82.197394
 21
133.039597
 31
0.0
  0
LINE
  5
5BC
100
AcDbEntity
  8
LAYER_1
 62
     7
100
AcDbLine
 10
73.222748
 20
133.081972
 30
0.0
 11
73.77293
 21
131.04971
 31
0.0
  0
LINE
  5
5BB
100
AcDbEntity
  8
LAYER_1
 62
     7
100
AcDbLine
 10
72.164415
 20
137.061401
 30
0.0
 11
72.672394
 21
135.071514
 31
0.0
  0
LINE
  5
5BA
100
AcDbEntity
  8
LAYER_1
 62
     7
100
AcDbLine
 10
71.106082
 20
141.082861
 30
0.0
 11
71.614061
 21
139.135349
 31
0.0
  0
LINE
  5
5B9
100
AcDbEntity
  8
LAYER_1
 62
     7
100
AcDbLine
 10
70.005374
 20
145.14704
 30
0.0
 11
70.555728
 21
143.115123
 31
0.0
  0
LINE
  5
5B8
100
AcDbEntity
  8
LAYER_1
 62
     7
100
AcDbLine
 10
68.94704
 20
149.1685
 30
0.0
 11
69.497394
 21
147.136583
 31
0.0
  0
LINE
  5
5B7
100
AcDbEntity
  8
LAYER_1
 62
     7
100
AcDbLine
 10
67.888707
 20
153.190133
 30
0.0
 11
68.439061
 21
151.158215
 31
0.0
  0
LINE
  5
5B6
100
AcDbEntity
  8
LAYER_1
 62
     7
100
AcDbLine
 10
70.767257
 20
153.190133
 30
0.0
 11
68.819916
 21
153.190133
 31
0.0
  0
LINE
  5
5B5
100
AcDbEntity
  8
LAYER_1
 62
     7
100
AcDbLine
 10
74.703967
 20
153.190133
 30
0.0
 11
72.756972
 21
153.190133
 31
0.0
  0
LINE
  5
5B4
100
AcDbEntity
  8
LAYER_1
 62
     7
100
AcDbLine
 10
78.641367
 20
153.190133
 30
0.0
 11
76.694027
 21
153.190133
 31
0.0
  0
LINE
  5
5B3
100
AcDbEntity
  8
LAYER_1
 62
     7
100
AcDbLine
 10
82.536047
 20
153.190133
 30
0.0
 11
80.588707
 21
153.190133
 31
0.0
  0
LINE
  5
5B2
100
AcDbEntity
  8
LAYER_1
 62
     7
100
AcDbLine
 10
86.47293
 20
153.190133
 30
0.0
 11
84.52559
 21
153.190133
 31
0.0
  0
LINE
  5
5B1
100
AcDbEntity
  8
LAYER_1
 62
     7
100
AcDbLine
 10
200.44668
 20
157.987945
 30
0.0
 11
200.44668
 21
99.991485
 31
0.0
  0
POLYLINE
  5
585
100
AcDbEntity
  8
LAYER_1
 62
     7
100
AcDb2dPolyline
 66
     1
 10
0.0
 20
0.0
 30
0.0
  0
VERTEX
  5
586
100
AcDbEntity
  8
LAYER_1
 62
     7
100
AcDbVertex
100
AcDb2dVertex
 10
80.292257
 20
114.497404
 30
0.0
  0
VERTEX
  5
587
100
AcDbEntity
  8
LAYER_1
 62
     7
100
AcDbVertex
100
AcDb2dVertex
 10
80.249882
 20
114.751652
 30
0.0
  0
VERTEX
  5
588
100
AcDbEntity
  8
LAYER_1
 62
     7
100
AcDbVertex
100
AcDb2dVertex
 10
80.249882
 20
115.090305
 30
0.0
  0
VERTEX
  5
589
100
AcDbEntity
  8
LAYER_1
 62
     7
100
AcDbVertex
100
AcDb2dVertex
 10
79.995978
 20
115.767611
 30
0.0
  0
VERTEX
  5
58A
100
AcDbEntity
  8
LAYER_1
 62
     7
100
AcDbVertex
100
AcDb2dVertex
 10
79.826652
 20
116.106264
 30
0.0
  0
VERTEX
  5
58B
100
AcDbEntity
  8
LAYER_1
 62
     7
100
AcDbVertex
100
AcDb2dVertex
 10
79.572576
 20
116.444916
 30
0.0
  0
VERTEX
  5
58C
100
AcDbEntity
  8
LAYER_1
 62
     7
100
AcDbVertex
100
AcDb2dVertex
 10
79.233923
 20
116.783569
 30
0.0
  0
VERTEX
  5
58D
100
AcDbEntity
  8
LAYER_1
 62
     7
100
AcDbVertex
100
AcDb2dVertex
 10
78.810521
 20
117.079848
 30
0.0
  0
VERTEX
  5
58E
100
AcDbEntity
  8
LAYER_1
 62
     7
100
AcDbVertex
100
AcDb2dVertex
 10
78.344916
 20
117.291376
 30
0.0
  0
VERTEX
  5
58F
100
AcDbEntity
  8
LAYER_1
 62
     7
100
AcDbVertex
100
AcDb2dVertex
 10
77.836937
 20
117.4185
 30
0.0
  0
VERTEX
  5
590
100
AcDbEntity
  8
LAYER_1
 62
     7
100
AcDbVertex
100
AcDb2dVertex
 10
77.286583
 20
117.50325
 30
0.0
  0
VERTEX
  5
591
100
AcDbEntity
  8
LAYER_1
 62
     7
100
AcDbVertex
100
AcDb2dVertex
 10
76.778604
 20
117.4185
 30
0.0
  0
VERTEX
  5
592
100
AcDbEntity
  8
LAYER_1
 62
     7
100
AcDbVertex
100
AcDb2dVertex
 10
76.22825
 20
117.291376
 30
0.0
  0
VERTEX
  5
593
100
AcDbEntity
  8
LAYER_1
 62
     7
100
AcDbVertex
100
AcDb2dVertex
 10
75.762645
 20
117.079848
 30
0.0
  0
VERTEX
  5
594
100
AcDbEntity
  8
LAYER_1
 62
     7
100
AcDbVertex
100
AcDb2dVertex
 10
75.381618
 20
116.783569
 30
0.0
  0
VERTEX
  5
595
100
AcDbEntity
  8
LAYER_1
 62
     7
100
AcDbVertex
100
AcDb2dVertex
 10
75.042965
 20
116.444916
 30
0.0
  0
VERTEX
  5
596
100
AcDbEntity
  8
LAYER_1
 62
     7
100
AcDbVertex
100
AcDb2dVertex
 10
74.788889
 20
116.106264
 30
0.0
  0
VERTEX
  5
597
100
AcDbEntity
  8
LAYER_1
 62
     7
100
AcDbVertex
100
AcDb2dVertex
 10
74.577188
 20
115.767611
 30
0.0
  0
VERTEX
  5
598
100
AcDbEntity
  8
LAYER_1
 62
     7
100
AcDbVertex
100
AcDb2dVertex
 10
74.450236
 20
115.428958
 30
0.0
  0
VERTEX
  5
599
100
AcDbEntity
  8
LAYER_1
 62
     7
100
AcDbVertex
100
AcDb2dVertex
 10
74.365659
 20
115.090305
 30
0.0
  0
VERTEX
  5
59A
100
AcDbEntity
  8
LAYER_1
 62
     7
100
AcDbVertex
100
AcDb2dVertex
 10
74.323284
 20
114.751652
 30
0.0
  0
VERTEX
  5
59B
100
AcDbEntity
  8
LAYER_1
 62
     7
100
AcDbVertex
100
AcDb2dVertex
 10
74.323284
 20
114.201126
 30
0.0
  0
VERTEX
  5
59C
100
AcDbEntity
  8
LAYER_1
 62
     7
100
AcDbVertex
100
AcDb2dVertex
 10
74.365659
 20
113.904848
 30
0.0
  0
VERTEX
  5
59D
100
AcDbEntity
  8
LAYER_1
 62
     7
100
AcDbVertex
100
AcDb2dVertex
 10
74.450236
 20
113.566195
 30
0.0
  0
VERTEX
  5
59E
100
AcDbEntity
  8
LAYER_1
 62
     7
100
AcDbVertex
100
AcDb2dVertex
 10
74.577188
 20
113.227542
 30
0.0
  0
VERTEX
  5
59F
100
AcDbEntity
  8
LAYER_1
 62
     7
100
AcDbVertex
100
AcDb2dVertex
 10
74.788889
 20
112.846514
 30
0.0
  0
VERTEX
  5
5A0
100
AcDbEntity
  8
LAYER_1
 62
     7
100
AcDbVertex
100
AcDb2dVertex
 10
75.042965
 20
112.507861
 30
0.0
  0
VERTEX
  5
5A1
100
AcDbEntity
  8
LAYER_1
 62
     7
100
AcDbVertex
100
AcDb2dVertex
 10
75.381618
 20
112.211583
 30
0.0
  0
VERTEX
  5
5A2
100
AcDbEntity
  8
LAYER_1
 62
     7
100
AcDbVertex
100
AcDb2dVertex
 10
75.762645
 20
111.915305
 30
0.0
  0
VERTEX
  5
5A3
100
AcDbEntity
  8
LAYER_1
 62
     7
100
AcDbVertex
100
AcDb2dVertex
 10
76.22825
 20
111.703432
 30
0.0
  0
VERTEX
  5
5A4
100
AcDbEntity
  8
LAYER_1
 62
     7
100
AcDbVertex
100
AcDb2dVertex
 10
76.778604
 20
111.534277
 30
0.0
  0
VERTEX
  5
5A5
100
AcDbEntity
  8
LAYER_1
 62
     7
100
AcDbVertex
100
AcDb2dVertex
 10
77.286583
 20
111.491903
 30
0.0
  0
VERTEX
  5
5A6
100
AcDbEntity
  8
LAYER_1
 62
     7
100
AcDbVertex
100
AcDb2dVertex
 10
77.836937
 20
111.534277
 30
0.0
  0
VERTEX
  5
5A7
100
AcDbEntity
  8
LAYER_1
 62
     7
100
AcDbVertex
100
AcDb2dVertex
 10
78.344916
 20
111.703432
 30
0.0
  0
VERTEX
  5
5A8
100
AcDbEntity
  8
LAYER_1
 62
     7
100
AcDbVertex
100
AcDb2dVertex
 10
78.810521
 20
111.915305
 30
0.0
  0
VERTEX
  5
5A9
100
AcDbEntity
  8
LAYER_1
 62
     7
100
AcDbVertex
100
AcDb2dVertex
 10
79.233923
 20
112.211583
 30
0.0
  0
VERTEX
  5
5AA
100
AcDbEntity
  8
LAYER_1
 62
     7
100
AcDbVertex
100
AcDb2dVertex
 10
79.572576
 20
112.507861
 30
0.0
  0
VERTEX
  5
5AB
100
AcDbEntity
  8
LAYER_1
 62
     7
100
AcDbVertex
100
AcDb2dVertex
 10
79.826652
 20
112.846514
 30
0.0
  0
VERTEX
  5
5AC
100
AcDbEntity
  8
LAYER_1
 62
     7
100
AcDbVertex
100
AcDb2dVertex
 10
79.995978
 20
113.227542
 30
0.0
  0
VERTEX
  5
5AD
100
AcDbEntity
  8
LAYER_1
 62
     7
100
AcDbVertex
100
AcDb2dVertex
 10
80.249882
 20
113.904848
 30
0.0
  0
VERTEX
  5
5AE
100
AcDbEntity
  8
LAYER_1
 62
     7
100
AcDbVertex
100
AcDb2dVertex
 10
80.249882
 20
114.201126
 30
0.0
  0
VERTEX
  5
5AF
100
AcDbEntity
  8
LAYER_1
 62
     7
100
AcDbVertex
100
AcDb2dVertex
 10
80.292257
 20
114.497404
 30
0.0
  0
SEQEND
  5
5B0
100
AcDbEntity
  8
LAYER_1
 62
     7
  0
POLYLINE
  5
579
100
AcDbEntity
  8
LAYER_1
 62
     7
100
AcDb2dPolyline
 66
     1
 10
0.0
 20
0.0
 30
0.0
  0
VERTEX
  5
57A
100
AcDbEntity
  8
LAYER_1
 62
     7
100
AcDbVertex
100
AcDb2dVertex
 10
64.459631
 20
154.206436
 30
0.0
  0
VERTEX
  5
57B
100
AcDbEntity
  8
LAYER_1
 62
     7
100
AcDbVertex
100
AcDb2dVertex
 10
63.909277
 20
154.121342
 30
0.0
  0
VERTEX
  5
57C
100
AcDbEntity
  8
LAYER_1
 62
     7
100
AcDbVertex
100
AcDb2dVertex
 10
63.443673
 20
153.994735
 30
0.0
  0
VERTEX
  5
57D
100
AcDbEntity
  8
LAYER_1
 62
     7
100
AcDbVertex
100
AcDb2dVertex
 10
62.977896
 20
153.740314
 30
0.0
  0
VERTEX
  5
57E
100
AcDbEntity
  8
LAYER_1
 62
     7
100
AcDbVertex
100
AcDb2dVertex
 10
62.596868
 20
153.444036
 30
0.0
  0
VERTEX
  5
57F
100
AcDbEntity
  8
LAYER_1
 62
     7
100
AcDbVertex
100
AcDb2dVertex
 10
62.30059
 20
153.148102
 30
0.0
  0
VERTEX
  5
580
100
AcDbEntity
  8
LAYER_1
 62
     7
100
AcDbVertex
100
AcDb2dVertex
 10
62.088889
 20
152.80945
 30
0.0
  0
VERTEX
  5
581
100
AcDbEntity
  8
LAYER_1
 62
     7
100
AcDbVertex
100
AcDb2dVertex
 10
61.834985
 20
152.131972
 30
0.0
  0
VERTEX
  5
582
100
AcDbEntity
  8
LAYER_1
 62
     7
100
AcDbVertex
100
AcDb2dVertex
 10
61.792611
 20
151.835349
 30
0.0
  0
VERTEX
  5
583
100
AcDbEntity
  8
LAYER_1
 62
     7
100
AcDbVertex
100
AcDb2dVertex
 10
61.792611
 20
151.539415
 30
0.0
  0
SEQEND
  5
584
100
AcDbEntity
  8
LAYER_1
 62
     7
  0
POLYLINE
  5
56D
100
AcDbEntity
  8
LAYER_1
 62
     7
100
AcDb2dPolyline
 66
     1
 10
0.0
 20
0.0
 30
0.0
  0
VERTEX
  5
56E
100
AcDbEntity
  8
LAYER_1
 62
     7
100
AcDbVertex
100
AcDb2dVertex
 10
92.82293
 20
151.539415
 30
0.0
  0
VERTEX
  5
56F
100
AcDbEntity
  8
LAYER_1
 62
     7
100
AcDbVertex
100
AcDb2dVertex
 10
92.738181
 20
152.131972
 30
0.0
  0
VERTEX
  5
570
100
AcDbEntity
  8
LAYER_1
 62
     7
100
AcDbVertex
100
AcDb2dVertex
 10
92.653604
 20
152.470797
 30
0.0
  0
VERTEX
  5
571
100
AcDbEntity
  8
LAYER_1
 62
     7
100
AcDbVertex
100
AcDb2dVertex
 10
92.484277
 20
152.80945
 30
0.0
  0
VERTEX
  5
572
100
AcDbEntity
  8
LAYER_1
 62
     7
100
AcDbVertex
100
AcDb2dVertex
 10
92.272576
 20
153.148102
 30
0.0
  0
VERTEX
  5
573
100
AcDbEntity
  8
LAYER_1
 62
     7
100
AcDbVertex
100
AcDb2dVertex
 10
91.976298
 20
153.444036
 30
0.0
  0
VERTEX
  5
574
100
AcDbEntity
  8
LAYER_1
 62
     7
100
AcDbVertex
100
AcDb2dVertex
 10
91.59527
 20
153.740314
 30
0.0
  0
VERTEX
  5
575
100
AcDbEntity
  8
LAYER_1
 62
     7
100
AcDbVertex
100
AcDb2dVertex
 10
91.171868
 20
153.994735
 30
0.0
  0
VERTEX
  5
576
100
AcDbEntity
  8
LAYER_1
 62
     7
100
AcDbVertex
100
AcDb2dVertex
 10
90.663889
 20
154.121342
 30
0.0
  0
VERTEX
  5
577
100
AcDbEntity
  8
LAYER_1
 62
     7
100
AcDbVertex
100
AcDb2dVertex
 10
90.15591
 20
154.206436
 30
0.0
  0
SEQEND
  5
578
100
AcDbEntity
  8
LAYER_1
 62
     7
  0
POLYLINE
  5
560
100
AcDbEntity
  8
LAYER_1
 62
     7
100
AcDb2dPolyline
 66
     1
 10
0.0
 20
0.0
 30
0.0
  0
VERTEX
  5
561
100
AcDbEntity
  8
LAYER_1
 62
     7
100
AcDbVertex
100
AcDb2dVertex
 10
90.15591
 20
98.834277
 30
0.0
  0
VERTEX
  5
562
100
AcDbEntity
  8
LAYER_1
 62
     7
100
AcDbVertex
100
AcDb2dVertex
 10
90.663889
 20
98.876652
 30
0.0
  0
VERTEX
  5
563
100
AcDbEntity
  8
LAYER_1
 62
     7
100
AcDbVertex
100
AcDb2dVertex
 10
91.171868
 20
99.003432
 30
0.0
  0
VERTEX
  5
564
100
AcDbEntity
  8
LAYER_1
 62
     7
100
AcDbVertex
100
AcDb2dVertex
 10
91.59527
 20
99.25768
 30
0.0
  0
VERTEX
  5
565
100
AcDbEntity
  8
LAYER_1
 62
     7
100
AcDbVertex
100
AcDb2dVertex
 10
91.976298
 20
99.553958
 30
0.0
  0
VERTEX
  5
566
100
AcDbEntity
  8
LAYER_1
 62
     7
100
AcDbVertex
100
AcDb2dVertex
 10
92.272576
 20
99.892611
 30
0.0
  0
VERTEX
  5
567
100
AcDbEntity
  8
LAYER_1
 62
     7
100
AcDbVertex
100
AcDb2dVertex
 10
92.484277
 20
100.231264
 30
0.0
  0
VERTEX
  5
568
100
AcDbEntity
  8
LAYER_1
 62
     7
100
AcDbVertex
100
AcDb2dVertex
 10
92.653604
 20
100.569916
 30
0.0
  0
VERTEX
  5
569
100
AcDbEntity
  8
LAYER_1
 62
     7
100
AcDbVertex
100
AcDb2dVertex
 10
92.738181
 20
100.866195
 30
0.0
  0
VERTEX
  5
56A
100
AcDbEntity
  8
LAYER_1
 62
     7
100
AcDbVertex
100
AcDb2dVertex
 10
92.780556
 20
101.204848
 30
0.0
  0
VERTEX
  5
56B
100
AcDbEntity
  8
LAYER_1
 62
     7
100
AcDbVertex
100
AcDb2dVertex
 10
92.82293
 20
101.458751
 30
0.0
  0
SEQEND
  5
56C
100
AcDbEntity
  8
LAYER_1
 62
     7
  0
POLYLINE
  5
553
100
AcDbEntity
  8
LAYER_1
 62
     7
100
AcDb2dPolyline
 66
     1
 10
0.0
 20
0.0
 30
0.0
  0
VERTEX
  5
554
100
AcDbEntity
  8
LAYER_1
 62
     7
100
AcDbVertex
100
AcDb2dVertex
 10
61.792611
 20
101.458751
 30
0.0
  0
VERTEX
  5
555
100
AcDbEntity
  8
LAYER_1
 62
     7
100
AcDbVertex
100
AcDb2dVertex
 10
61.792611
 20
101.204848
 30
0.0
  0
VERTEX
  5
556
100
AcDbEntity
  8
LAYER_1
 62
     7
100
AcDbVertex
100
AcDb2dVertex
 10
61.834985
 20
100.866195
 30
0.0
  0
VERTEX
  5
557
100
AcDbEntity
  8
LAYER_1
 62
     7
100
AcDbVertex
100
AcDb2dVertex
 10
61.961937
 20
100.569916
 30
0.0
  0
VERTEX
  5
558
100
AcDbEntity
  8
LAYER_1
 62
     7
100
AcDbVertex
100
AcDb2dVertex
 10
62.088889
 20
100.231264
 30
0.0
  0
VERTEX
  5
559
100
AcDbEntity
  8
LAYER_1
 62
     7
100
AcDbVertex
100
AcDb2dVertex
 10
62.30059
 20
99.892611
 30
0.0
  0
VERTEX
  5
55A
100
AcDbEntity
  8
LAYER_1
 62
     7
100
AcDbVertex
100
AcDb2dVertex
 10
62.596868
 20
99.553958
 30
0.0
  0
VERTEX
  5
55B
100
AcDbEntity
  8
LAYER_1
 62
     7
100
AcDbVertex
100
AcDb2dVertex
 10
62.977896
 20
99.25768
 30
0.0
  0
VERTEX
  5
55C
100
AcDbEntity
  8
LAYER_1
 62
     7
100
AcDbVertex
100
AcDb2dVertex
 10
63.443673
 20
99.003432
 30
0.0
  0
VERTEX
  5
55D
100
AcDbEntity
  8
LAYER_1
 62
     7
100
AcDbVertex
100
AcDb2dVertex
 10
63.909277
 20
98.876652
 30
0.0
  0
VERTEX
  5
55E
100
AcDbEntity
  8
LAYER_1
 62
     7
100
AcDbVertex
100
AcDb2dVertex
 10
64.459631
 20
98.834277
 30
0.0
  0
SEQEND
  5
55F
100
AcDbEntity
  8
LAYER_1
 62
     7
  0
POLYLINE
  5
544
100
AcDbEntity
  8
LAYER_1
 62
     7
100
AcDb2dPolyline
 66
     1
 10
0.0
 20
0.0
 30
0.0
  0
VERTEX
  5
545
100
AcDbEntity
  8
LAYER_1
 62
     7
100
AcDbVertex
100
AcDb2dVertex
 10
60.480202
 20
101.035693
 30
0.0
  0
VERTEX
  5
546
100
AcDbEntity
  8
LAYER_1
 62
     7
100
AcDbVertex
100
AcDb2dVertex
 10
60.480202
 20
100.739071
 30
0.0
  0
VERTEX
  5
547
100
AcDbEntity
  8
LAYER_1
 62
     7
100
AcDbVertex
100
AcDb2dVertex
 10
60.522576
 20
100.442792
 30
0.0
  0
VERTEX
  5
548
100
AcDbEntity
  8
LAYER_1
 62
     7
100
AcDbVertex
100
AcDb2dVertex
 10
60.564951
 20
100.10414
 30
0.0
  0
VERTEX
  5
549
100
AcDbEntity
  8
LAYER_1
 62
     7
100
AcDbVertex
100
AcDb2dVertex
 10
60.691903
 20
99.765487
 30
0.0
  0
VERTEX
  5
54A
100
AcDbEntity
  8
LAYER_1
 62
     7
100
AcDbVertex
100
AcDb2dVertex
 10
60.861229
 20
99.426834
 30
0.0
  0
VERTEX
  5
54B
100
AcDbEntity
  8
LAYER_1
 62
     7
100
AcDbVertex
100
AcDb2dVertex
 10
61.030556
 20
99.045806
 30
0.0
  0
VERTEX
  5
54C
100
AcDbEntity
  8
LAYER_1
 62
     7
100
AcDbVertex
100
AcDb2dVertex
 10
61.623284
 20
98.3685
 30
0.0
  0
VERTEX
  5
54D
100
AcDbEntity
  8
LAYER_1
 62
     7
100
AcDbVertex
100
AcDb2dVertex
 10
62.004312
 20
98.072567
 30
0.0
  0
VERTEX
  5
54E
100
AcDbEntity
  8
LAYER_1
 62
     7
100
AcDbVertex
100
AcDb2dVertex
 10
62.469916
 20
97.818319
 30
0.0
  0
VERTEX
  5
54F
100
AcDbEntity
  8
LAYER_1
 62
     7
100
AcDbVertex
100
AcDb2dVertex
 10
62.935521
 20
97.64882
 30
0.0
  0
VERTEX
  5
550
100
AcDbEntity
  8
LAYER_1
 62
     7
100
AcDbVertex
100
AcDb2dVertex
 10
63.443673
 20
97.52204
 30
0.0
  0
VERTEX
  5
551
100
AcDbEntity
  8
LAYER_1
 62
     7
100
AcDbVertex
100
AcDb2dVertex
 10
63.993854
 20
97.479666
 30
0.0
  0
SEQEND
  5
552
100
AcDbEntity
  8
LAYER_1
 62
     7
  0
POLYLINE
  5
535
100
AcDbEntity
  8
LAYER_1
 62
     7
100
AcDb2dPolyline
 66
     1
 10
0.0
 20
0.0
 30
0.0
  0
VERTEX
  5
536
100
AcDbEntity
  8
LAYER_1
 62
     7
100
AcDbVertex
100
AcDb2dVertex
 10
90.579312
 20
97.479666
 30
0.0
  0
VERTEX
  5
537
100
AcDbEntity
  8
LAYER_1
 62
     7
100
AcDbVertex
100
AcDb2dVertex
 10
91.129666
 20
97.52204
 30
0.0
  0
VERTEX
  5
538
100
AcDbEntity
  8
LAYER_1
 62
     7
100
AcDbVertex
100
AcDb2dVertex
 10
91.679848
 20
97.64882
 30
0.0
  0
VERTEX
  5
539
100
AcDbEntity
  8
LAYER_1
 62
     7
100
AcDbVertex
100
AcDb2dVertex
 10
92.145624
 20
97.818319
 30
0.0
  0
VERTEX
  5
53A
100
AcDbEntity
  8
LAYER_1
 62
     7
100
AcDbVertex
100
AcDb2dVertex
 10
92.611229
 20
98.072567
 30
0.0
  0
VERTEX
  5
53B
100
AcDbEntity
  8
LAYER_1
 62
     7
100
AcDbVertex
100
AcDb2dVertex
 10
92.992257
 20
98.3685
 30
0.0
  0
VERTEX
  5
53C
100
AcDbEntity
  8
LAYER_1
 62
     7
100
AcDbVertex
100
AcDb2dVertex
 10
93.288535
 20
98.707153
 30
0.0
  0
VERTEX
  5
53D
100
AcDbEntity
  8
LAYER_1
 62
     7
100
AcDbVertex
100
AcDb2dVertex
 10
93.542611
 20
99.045806
 30
0.0
  0
VERTEX
  5
53E
100
AcDbEntity
  8
LAYER_1
 62
     7
100
AcDbVertex
100
AcDb2dVertex
 10
93.754312
 20
99.426834
 30
0.0
  0
VERTEX
  5
53F
100
AcDbEntity
  8
LAYER_1
 62
     7
100
AcDbVertex
100
AcDb2dVertex
 10
93.923638
 20
99.765487
 30
0.0
  0
VERTEX
  5
540
100
AcDbEntity
  8
LAYER_1
 62
     7
100
AcDbVertex
100
AcDb2dVertex
 10
94.092965
 20
100.442792
 30
0.0
  0
VERTEX
  5
541
100
AcDbEntity
  8
LAYER_1
 62
     7
100
AcDbVertex
100
AcDb2dVertex
 10
94.135167
 20
100.739071
 30
0.0
  0
VERTEX
  5
542
100
AcDbEntity
  8
LAYER_1
 62
     7
100
AcDbVertex
100
AcDb2dVertex
 10
94.135167
 20
101.035693
 30
0.0
  0
SEQEND
  5
543
100
AcDbEntity
  8
LAYER_1
 62
     7
  0
POLYLINE
  5
526
100
AcDbEntity
  8
LAYER_1
 62
     7
100
AcDb2dPolyline
 66
     1
 10
0.0
 20
0.0
 30
0.0
  0
VERTEX
  5
527
100
AcDbEntity
  8
LAYER_1
 62
     7
100
AcDbVertex
100
AcDb2dVertex
 10
63.993854
 20
155.518328
 30
0.0
  0
VERTEX
  5
528
100
AcDbEntity
  8
LAYER_1
 62
     7
100
AcDbVertex
100
AcDb2dVertex
 10
63.443673
 20
155.476126
 30
0.0
  0
VERTEX
  5
529
100
AcDbEntity
  8
LAYER_1
 62
     7
100
AcDbVertex
100
AcDb2dVertex
 10
62.935521
 20
155.349002
 30
0.0
  0
VERTEX
  5
52A
100
AcDbEntity
  8
LAYER_1
 62
     7
100
AcDbVertex
100
AcDb2dVertex
 10
62.469916
 20
155.179675
 30
0.0
  0
VERTEX
  5
52B
100
AcDbEntity
  8
LAYER_1
 62
     7
100
AcDbVertex
100
AcDb2dVertex
 10
62.004312
 20
154.926116
 30
0.0
  0
VERTEX
  5
52C
100
AcDbEntity
  8
LAYER_1
 62
     7
100
AcDbVertex
100
AcDb2dVertex
 10
61.623284
 20
154.629321
 30
0.0
  0
VERTEX
  5
52D
100
AcDbEntity
  8
LAYER_1
 62
     7
100
AcDbVertex
100
AcDb2dVertex
 10
61.030556
 20
153.952016
 30
0.0
  0
VERTEX
  5
52E
100
AcDbEntity
  8
LAYER_1
 62
     7
100
AcDbVertex
100
AcDb2dVertex
 10
60.861229
 20
153.570988
 30
0.0
  0
VERTEX
  5
52F
100
AcDbEntity
  8
LAYER_1
 62
     7
100
AcDbVertex
100
AcDb2dVertex
 10
60.691903
 20
153.232335
 30
0.0
  0
VERTEX
  5
530
100
AcDbEntity
  8
LAYER_1
 62
     7
100
AcDbVertex
100
AcDb2dVertex
 10
60.564951
 20
152.893682
 30
0.0
  0
VERTEX
  5
531
100
AcDbEntity
  8
LAYER_1
 62
     7
100
AcDbVertex
100
AcDb2dVertex
 10
60.522576
 20
152.555029
 30
0.0
  0
VERTEX
  5
532
100
AcDbEntity
  8
LAYER_1
 62
     7
100
AcDbVertex
100
AcDb2dVertex
 10
60.480202
 20
152.259096
 30
0.0
  0
VERTEX
  5
533
100
AcDbEntity
  8
LAYER_1
 62
     7
100
AcDbVertex
100
AcDb2dVertex
 10
60.480202
 20
152.004675
 30
0.0
  0
SEQEND
  5
534
100
AcDbEntity
  8
LAYER_1
 62
     7
  0
POLYLINE
  5
517
100
AcDbEntity
  8
LAYER_1
 62
     7
100
AcDb2dPolyline
 66
     1
 10
0.0
 20
0.0
 30
0.0
  0
VERTEX
  5
518
100
AcDbEntity
  8
LAYER_1
 62
     7
100
AcDbVertex
100
AcDb2dVertex
 10
94.135167
 20
152.004675
 30
0.0
  0
VERTEX
  5
519
100
AcDbEntity
  8
LAYER_1
 62
     7
100
AcDbVertex
100
AcDb2dVertex
 10
94.135167
 20
152.259096
 30
0.0
  0
VERTEX
  5
51A
100
AcDbEntity
  8
LAYER_1
 62
     7
100
AcDbVertex
100
AcDb2dVertex
 10
94.092965
 20
152.555029
 30
0.0
  0
VERTEX
  5
51B
100
AcDbEntity
  8
LAYER_1
 62
     7
100
AcDbVertex
100
AcDb2dVertex
 10
93.923638
 20
153.232335
 30
0.0
  0
VERTEX
  5
51C
100
AcDbEntity
  8
LAYER_1
 62
     7
100
AcDbVertex
100
AcDb2dVertex
 10
93.754312
 20
153.570988
 30
0.0
  0
VERTEX
  5
51D
100
AcDbEntity
  8
LAYER_1
 62
     7
100
AcDbVertex
100
AcDb2dVertex
 10
93.542611
 20
153.952016
 30
0.0
  0
VERTEX
  5
51E
100
AcDbEntity
  8
LAYER_1
 62
     7
100
AcDbVertex
100
AcDb2dVertex
 10
93.288535
 20
154.290668
 30
0.0
  0
VERTEX
  5
51F
100
AcDbEntity
  8
LAYER_1
 62
     7
100
AcDbVertex
100
AcDb2dVertex
 10
92.992257
 20
154.629321
 30
0.0
  0
VERTEX
  5
520
100
AcDbEntity
  8
LAYER_1
 62
     7
100
AcDbVertex
100
AcDb2dVertex
 10
92.611229
 20
154.926116
 30
0.0
  0
VERTEX
  5
521
100
AcDbEntity
  8
LAYER_1
 62
     7
100
AcDbVertex
100
AcDb2dVertex
 10
92.145624
 20
155.179675
 30
0.0
  0
VERTEX
  5
522
100
AcDbEntity
  8
LAYER_1
 62
     7
100
AcDbVertex
100
AcDb2dVertex
 10
91.679848
 20
155.349002
 30
0.0
  0
VERTEX
  5
523
100
AcDbEntity
  8
LAYER_1
 62
     7
100
AcDbVertex
100
AcDb2dVertex
 10
91.129666
 20
155.476126
 30
0.0
  0
VERTEX
  5
524
100
AcDbEntity
  8
LAYER_1
 62
     7
100
AcDbVertex
100
AcDb2dVertex
 10
90.579312
 20
155.518328
 30
0.0
  0
SEQEND
  5
525
100
AcDbEntity
  8
LAYER_1
 62
     7
  0
LINE
  5
516
100
AcDbEntity
  8
LAYER_1
 62
     7
100
AcDbLine
 10
183.089944
 20
101.346096
 30
0.0
 11
194.646861
 21
101.346096
 31
0.0
  0
LINE
  5
515
100
AcDbEntity
  8
LAYER_1
 62
     7
100
AcDbLine
 10
61.792611
 20
101.458751
 30
0.0
 11
61.792611
 21
151.539415
 31
0.0
  0
LINE
  5
514
100
AcDbEntity
  8
LAYER_1
 62
     7
100
AcDbLine
 10
92.82293
 20
151.539415
 30
0.0
 11
92.82293
 21
101.458751
 31
0.0
  0
LINE
  5
513
100
AcDbEntity
  8
LAYER_1
 62
     7
100
AcDbLine
 10
183.089944
 20
156.67588
 30
0.0
 11
194.646861
 21
156.67588
 31
0.0
  0
LINE
  5
512
100
AcDbEntity
  8
LAYER_1
 62
     7
100
AcDbLine
 10
60.480202
 20
152.004675
 30
0.0
 11
60.480202
 21
101.035693
 31
0.0
  0
LINE
  5
511
100
AcDbEntity
  8
LAYER_1
 62
     7
100
AcDbLine
 10
196.890652
 20
157.987773
 30
0.0
 11
200.44668
 21
157.987773
 31
0.0
  0
LINE
  5
510
100
AcDbEntity
  8
LAYER_1
 62
     7
100
AcDbLine
 10
94.135167
 20
101.035693
 30
0.0
 11
94.135167
 21
152.004675
 31
0.0
  0
LINE
  5
50F
100
AcDbEntity
  8
LAYER_1
 62
     7
100
AcDbLine
 10
196.890652
 20
99.991485
 30
0.0
 11
200.44668
 21
99.991485
 31
0.0
  0
LINE
  5
50E
100
AcDbEntity
  8
LAYER_1
 62
     7
100
AcDbLine
 10
80.12293
 20
131.04971
 30
0.0
 11
81.689243
 21
131.04971
 31
0.0
  0
LINE
  5
50D
100
AcDbEntity
  8
LAYER_1
 62
     7
100
AcDbLine
 10
76.905556
 20
131.04971
 30
0.0
 11
78.514243
 21
131.04971
 31
0.0
  0
LINE
  5
50C
100
AcDbEntity
  8
LAYER_1
 62
     7
100
AcDbLine
 10
75.339243
 20
131.04971
 30
0.0
 11
73.77293
 21
131.04971
 31
0.0
  0
INSERT
  5
487
100
AcDbEntity
  8
LAYER_1
 62
     7
100
AcDbBlockReference
  2
AI9-BLK3
 10
105.220451
 20
148.500066
 30
0.0
  0
POLYLINE
  5
481
100
AcDbEntity
  8
LAYER_1
 62
     7
100
AcDb2dPolyline
 66
     1
 10
0.0
 20
0.0
 30
0.0
  0
VERTEX
  5
482
100
AcDbEntity
  8
LAYER_1
 62
     7
100
AcDbVertex
100
AcDb2dVertex
 10
43.335339
 20
98.45325
 30
0.0
  0
VERTEX
  5
483
100
AcDbEntity
  8
LAYER_1
 62
     7
100
AcDbVertex
100
AcDb2dVertex
 10
43.335339
 20
99.342084
 30
0.0
  0
VERTEX
  5
484
100
AcDbEntity
  8
LAYER_1
 62
     7
100
AcDbVertex
100
AcDb2dVertex
 10
43.419916
 20
98.919027
 30
0.0
  0
SEQEND
  5
485
100
AcDbEntity
  8
LAYER_1
 62
     7
  0
POLYLINE
  5
47C
100
AcDbEntity
  8
LAYER_1
 62
     7
100
AcDb2dPolyline
 66
     1
 10
0.0
 20
0.0
 30
0.0
  0
VERTEX
  5
47D
100
AcDbEntity
  8
LAYER_1
 62
     7
100
AcDbVertex
100
AcDb2dVertex
 10
43.166013
 20
97.479666
 30
0.0
  0
VERTEX
  5
47E
100
AcDbEntity
  8
LAYER_1
 62
     7
100
AcDbVertex
100
AcDb2dVertex
 10
43.166013
 20
99.342084
 30
0.0
  0
VERTEX
  5
47F
100
AcDbEntity
  8
LAYER_1
 62
     7
100
AcDbVertex
100
AcDb2dVertex
 10
43.25059
 20
97.945098
 30
0.0
  0
SEQEND
  5
480
100
AcDbEntity
  8
LAYER_1
 62
     7
  0
POLYLINE
  5
477
100
AcDbEntity
  8
LAYER_1
 62
     7
100
AcDb2dPolyline
 66
     1
 10
0.0
 20
0.0
 30
0.0
  0
VERTEX
  5
478
100
AcDbEntity
  8
LAYER_1
 62
     7
100
AcDbVertex
100
AcDb2dVertex
 10
42.996686
 20
98.283751
 30
0.0
  0
VERTEX
  5
479
100
AcDbEntity
  8
LAYER_1
 62
     7
100
AcDbVertex
100
AcDb2dVertex
 10
42.996686
 20
99.342084
 30
0.0
  0
VERTEX
  5
47A
100
AcDbEntity
  8
LAYER_1
 62
     7
100
AcDbVertex
100
AcDb2dVertex
 10
43.081264
 20
97.775944
 30
0.0
  0
SEQEND
  5
47B
100
AcDbEntity
  8
LAYER_1
 62
     7
  0
LINE
  5
476
100
AcDbEntity
  8
LAYER_1
 62
     7
100
AcDbLine
 10
42.82736
 20
99.342084
 30
0.0
 11
42.911937
 21
98.834277
 31
0.0
  0
LINE
  5
475
100
AcDbEntity
  8
LAYER_1
 62
     7
100
AcDbLine
 10
43.123638
 20
128.255737
 30
0.0
 11
43.123638
 21
153.656082
 31
0.0
  0
LINE
  5
474
100
AcDbEntity
  8
LAYER_1
 62
     7
100
AcDbLine
 10
43.123638
 20
122.597512
 30
0.0
 11
43.123638
 21
99.342084
 31
0.0
  0
LINE
  5
473
100
AcDbEntity
  8
LAYER_1
 62
     7
100
AcDbLine
 10
42.192257
 20
155.518328
 30
0.0
 11
62.59704
 21
155.518328
 31
0.0
  0
LINE
  5
472
100
AcDbEntity
  8
LAYER_1
 62
     7
100
AcDbLine
 10
63.316549
 20
97.479666
 30
0.0
 11
42.192257
 21
97.479666
 31
0.0
  0
POLYLINE
  5
46C
100
AcDbEntity
  8
LAYER_1
 62
     7
100
AcDb2dPolyline
 66
     1
 10
0.0
 20
0.0
 30
0.0
  0
VERTEX
  5
46D
100
AcDbEntity
  8
LAYER_1
 62
     7
100
AcDbVertex
100
AcDb2dVertex
 10
51.717257
 20
97.479666
 30
0.0
  0
VERTEX
  5
46E
100
AcDbEntity
  8
LAYER_1
 62
     7
100
AcDbVertex
100
AcDb2dVertex
 10
51.420978
 20
95.616903
 30
0.0
  0
VERTEX
  5
46F
100
AcDbEntity
  8
LAYER_1
 62
     7
100
AcDbVertex
100
AcDb2dVertex
 10
52.05591
 20
95.616903
 30
0.0
  0
VERTEX
  5
470
100
AcDbEntity
  8
LAYER_1
 62
     7
100
AcDbVertex
100
AcDb2dVertex
 10
51.717257
 20
97.479666
 30
0.0
  0
SEQEND
  5
471
100
AcDbEntity
  8
LAYER_1
 62
     7
  0
LINE
  5
46B
100
AcDbEntity
  8
LAYER_1
 62
     7
100
AcDbLine
 10
52.013707
 20
95.99793
 30
0.0
 11
52.013707
 21
95.616903
 31
0.0
  0
POLYLINE
  5
466
100
AcDbEntity
  8
LAYER_1
 62
     7
100
AcDb2dPolyline
 66
     1
 10
0.0
 20
0.0
 30
0.0
  0
VERTEX
  5
467
100
AcDbEntity
  8
LAYER_1
 62
     7
100
AcDbVertex
100
AcDb2dVertex
 10
51.844208
 20
97.013544
 30
0.0
  0
VERTEX
  5
468
100
AcDbEntity
  8
LAYER_1
 62
     7
100
AcDbVertex
100
AcDb2dVertex
 10
51.844208
 20
95.616903
 30
0.0
  0
VERTEX
  5
469
100
AcDbEntity
  8
LAYER_1
 62
     7
100
AcDbVertex
100
AcDb2dVertex
 10
51.928958
 20
96.505737
 30
0.0
  0
SEQEND
  5
46A
100
AcDbEntity
  8
LAYER_1
 62
     7
  0
POLYLINE
  5
461
100
AcDbEntity
  8
LAYER_1
 62
     7
100
AcDb2dPolyline
 66
     1
 10
0.0
 20
0.0
 30
0.0
  0
VERTEX
  5
462
100
AcDbEntity
  8
LAYER_1
 62
     7
100
AcDbVertex
100
AcDb2dVertex
 10
51.674882
 20
97.056264
 30
0.0
  0
VERTEX
  5
463
100
AcDbEntity
  8
LAYER_1
 62
     7
100
AcDbVertex
100
AcDb2dVertex
 10
51.674882
 20
95.616903
 30
0.0
  0
VERTEX
  5
464
100
AcDbEntity
  8
LAYER_1
 62
     7
100
AcDbVertex
100
AcDb2dVertex
 10
51.759631
 20
97.479666
 30
0.0
  0
SEQEND
  5
465
100
AcDbEntity
  8
LAYER_1
 62
     7
  0
LINE
  5
460
100
AcDbEntity
  8
LAYER_1
 62
     7
100
AcDbLine
 10
51.590305
 20
95.616903
 30
0.0
 11
51.590305
 21
96.590487
 31
0.0
  0
LINE
  5
45F
100
AcDbEntity
  8
LAYER_1
 62
     7
100
AcDbLine
 10
51.420978
 20
95.616903
 30
0.0
 11
51.505556
 21
96.125054
 31
0.0
  0
POLYLINE
  5
459
100
AcDbEntity
  8
LAYER_1
 62
     7
100
AcDb2dPolyline
 66
     1
 10
0.0
 20
0.0
 30
0.0
  0
VERTEX
  5
45A
100
AcDbEntity
  8
LAYER_1
 62
     7
100
AcDbVertex
100
AcDb2dVertex
 10
51.717257
 20
106.32736
 30
0.0
  0
VERTEX
  5
45B
100
AcDbEntity
  8
LAYER_1
 62
     7
100
AcDbVertex
100
AcDb2dVertex
 10
51.420978
 20
108.190123
 30
0.0
  0
VERTEX
  5
45C
100
AcDbEntity
  8
LAYER_1
 62
     7
100
AcDbVertex
100
AcDb2dVertex
 10
52.05591
 20
108.190123
 30
0.0
  0
VERTEX
  5
45D
100
AcDbEntity
  8
LAYER_1
 62
     7
100
AcDbVertex
100
AcDb2dVertex
 10
51.717257
 20
106.32736
 30
0.0
  0
SEQEND
  5
45E
100
AcDbEntity
  8
LAYER_1
 62
     7
  0
POLYLINE
  5
454
100
AcDbEntity
  8
LAYER_1
 62
     7
100
AcDb2dPolyline
 66
     1
 10
0.0
 20
0.0
 30
0.0
  0
VERTEX
  5
455
100
AcDbEntity
  8
LAYER_1
 62
     7
100
AcDbVertex
100
AcDb2dVertex
 10
51.928958
 20
107.300944
 30
0.0
  0
VERTEX
  5
456
100
AcDbEntity
  8
LAYER_1
 62
     7
100
AcDbVertex
100
AcDb2dVertex
 10
51.928958
 20
108.190123
 30
0.0
  0
VERTEX
  5
457
100
AcDbEntity
  8
LAYER_1
 62
     7
100
AcDbVertex
100
AcDb2dVertex
 10
52.013707
 20
107.809096
 30
0.0
  0
SEQEND
  5
458
100
AcDbEntity
  8
LAYER_1
 62
     7
  0
POLYLINE
  5
44F
100
AcDbEntity
  8
LAYER_1
 62
     7
100
AcDb2dPolyline
 66
     1
 10
0.0
 20
0.0
 30
0.0
  0
VERTEX
  5
450
100
AcDbEntity
  8
LAYER_1
 62
     7
100
AcDbVertex
100
AcDb2dVertex
 10
51.759631
 20
106.32736
 30
0.0
  0
VERTEX
  5
451
100
AcDbEntity
  8
LAYER_1
 62
     7
100
AcDbVertex
100
AcDb2dVertex
 10
51.759631
 20
108.190123
 30
0.0
  0
VERTEX
  5
452
100
AcDbEntity
  8
LAYER_1
 62
     7
100
AcDbVertex
100
AcDb2dVertex
 10
51.844208
 20
106.835167
 30
0.0
  0
SEQEND
  5
453
100
AcDbEntity
  8
LAYER_1
 62
     7
  0
POLYLINE
  5
44A
100
AcDbEntity
  8
LAYER_1
 62
     7
100
AcDb2dPolyline
 66
     1
 10
0.0
 20
0.0
 30
0.0
  0
VERTEX
  5
44B
100
AcDbEntity
  8
LAYER_1
 62
     7
100
AcDbVertex
100
AcDb2dVertex
 10
51.590305
 20
107.216195
 30
0.0
  0
VERTEX
  5
44C
100
AcDbEntity
  8
LAYER_1
 62
     7
100
AcDbVertex
100
AcDb2dVertex
 10
51.590305
 20
108.190123
 30
0.0
  0
VERTEX
  5
44D
100
AcDbEntity
  8
LAYER_1
 62
     7
100
AcDbVertex
100
AcDb2dVertex
 10
51.674882
 20
106.708388
 30
0.0
  0
SEQEND
  5
44E
100
AcDbEntity
  8
LAYER_1
 62
     7
  0
LINE
  5
449
100
AcDbEntity
  8
LAYER_1
 62
     7
100
AcDbLine
 10
51.420978
 20
108.190123
 30
0.0
 11
51.505556
 21
107.681972
 31
0.0
  0
LINE
  5
448
100
AcDbEntity
  8
LAYER_1
 62
     7
100
AcDbLine
 10
51.717257
 20
95.616903
 30
0.0
 11
51.717257
 21
93.796514
 31
0.0
  0
LINE
  5
447
100
AcDbEntity
  8
LAYER_1
 62
     7
100
AcDbLine
 10
51.717257
 20
108.190123
 30
0.0
 11
51.717257
 21
110.052542
 31
0.0
  0
LINE
  5
446
100
AcDbEntity
  8
LAYER_1
 62
     7
100
AcDbLine
 10
50.82825
 20
97.479666
 30
0.0
 11
62.046686
 21
97.479666
 31
0.0
  0
LINE
  5
445
100
AcDbEntity
  8
LAYER_1
 62
     7
100
AcDbLine
 10
76.609277
 20
106.32736
 30
0.0
 11
50.82825
 21
106.32736
 31
0.0
  0
LINE
  5
444
100
AcDbEntity
  8
LAYER_1
 62
     7
100
AcDbLine
 10
178.179305
 20
119.422512
 30
0.0
 11
178.179305
 21
114.681028
 31
0.0
  0
POLYLINE
  5
43E
100
AcDbEntity
  8
LAYER_1
 62
     7
100
AcDb2dPolyline
 66
     1
 10
0.0
 20
0.0
 30
0.0
  0
VERTEX
  5
43F
100
AcDbEntity
  8
LAYER_1
 62
     7
100
AcDbVertex
100
AcDb2dVertex
 10
60.480374
 20
162.800054
 30
0.0
  0
VERTEX
  5
440
100
AcDbEntity
  8
LAYER_1
 62
     7
100
AcDbVertex
100
AcDb2dVertex
 10
62.30059
 20
163.096332
 30
0.0
  0
VERTEX
  5
441
100
AcDbEntity
  8
LAYER_1
 62
     7
100
AcDbVertex
100
AcDb2dVertex
 10
62.30059
 20
162.461401
 30
0.0
  0
VERTEX
  5
442
100
AcDbEntity
  8
LAYER_1
 62
     7
100
AcDbVertex
100
AcDb2dVertex
 10
60.480374
 20
162.800054
 30
0.0
  0
SEQEND
  5
443
100
AcDbEntity
  8
LAYER_1
 62
     7
  0
LINE
  5
43D
100
AcDbEntity
  8
LAYER_1
 62
     7
100
AcDbLine
 10
62.004312
 20
163.053958
 30
0.0
 11
62.30059
 21
163.053958
 31
0.0
  0
POLYLINE
  5
438
100
AcDbEntity
  8
LAYER_1
 62
     7
100
AcDb2dPolyline
 66
     1
 10
0.0
 20
0.0
 30
0.0
  0
VERTEX
  5
439
100
AcDbEntity
  8
LAYER_1
 62
     7
100
AcDbVertex
100
AcDb2dVertex
 10
60.988353
 20
162.884287
 30
0.0
  0
VERTEX
  5
43A
100
AcDbEntity
  8
LAYER_1
 62
     7
100
AcDbVertex
100
AcDb2dVertex
 10
62.30059
 20
162.884287
 30
0.0
  0
VERTEX
  5
43B
100
AcDbEntity
  8
LAYER_1
 62
     7
100
AcDbVertex
100
AcDb2dVertex
 10
61.453958
 20
162.969381
 30
0.0
  0
SEQEND
  5
43C
100
AcDbEntity
  8
LAYER_1
 62
     7
  0
POLYLINE
  5
433
100
AcDbEntity
  8
LAYER_1
 62
     7
100
AcDb2dPolyline
 66
     1
 10
0.0
 20
0.0
 30
0.0
  0
VERTEX
  5
434
100
AcDbEntity
  8
LAYER_1
 62
     7
100
AcDbVertex
100
AcDb2dVertex
 10
60.861229
 20
162.715305
 30
0.0
  0
VERTEX
  5
435
100
AcDbEntity
  8
LAYER_1
 62
     7
100
AcDbVertex
100
AcDb2dVertex
 10
62.30059
 20
162.715305
 30
0.0
  0
VERTEX
  5
436
100
AcDbEntity
  8
LAYER_1
 62
     7
100
AcDbVertex
100
AcDb2dVertex
 10
60.480374
 20
162.800054
 30
0.0
  0
SEQEND
  5
437
100
AcDbEntity
  8
LAYER_1
 62
     7
  0
LINE
  5
432
100
AcDbEntity
  8
LAYER_1
 62
     7
100
AcDbLine
 10
62.30059
 20
162.630728
 30
0.0
 11
61.327006
 21
162.630728
 31
0.0
  0
LINE
  5
431
100
AcDbEntity
  8
LAYER_1
 62
     7
100
AcDbLine
 10
62.30059
 20
162.461401
 30
0.0
 11
61.834985
 21
162.545634
 31
0.0
  0
POLYLINE
  5
42B
100
AcDbEntity
  8
LAYER_1
 62
     7
100
AcDb2dPolyline
 66
     1
 10
0.0
 20
0.0
 30
0.0
  0
VERTEX
  5
42C
100
AcDbEntity
  8
LAYER_1
 62
     7
100
AcDbVertex
100
AcDb2dVertex
 10
94.135339
 20
162.800054
 30
0.0
  0
VERTEX
  5
42D
100
AcDbEntity
  8
LAYER_1
 62
     7
100
AcDbVertex
100
AcDb2dVertex
 10
92.272576
 20
163.096332
 30
0.0
  0
VERTEX
  5
42E
100
AcDbEntity
  8
LAYER_1
 62
     7
100
AcDbVertex
100
AcDb2dVertex
 10
92.272576
 20
162.461401
 30
0.0
  0
VERTEX
  5
42F
100
AcDbEntity
  8
LAYER_1
 62
     7
100
AcDbVertex
100
AcDb2dVertex
 10
94.135339
 20
162.800054
 30
0.0
  0
SEQEND
  5
430
100
AcDbEntity
  8
LAYER_1
 62
     7
  0
LINE
  5
42A
100
AcDbEntity
  8
LAYER_1
 62
     7
100
AcDbLine
 10
92.611229
 20
163.053958
 30
0.0
 11
92.272576
 21
163.053958
 31
0.0
  0
POLYLINE
  5
425
100
AcDbEntity
  8
LAYER_1
 62
     7
100
AcDb2dPolyline
 66
     1
 10
0.0
 20
0.0
 30
0.0
  0
VERTEX
  5
426
100
AcDbEntity
  8
LAYER_1
 62
     7
100
AcDbVertex
100
AcDb2dVertex
 10
93.62736
 20
162.884287
 30
0.0
  0
VERTEX
  5
427
100
AcDbEntity
  8
LAYER_1
 62
     7
100
AcDbVertex
100
AcDb2dVertex
 10
92.272576
 20
162.884287
 30
0.0
  0
VERTEX
  5
428
100
AcDbEntity
  8
LAYER_1
 62
     7
100
AcDbVertex
100
AcDb2dVertex
 10
93.119208
 20
162.969381
 30
0.0
  0
SEQEND
  5
429
100
AcDbEntity
  8
LAYER_1
 62
     7
  0
POLYLINE
  5
420
100
AcDbEntity
  8
LAYER_1
 62
     7
100
AcDb2dPolyline
 66
     1
 10
0.0
 20
0.0
 30
0.0
  0
VERTEX
  5
421
100
AcDbEntity
  8
LAYER_1
 62
     7
100
AcDbVertex
100
AcDb2dVertex
 10
93.754312
 20
162.715305
 30
0.0
  0
VERTEX
  5
422
100
AcDbEntity
  8
LAYER_1
 62
     7
100
AcDbVertex
100
AcDb2dVertex
 10
92.272576
 20
162.715305
 30
0.0
  0
VERTEX
  5
423
100
AcDbEntity
  8
LAYER_1
 62
     7
100
AcDbVertex
100
AcDb2dVertex
 10
94.135339
 20
162.800054
 30
0.0
  0
SEQEND
  5
424
100
AcDbEntity
  8
LAYER_1
 62
     7
  0
LINE
  5
41F
100
AcDbEntity
  8
LAYER_1
 62
     7
100
AcDbLine
 10
92.272576
 20
162.630728
 30
0.0
 11
93.288707
 21
162.630728
 31
0.0
  0
LINE
  5
41E
100
AcDbEntity
  8
LAYER_1
 62
     7
100
AcDbLine
 10
92.272576
 20
162.461401
 30
0.0
 11
92.780556
 21
162.545634
 31
0.0
  0
LINE
  5
41D
100
AcDbEntity
  8
LAYER_1
 62
     7
100
AcDbLine
 10
72.714597
 20
162.800054
 30
0.0
 11
62.30059
 21
162.800054
 31
0.0
  0
LINE
  5
41C
100
AcDbEntity
  8
LAYER_1
 62
     7
100
AcDbLine
 10
81.900944
 20
162.800054
 30
0.0
 11
92.272576
 21
162.800054
 31
0.0
  0
LINE
  5
41B
100
AcDbEntity
  8
LAYER_1
 62
     7
100
AcDbLine
 10
60.480374
 20
163.731264
 30
0.0
 11
60.480374
 21
153.486583
 31
0.0
  0
LINE
  5
41A
100
AcDbEntity
  8
LAYER_1
 62
     7
100
AcDbLine
 10
94.135339
 20
154.036937
 30
0.0
 11
94.135339
 21
163.731264
 31
0.0
  0
LINE
  5
419
100
AcDbEntity
  8
LAYER_1
 62
     7
100
AcDbLine
 10
179.068484
 20
105.452306
 30
0.0
 11
179.068484
 21
105.325182
 31
0.0
  0
POLYLINE
  5
413
100
AcDbEntity
  8
LAYER_1
 62
     7
100
AcDb2dPolyline
 66
     1
 10
0.0
 20
0.0
 30
0.0
  0
VERTEX
  5
414
100
AcDbEntity
  8
LAYER_1
 62
     7
100
AcDbVertex
100
AcDb2dVertex
 10
43.123638
 20
155.518673
 30
0.0
  0
VERTEX
  5
415
100
AcDbEntity
  8
LAYER_1
 62
     7
100
AcDbVertex
100
AcDb2dVertex
 10
42.82736
 20
153.656082
 30
0.0
  0
VERTEX
  5
416
100
AcDbEntity
  8
LAYER_1
 62
     7
100
AcDbVertex
100
AcDb2dVertex
 10
43.462291
 20
153.656082
 30
0.0
  0
VERTEX
  5
417
100
AcDbEntity
  8
LAYER_1
 62
     7
100
AcDbVertex
100
AcDb2dVertex
 10
43.123638
 20
155.518673
 30
0.0
  0
SEQEND
  5
418
100
AcDbEntity
  8
LAYER_1
 62
     7
  0
LINE
  5
412
100
AcDbEntity
  8
LAYER_1
 62
     7
100
AcDbLine
 10
43.419916
 20
154.036937
 30
0.0
 11
43.419916
 21
153.656082
 31
0.0
  0
POLYLINE
  5
40D
100
AcDbEntity
  8
LAYER_1
 62
     7
100
AcDb2dPolyline
 66
     1
 10
0.0
 20
0.0
 30
0.0
  0
VERTEX
  5
40E
100
AcDbEntity
  8
LAYER_1
 62
     7
100
AcDbVertex
100
AcDb2dVertex
 10
43.25059
 20
155.053068
 30
0.0
  0
VERTEX
  5
40F
100
AcDbEntity
  8
LAYER_1
 62
     7
100
AcDbVertex
100
AcDb2dVertex
 10
43.25059
 20
153.656082
 30
0.0
  0
VERTEX
  5
410
100
AcDbEntity
  8
LAYER_1
 62
     7
100
AcDbVertex
100
AcDb2dVertex
 10
43.335339
 20
154.544916
 30
0.0
  0
SEQEND
  5
411
100
AcDbEntity
  8
LAYER_1
 62
     7
  0
POLYLINE
  5
408
100
AcDbEntity
  8
LAYER_1
 62
     7
100
AcDb2dPolyline
 66
     1
 10
0.0
 20
0.0
 30
0.0
  0
VERTEX
  5
409
100
AcDbEntity
  8
LAYER_1
 62
     7
100
AcDbVertex
100
AcDb2dVertex
 10
43.081264
 20
155.222394
 30
0.0
  0
VERTEX
  5
40A
100
AcDbEntity
  8
LAYER_1
 62
     7
100
AcDbVertex
100
AcDb2dVertex
 10
43.081264
 20
153.656082
 30
0.0
  0
VERTEX
  5
40B
100
AcDbEntity
  8
LAYER_1
 62
     7
100
AcDbVertex
100
AcDb2dVertex
 10
43.166013
 20
155.518673
 30
0.0
  0
SEQEND
  5
40C
100
AcDbEntity
  8
LAYER_1
 62
     7
  0
LINE
  5
407
100
AcDbEntity
  8
LAYER_1
 62
     7
100
AcDbLine
 10
42.996686
 20
153.656082
 30
0.0
 11
42.996686
 21
154.714415
 31
0.0
  0
LINE
  5
406
100
AcDbEntity
  8
LAYER_1
 62
     7
100
AcDbLine
 10
42.82736
 20
153.656082
 30
0.0
 11
42.911937
 21
154.206264
 31
0.0
  0
POLYLINE
  5
400
100
AcDbEntity
  8
LAYER_1
 62
     7
100
AcDb2dPolyline
 66
     1
 10
0.0
 20
0.0
 30
0.0
  0
VERTEX
  5
401
100
AcDbEntity
  8
LAYER_1
 62
     7
100
AcDbVertex
100
AcDb2dVertex
 10
43.123638
 20
97.479666
 30
0.0
  0
VERTEX
  5
402
100
AcDbEntity
  8
LAYER_1
 62
     7
100
AcDbVertex
100
AcDb2dVertex
 10
42.82736
 20
99.342084
 30
0.0
  0
VERTEX
  5
403
100
AcDbEntity
  8
LAYER_1
 62
     7
100
AcDbVertex
100
AcDb2dVertex
 10
43.462291
 20
99.342084
 30
0.0
  0
VERTEX
  5
404
100
AcDbEntity
  8
LAYER_1
 62
     7
100
AcDbVertex
100
AcDb2dVertex
 10
43.123638
 20
97.479666
 30
0.0
  0
SEQEND
  5
405
100
AcDbEntity
  8
LAYER_1
 62
     7
  0
POLYLINE
  5
3F4
100
AcDbEntity
  8
LAYER_1
 62
     7
100
AcDb2dPolyline
 66
     1
 10
0.0
 20
0.0
 30
0.0
  0
VERTEX
  5
3F5
100
AcDbEntity
  8
LAYER_1
 62
     7
100
AcDbVertex
100
AcDb2dVertex
 10
94.177542
 20
210.255383
 30
0.0
  0
VERTEX
  5
3F6
100
AcDbEntity
  8
LAYER_1
 62
     7
100
AcDbVertex
100
AcDb2dVertex
 10
93.669562
 20
209.831981
 30
0.0
  0
VERTEX
  5
3F7
100
AcDbEntity
  8
LAYER_1
 62
     7
100
AcDbVertex
100
AcDb2dVertex
 10
93.457861
 20
209.620797
 30
0.0
  0
VERTEX
  5
3F8
100
AcDbEntity
  8
LAYER_1
 62
     7
100
AcDbVertex
100
AcDb2dVertex
 10
93.288535
 20
209.366376
 30
0.0
  0
VERTEX
  5
3F9
100
AcDbEntity
  8
LAYER_1
 62
     7
100
AcDbVertex
100
AcDb2dVertex
 10
93.161583
 20
209.154675
 30
0.0
  0
VERTEX
  5
3FA
100
AcDbEntity
  8
LAYER_1
 62
     7
100
AcDbVertex
100
AcDb2dVertex
 10
93.034631
 20
208.901116
 30
0.0
  0
VERTEX
  5
3FB
100
AcDbEntity
  8
LAYER_1
 62
     7
100
AcDbVertex
100
AcDb2dVertex
 10
92.992257
 20
208.646696
 30
0.0
  0
VERTEX
  5
3FC
100
AcDbEntity
  8
LAYER_1
 62
     7
100
AcDbVertex
100
AcDb2dVertex
 10
92.90768
 20
208.434995
 30
0.0
  0
VERTEX
  5
3FD
100
AcDbEntity
  8
LAYER_1
 62
     7
100
AcDbVertex
100
AcDb2dVertex
 10
92.90768
 20
208.223638
 30
0.0
  0
VERTEX
  5
3FE
100
AcDbEntity
  8
LAYER_1
 62
     7
100
AcDbVertex
100
AcDb2dVertex
 10
92.865305
 20
208.012109
 30
0.0
  0
SEQEND
  5
3FF
100
AcDbEntity
  8
LAYER_1
 62
     7
  0
LINE
  5
3F3
100
AcDbEntity
  8
LAYER_1
 62
     7
100
AcDbLine
 10
88.081618
 20
192.475762
 30
0.0
 11
87.912291
 21
192.475762
 31
0.0
  0
LINE
  5
3F2
100
AcDbEntity
  8
LAYER_1
 62
     7
100
AcDbLine
 10
85.202896
 20
212.033742
 30
0.0
 11
87.446514
 21
212.033742
 31
0.0
  0
LINE
  5
3F1
100
AcDbEntity
  8
LAYER_1
 62
     7
100
AcDbLine
 10
80.715659
 20
212.033742
 30
0.0
 11
82.916903
 21
212.033742
 31
0.0
  0
LINE
  5
3F0
100
AcDbEntity
  8
LAYER_1
 62
     7
100
AcDbLine
 10
76.185875
 20
212.033742
 30
0.0
 11
78.429666
 21
212.033742
 31
0.0
  0
LINE
  5
3EF
100
AcDbEntity
  8
LAYER_1
 62
     7
100
AcDbLine
 10
71.698638
 20
212.033742
 30
0.0
 11
73.942257
 21
212.033742
 31
0.0
  0
LINE
  5
3EE
100
AcDbEntity
  8
LAYER_1
 62
     7
100
AcDbLine
 10
67.211229
 20
212.033742
 30
0.0
 11
69.454848
 21
212.033742
 31
0.0
  0
LINE
  5
3ED
100
AcDbEntity
  8
LAYER_1
 62
     7
100
AcDbLine
 10
66.660875
 20
210.890314
 30
0.0
 11
66.322222
 21
210.255383
 31
0.0
  0
LINE
  5
3EC
100
AcDbEntity
  8
LAYER_1
 62
     7
100
AcDbLine
 10
67.211229
 20
212.033742
 30
0.0
 11
66.914951
 21
211.440668
 31
0.0
  0
LINE
  5
3EB
100
AcDbEntity
  8
LAYER_1
 62
     7
100
AcDbLine
 10
88.039243
 20
210.848456
 30
0.0
 11
88.335521
 21
210.255383
 31
0.0
  0
LINE
  5
3EA
100
AcDbEntity
  8
LAYER_1
 62
     7
100
AcDbLine
 10
87.742965
 20
211.440668
 30
0.0
 11
87.446514
 21
212.033742
 31
0.0
  0
POLYLINE
  5
3E5
100
AcDbEntity
  8
LAYER_1
 62
     7
100
AcDb2dPolyline
 66
     1
 10
0.0
 20
0.0
 30
0.0
  0
VERTEX
  5
3E6
100
AcDbEntity
  8
LAYER_1
 62
     7
100
AcDbVertex
100
AcDb2dVertex
 10
85.033569
 20
139.093319
 30
0.0
  0
VERTEX
  5
3E7
100
AcDbEntity
  8
LAYER_1
 62
     7
100
AcDbVertex
100
AcDb2dVertex
 10
96.491785
 20
148.124292
 30
0.0
  0
VERTEX
  5
3E8
100
AcDbEntity
  8
LAYER_1
 62
     7
100
AcDbVertex
100
AcDb2dVertex
 10
99.412881
 20
148.124292
 30
0.0
  0
SEQEND
  5
3E9
100
AcDbEntity
  8
LAYER_1
 62
     7
  0
POLYLINE
  5
3DF
100
AcDbEntity
  8
LAYER_1
 62
     7
100
AcDb2dPolyline
 66
     1
 10
0.0
 20
0.0
 30
0.0
  0
VERTEX
  5
3E0
100
AcDbEntity
  8
LAYER_1
 62
     7
100
AcDbVertex
100
AcDb2dVertex
 10
83.552006
 20
137.992611
 30
0.0
  0
VERTEX
  5
3E1
100
AcDbEntity
  8
LAYER_1
 62
     7
100
AcDbVertex
100
AcDb2dVertex
 10
85.202896
 20
138.88179
 30
0.0
  0
VERTEX
  5
3E2
100
AcDbEntity
  8
LAYER_1
 62
     7
100
AcDbVertex
100
AcDb2dVertex
 10
84.821868
 20
139.346878
 30
0.0
  0
VERTEX
  5
3E3
100
AcDbEntity
  8
LAYER_1
 62
     7
100
AcDbVertex
100
AcDb2dVertex
 10
83.552006
 20
137.992611
 30
0.0
  0
SEQEND
  5
3E4
100
AcDbEntity
  8
LAYER_1
 62
     7
  0
POLYLINE
  5
3CD
100
AcDbEntity
  8
LAYER_1
 62
     7
100
AcDb2dPolyline
 66
     1
 10
0.0
 20
0.0
 30
0.0
  0
VERTEX
  5
3CE
100
AcDbEntity
  8
LAYER_1
 62
     7
100
AcDbVertex
100
AcDb2dVertex
 10
83.552006
 20
137.992611
 30
0.0
  0
VERTEX
  5
3CF
100
AcDbEntity
  8
LAYER_1
 62
     7
100
AcDbVertex
100
AcDb2dVertex
 10
83.721332
 20
138.077016
 30
0.0
  0
VERTEX
  5
3D0
100
AcDbEntity
  8
LAYER_1
 62
     7
100
AcDbVertex
100
AcDb2dVertex
 10
83.848284
 20
138.119735
 30
0.0
  0
VERTEX
  5
3D1
100
AcDbEntity
  8
LAYER_1
 62
     7
100
AcDbVertex
100
AcDb2dVertex
 10
84.186937
 20
138.288544
 30
0.0
  0
VERTEX
  5
3D2
100
AcDbEntity
  8
LAYER_1
 62
     7
100
AcDbVertex
100
AcDb2dVertex
 10
83.932861
 20
138.373638
 30
0.0
  0
VERTEX
  5
3D3
100
AcDbEntity
  8
LAYER_1
 62
     7
100
AcDbVertex
100
AcDb2dVertex
 10
84.483215
 20
138.458043
 30
0.0
  0
VERTEX
  5
3D4
100
AcDbEntity
  8
LAYER_1
 62
     7
100
AcDbVertex
100
AcDb2dVertex
 10
84.102188
 20
138.542792
 30
0.0
  0
VERTEX
  5
3D5
100
AcDbEntity
  8
LAYER_1
 62
     7
100
AcDbVertex
100
AcDb2dVertex
 10
84.779666
 20
138.627542
 30
0.0
  0
VERTEX
  5
3D6
100
AcDbEntity
  8
LAYER_1
 62
     7
100
AcDbVertex
100
AcDb2dVertex
 10
84.271514
 20
138.712291
 30
0.0
  0
VERTEX
  5
3D7
100
AcDbEntity
  8
LAYER_1
 62
     7
100
AcDbVertex
100
AcDb2dVertex
 10
85.075944
 20
138.79704
 30
0.0
  0
VERTEX
  5
3D8
100
AcDbEntity
  8
LAYER_1
 62
     7
100
AcDbVertex
100
AcDb2dVertex
 10
84.398638
 20
138.88179
 30
0.0
  0
VERTEX
  5
3D9
100
AcDbEntity
  8
LAYER_1
 62
     7
100
AcDbVertex
100
AcDb2dVertex
 10
85.160521
 20
138.966195
 30
0.0
  0
VERTEX
  5
3DA
100
AcDbEntity
  8
LAYER_1
 62
     7
100
AcDbVertex
100
AcDb2dVertex
 10
84.567965
 20
139.050944
 30
0.0
  0
VERTEX
  5
3DB
100
AcDbEntity
  8
LAYER_1
 62
     7
100
AcDbVertex
100
AcDb2dVertex
 10
84.991195
 20
139.135349
 30
0.0
  0
VERTEX
  5
3DC
100
AcDbEntity
  8
LAYER_1
 62
     7
100
AcDbVertex
100
AcDb2dVertex
 10
84.737291
 20
139.220098
 30
0.0
  0
VERTEX
  5
3DD
100
AcDbEntity
  8
LAYER_1
 62
     7
100
AcDbVertex
100
AcDb2dVertex
 10
84.864243
 20
139.304848
 30
0.0
  0
SEQEND
  5
3DE
100
AcDbEntity
  8
LAYER_1
 62
     7
  0
POLYLINE
  5
3C8
100
AcDbEntity
  8
LAYER_1
 62
     7
100
AcDb2dPolyline
 66
     1
 10
0.0
 20
0.0
 30
0.0
  0
VERTEX
  5
3C9
100
AcDbEntity
  8
LAYER_1
 62
     7
100
AcDbVertex
100
AcDb2dVertex
 10
81.562291
 20
116.825944
 30
0.0
  0
VERTEX
  5
3CA
100
AcDbEntity
  8
LAYER_1
 62
     7
100
AcDbVertex
100
AcDb2dVertex
 10
97.22559
 20
125.927542
 30
0.0
  0
VERTEX
  5
3CB
100
AcDbEntity
  8
LAYER_1
 62
     7
100
AcDbVertex
100
AcDb2dVertex
 10
99.088181
 20
125.927542
 30
0.0
  0
SEQEND
  5
3CC
100
AcDbEntity
  8
LAYER_1
 62
     7
  0
POLYLINE
  5
3C2
100
AcDbEntity
  8
LAYER_1
 62
     7
100
AcDb2dPolyline
 66
     1
 10
0.0
 20
0.0
 30
0.0
  0
VERTEX
  5
3C3
100
AcDbEntity
  8
LAYER_1
 62
     7
100
AcDbVertex
100
AcDb2dVertex
 10
79.953604
 20
115.894735
 30
0.0
  0
VERTEX
  5
3C4
100
AcDbEntity
  8
LAYER_1
 62
     7
100
AcDbVertex
100
AcDb2dVertex
 10
81.689243
 20
116.529321
 30
0.0
  0
VERTEX
  5
3C5
100
AcDbEntity
  8
LAYER_1
 62
     7
100
AcDbVertex
100
AcDb2dVertex
 10
81.392965
 20
117.079848
 30
0.0
  0
VERTEX
  5
3C6
100
AcDbEntity
  8
LAYER_1
 62
     7
100
AcDbVertex
100
AcDb2dVertex
 10
79.953604
 20
115.894735
 30
0.0
  0
SEQEND
  5
3C7
100
AcDbEntity
  8
LAYER_1
 62
     7
  0
POLYLINE
  5
3B8
100
AcDbEntity
  8
LAYER_1
 62
     7
100
AcDb2dPolyline
 66
     1
 10
0.0
 20
0.0
 30
0.0
  0
VERTEX
  5
3B9
100
AcDbEntity
  8
LAYER_1
 62
     7
100
AcDbVertex
100
AcDb2dVertex
 10
81.689243
 20
116.529321
 30
0.0
  0
VERTEX
  5
3BA
100
AcDbEntity
  8
LAYER_1
 62
     7
100
AcDbVertex
100
AcDb2dVertex
 10
80.715659
 20
116.529321
 30
0.0
  0
VERTEX
  5
3BB
100
AcDbEntity
  8
LAYER_1
 62
     7
100
AcDbVertex
100
AcDb2dVertex
 10
81.646868
 20
116.614071
 30
0.0
  0
VERTEX
  5
3BC
100
AcDbEntity
  8
LAYER_1
 62
     7
100
AcDbVertex
100
AcDb2dVertex
 10
80.927188
 20
116.69882
 30
0.0
  0
VERTEX
  5
3BD
100
AcDbEntity
  8
LAYER_1
 62
     7
100
AcDbVertex
100
AcDb2dVertex
 10
81.562291
 20
116.783569
 30
0.0
  0
VERTEX
  5
3BE
100
AcDbEntity
  8
LAYER_1
 62
     7
100
AcDbVertex
100
AcDb2dVertex
 10
81.096514
 20
116.868319
 30
0.0
  0
VERTEX
  5
3BF
100
AcDbEntity
  8
LAYER_1
 62
     7
100
AcDbVertex
100
AcDb2dVertex
 10
81.435339
 20
116.953068
 30
0.0
  0
VERTEX
  5
3C0
100
AcDbEntity
  8
LAYER_1
 62
     7
100
AcDbVertex
100
AcDb2dVertex
 10
81.308215
 20
117.037473
 30
0.0
  0
SEQEND
  5
3C1
100
AcDbEntity
  8
LAYER_1
 62
     7
  0
POLYLINE
  5
3B3
100
AcDbEntity
  8
LAYER_1
 62
     7
100
AcDb2dPolyline
 66
     1
 10
0.0
 20
0.0
 30
0.0
  0
VERTEX
  5
3B4
100
AcDbEntity
  8
LAYER_1
 62
     7
100
AcDbVertex
100
AcDb2dVertex
 10
81.266013
 20
116.360167
 30
0.0
  0
VERTEX
  5
3B5
100
AcDbEntity
  8
LAYER_1
 62
     7
100
AcDbVertex
100
AcDb2dVertex
 10
80.503958
 20
116.360167
 30
0.0
  0
VERTEX
  5
3B6
100
AcDbEntity
  8
LAYER_1
 62
     7
100
AcDbVertex
100
AcDb2dVertex
 10
81.477542
 20
116.444916
 30
0.0
  0
SEQEND
  5
3B7
100
AcDbEntity
  8
LAYER_1
 62
     7
  0
POLYLINE
  5
3AE
100
AcDbEntity
  8
LAYER_1
 62
     7
100
AcDb2dPolyline
 66
     1
 10
0.0
 20
0.0
 30
0.0
  0
VERTEX
  5
3AF
100
AcDbEntity
  8
LAYER_1
 62
     7
100
AcDbVertex
100
AcDb2dVertex
 10
80.800236
 20
116.191013
 30
0.0
  0
VERTEX
  5
3B0
100
AcDbEntity
  8
LAYER_1
 62
     7
100
AcDbVertex
100
AcDb2dVertex
 10
80.334631
 20
116.191013
 30
0.0
  0
VERTEX
  5
3B1
100
AcDbEntity
  8
LAYER_1
 62
     7
100
AcDbVertex
100
AcDb2dVertex
 10
81.011937
 20
116.275762
 30
0.0
  0
SEQEND
  5
3B2
100
AcDbEntity
  8
LAYER_1
 62
     7
  0
POLYLINE
  5
3A8
100
AcDbEntity
  8
LAYER_1
 62
     7
100
AcDb2dPolyline
 66
     1
 10
0.0
 20
0.0
 30
0.0
  0
VERTEX
  5
3A9
100
AcDbEntity
  8
LAYER_1
 62
     7
100
AcDbVertex
100
AcDb2dVertex
 10
79.953604
 20
115.894735
 30
0.0
  0
VERTEX
  5
3AA
100
AcDbEntity
  8
LAYER_1
 62
     7
100
AcDbVertex
100
AcDb2dVertex
 10
80.165305
 20
115.97914
 30
0.0
  0
VERTEX
  5
3AB
100
AcDbEntity
  8
LAYER_1
 62
     7
100
AcDbVertex
100
AcDb2dVertex
 10
80.377006
 20
116.021514
 30
0.0
  0
VERTEX
  5
3AC
100
AcDbEntity
  8
LAYER_1
 62
     7
100
AcDbVertex
100
AcDb2dVertex
 10
80.588535
 20
116.106264
 30
0.0
  0
SEQEND
  5
3AD
100
AcDbEntity
  8
LAYER_1
 62
     7
  0
INSERT
  5
349
100
AcDbEntity
  8
LAYER_1
 62
     7
100
AcDbBlockReference
  2
AI9-BLK2
 10
105.178076
 20
148.500066
 30
0.0
  0
POLYLINE
  5
342
100
AcDbEntity
  8
LAYER_1
 62
     7
100
AcDb2dPolyline
 66
     1
 10
0.0
 20
0.0
 30
0.0
 70
     1
  0
VERTEX
  5
343
100
AcDbEntity
  8
LAYER_1
 62
     7
100
AcDbVertex
100
AcDb2dVertex
 10
75.762473
 20
201.958215
 30
0.0
  0
VERTEX
  5
344
100
AcDbEntity
  8
LAYER_1
 62
     7
100
AcDbVertex
100
AcDb2dVertex
 10
78.852896
 20
201.958215
 30
0.0
  0
VERTEX
  5
345
100
AcDbEntity
  8
LAYER_1
 62
     7
100
AcDbVertex
100
AcDb2dVertex
 10
78.852896
 20
201.28091
 30
0.0
  0
VERTEX
  5
346
100
AcDbEntity
  8
LAYER_1
 62
     7
100
AcDbVertex
100
AcDb2dVertex
 10
75.762473
 20
201.28091
 30
0.0
  0
SEQEND
  5
347
100
AcDbEntity
  8
LAYER_1
 62
     7
  0
POLYLINE
  5
33C
100
AcDbEntity
  8
LAYER_1
 62
     7
100
AcDb2dPolyline
 66
     1
 10
0.0
 20
0.0
 30
0.0
  0
VERTEX
  5
33D
100
AcDbEntity
  8
LAYER_1
 62
     7
100
AcDbVertex
100
AcDb2dVertex
 10
50.362473
 20
192.475418
 30
0.0
  0
VERTEX
  5
33E
100
AcDbEntity
  8
LAYER_1
 62
     7
100
AcDbVertex
100
AcDb2dVertex
 10
50.066195
 20
190.612827
 30
0.0
  0
VERTEX
  5
33F
100
AcDbEntity
  8
LAYER_1
 62
     7
100
AcDbVertex
100
AcDb2dVertex
 10
50.658751
 20
190.612827
 30
0.0
  0
VERTEX
  5
340
100
AcDbEntity
  8
LAYER_1
 62
     7
100
AcDbVertex
100
AcDb2dVertex
 10
50.362473
 20
192.475418
 30
0.0
  0
SEQEND
  5
341
100
AcDbEntity
  8
LAYER_1
 62
     7
  0
LINE
  5
33B
100
AcDbEntity
  8
LAYER_1
 62
     7
100
AcDbLine
 10
50.616549
 20
190.909105
 30
0.0
 11
50.616549
 21
190.612827
 31
0.0
  0
POLYLINE
  5
336
100
AcDbEntity
  8
LAYER_1
 62
     7
100
AcDb2dPolyline
 66
     1
 10
0.0
 20
0.0
 30
0.0
  0
VERTEX
  5
337
100
AcDbEntity
  8
LAYER_1
 62
     7
100
AcDbVertex
100
AcDb2dVertex
 10
50.447222
 20
191.925236
 30
0.0
  0
VERTEX
  5
338
100
AcDbEntity
  8
LAYER_1
 62
     7
100
AcDbVertex
100
AcDb2dVertex
 10
50.447222
 20
190.612827
 30
0.0
  0
VERTEX
  5
339
100
AcDbEntity
  8
LAYER_1
 62
     7
100
AcDbVertex
100
AcDb2dVertex
 10
50.531799
 20
191.417084
 30
0.0
  0
SEQEND
  5
33A
100
AcDbEntity
  8
LAYER_1
 62
     7
  0
POLYLINE
  5
331
100
AcDbEntity
  8
LAYER_1
 62
     7
100
AcDb2dPolyline
 66
     1
 10
0.0
 20
0.0
 30
0.0
  0
VERTEX
  5
332
100
AcDbEntity
  8
LAYER_1
 62
     7
100
AcDbVertex
100
AcDb2dVertex
 10
50.277896
 20
192.052188
 30
0.0
  0
VERTEX
  5
333
100
AcDbEntity
  8
LAYER_1
 62
     7
100
AcDbVertex
100
AcDb2dVertex
 10
50.277896
 20
190.612827
 30
0.0
  0
VERTEX
  5
334
100
AcDbEntity
  8
LAYER_1
 62
     7
100
AcDbVertex
100
AcDb2dVertex
 10
50.362473
 20
192.475418
 30
0.0
  0
SEQEND
  5
335
100
AcDbEntity
  8
LAYER_1
 62
     7
  0
LINE
  5
330
100
AcDbEntity
  8
LAYER_1
 62
     7
100
AcDbLine
 10
50.193146
 20
190.612827
 30
0.0
 11
50.193146
 21
191.586583
 31
0.0
  0
LINE
  5
32F
100
AcDbEntity
  8
LAYER_1
 62
     7
100
AcDbLine
 10
50.066195
 20
190.612827
 30
0.0
 11
50.108569
 21
191.078432
 31
0.0
  0
POLYLINE
  5
329
100
AcDbEntity
  8
LAYER_1
 62
     7
100
AcDb2dPolyline
 66
     1
 10
0.0
 20
0.0
 30
0.0
  0
VERTEX
  5
32A
100
AcDbEntity
  8
LAYER_1
 62
     7
100
AcDbVertex
100
AcDb2dVertex
 10
50.362473
 20
195.989071
 30
0.0
  0
VERTEX
  5
32B
100
AcDbEntity
  8
LAYER_1
 62
     7
100
AcDbVertex
100
AcDb2dVertex
 10
50.066195
 20
197.851834
 30
0.0
  0
VERTEX
  5
32C
100
AcDbEntity
  8
LAYER_1
 62
     7
100
AcDbVertex
100
AcDb2dVertex
 10
50.658751
 20
197.851834
 30
0.0
  0
VERTEX
  5
32D
100
AcDbEntity
  8
LAYER_1
 62
     7
100
AcDbVertex
100
AcDb2dVertex
 10
50.362473
 20
195.989071
 30
0.0
  0
SEQEND
  5
32E
100
AcDbEntity
  8
LAYER_1
 62
     7
  0
POLYLINE
  5
324
100
AcDbEntity
  8
LAYER_1
 62
     7
100
AcDb2dPolyline
 66
     1
 10
0.0
 20
0.0
 30
0.0
  0
VERTEX
  5
325
100
AcDbEntity
  8
LAYER_1
 62
     7
100
AcDbVertex
100
AcDb2dVertex
 10
50.531799
 20
197.047404
 30
0.0
  0
VERTEX
  5
326
100
AcDbEntity
  8
LAYER_1
 62
     7
100
AcDbVertex
100
AcDb2dVertex
 10
50.531799
 20
197.851834
 30
0.0
  0
VERTEX
  5
327
100
AcDbEntity
  8
LAYER_1
 62
     7
100
AcDbVertex
100
AcDb2dVertex
 10
50.616549
 20
197.555556
 30
0.0
  0
SEQEND
  5
328
100
AcDbEntity
  8
LAYER_1
 62
     7
  0
POLYLINE
  5
31F
100
AcDbEntity
  8
LAYER_1
 62
     7
100
AcDb2dPolyline
 66
     1
 10
0.0
 20
0.0
 30
0.0
  0
VERTEX
  5
320
100
AcDbEntity
  8
LAYER_1
 62
     7
100
AcDbVertex
100
AcDb2dVertex
 10
50.362473
 20
195.989071
 30
0.0
  0
VERTEX
  5
321
100
AcDbEntity
  8
LAYER_1
 62
     7
100
AcDbVertex
100
AcDb2dVertex
 10
50.362473
 20
197.851834
 30
0.0
  0
VERTEX
  5
322
100
AcDbEntity
  8
LAYER_1
 62
     7
100
AcDbVertex
100
AcDb2dVertex
 10
50.447222
 20
196.497222
 30
0.0
  0
SEQEND
  5
323
100
AcDbEntity
  8
LAYER_1
 62
     7
  0
POLYLINE
  5
31A
100
AcDbEntity
  8
LAYER_1
 62
     7
100
AcDb2dPolyline
 66
     1
 10
0.0
 20
0.0
 30
0.0
  0
VERTEX
  5
31B
100
AcDbEntity
  8
LAYER_1
 62
     7
100
AcDbVertex
100
AcDb2dVertex
 10
50.193146
 20
196.87825
 30
0.0
  0
VERTEX
  5
31C
100
AcDbEntity
  8
LAYER_1
 62
     7
100
AcDbVertex
100
AcDb2dVertex
 10
50.193146
 20
197.851834
 30
0.0
  0
VERTEX
  5
31D
100
AcDbEntity
  8
LAYER_1
 62
     7
100
AcDbVertex
100
AcDb2dVertex
 10
50.277896
 20
196.370098
 30
0.0
  0
SEQEND
  5
31E
100
AcDbEntity
  8
LAYER_1
 62
     7
  0
LINE
  5
319
100
AcDbEntity
  8
LAYER_1
 62
     7
100
AcDbLine
 10
50.066195
 20
197.851834
 30
0.0
 11
50.108569
 21
197.343854
 31
0.0
  0
LINE
  5
318
100
AcDbEntity
  8
LAYER_1
 62
     7
100
AcDbLine
 10
50.362473
 20
197.851834
 30
0.0
 11
50.362473
 21
199.714425
 31
0.0
  0
LINE
  5
317
100
AcDbEntity
  8
LAYER_1
 62
     7
100
AcDbLine
 10
64.078432
 20
192.475418
 30
0.0
 11
49.431091
 21
192.475418
 31
0.0
  0
LINE
  5
316
100
AcDbEntity
  8
LAYER_1
 62
     7
100
AcDbLine
 10
49.431091
 20
195.989071
 30
0.0
 11
69.285521
 21
195.989071
 31
0.0
  0
POLYLINE
  5
310
100
AcDbEntity
  8
LAYER_1
 62
     7
100
AcDb2dPolyline
 66
     1
 10
0.0
 20
0.0
 30
0.0
  0
VERTEX
  5
311
100
AcDbEntity
  8
LAYER_1
 62
     7
100
AcDbVertex
100
AcDb2dVertex
 10
50.362473
 20
207.080556
 30
0.0
  0
VERTEX
  5
312
100
AcDbEntity
  8
LAYER_1
 62
     7
100
AcDbVertex
100
AcDb2dVertex
 10
50.066195
 20
205.217792
 30
0.0
  0
VERTEX
  5
313
100
AcDbEntity
  8
LAYER_1
 62
     7
100
AcDbVertex
100
AcDb2dVertex
 10
50.658751
 20
205.217792
 30
0.0
  0
VERTEX
  5
314
100
AcDbEntity
  8
LAYER_1
 62
     7
100
AcDbVertex
100
AcDb2dVertex
 10
50.362473
 20
207.080556
 30
0.0
  0
SEQEND
  5
315
100
AcDbEntity
  8
LAYER_1
 62
     7
  0
LINE
  5
30F
100
AcDbEntity
  8
LAYER_1
 62
     7
100
AcDbLine
 10
50.616549
 20
205.514071
 30
0.0
 11
50.616549
 21
205.217792
 31
0.0
  0
POLYLINE
  5
30A
100
AcDbEntity
  8
LAYER_1
 62
     7
100
AcDb2dPolyline
 66
     1
 10
0.0
 20
0.0
 30
0.0
  0
VERTEX
  5
30B
100
AcDbEntity
  8
LAYER_1
 62
     7
100
AcDbVertex
100
AcDb2dVertex
 10
50.447222
 20
206.572404
 30
0.0
  0
VERTEX
  5
30C
100
AcDbEntity
  8
LAYER_1
 62
     7
100
AcDbVertex
100
AcDb2dVertex
 10
50.447222
 20
205.217792
 30
0.0
  0
VERTEX
  5
30D
100
AcDbEntity
  8
LAYER_1
 62
     7
100
AcDbVertex
100
AcDb2dVertex
 10
50.531799
 20
206.064425
 30
0.0
  0
SEQEND
  5
30E
100
AcDbEntity
  8
LAYER_1
 62
     7
  0
POLYLINE
  5
305
100
AcDbEntity
  8
LAYER_1
 62
     7
100
AcDb2dPolyline
 66
     1
 10
0.0
 20
0.0
 30
0.0
  0
VERTEX
  5
306
100
AcDbEntity
  8
LAYER_1
 62
     7
100
AcDbVertex
100
AcDb2dVertex
 10
50.277896
 20
206.699528
 30
0.0
  0
VERTEX
  5
307
100
AcDbEntity
  8
LAYER_1
 62
     7
100
AcDbVertex
100
AcDb2dVertex
 10
50.277896
 20
205.217792
 30
0.0
  0
VERTEX
  5
308
100
AcDbEntity
  8
LAYER_1
 62
     7
100
AcDbVertex
100
AcDb2dVertex
 10
50.362473
 20
207.080556
 30
0.0
  0
SEQEND
  5
309
100
AcDbEntity
  8
LAYER_1
 62
     7
  0
LINE
  5
304
100
AcDbEntity
  8
LAYER_1
 62
     7
100
AcDbLine
 10
50.193146
 20
205.217792
 30
0.0
 11
50.193146
 21
206.191549
 31
0.0
  0
LINE
  5
303
100
AcDbEntity
  8
LAYER_1
 62
     7
100
AcDbLine
 10
50.066195
 20
205.217792
 30
0.0
 11
50.108569
 21
205.725772
 31
0.0
  0
POLYLINE
  5
2FD
100
AcDbEntity
  8
LAYER_1
 62
     7
100
AcDb2dPolyline
 66
     1
 10
0.0
 20
0.0
 30
0.0
  0
VERTEX
  5
2FE
100
AcDbEntity
  8
LAYER_1
 62
     7
100
AcDbVertex
100
AcDb2dVertex
 10
50.362473
 20
195.989071
 30
0.0
  0
VERTEX
  5
2FF
100
AcDbEntity
  8
LAYER_1
 62
     7
100
AcDbVertex
100
AcDb2dVertex
 10
50.066195
 20
197.851834
 30
0.0
  0
VERTEX
  5
300
100
AcDbEntity
  8
LAYER_1
 62
     7
100
AcDbVertex
100
AcDb2dVertex
 10
50.658751
 20
197.851834
 30
0.0
  0
VERTEX
  5
301
100
AcDbEntity
  8
LAYER_1
 62
     7
100
AcDbVertex
100
AcDb2dVertex
 10
50.362473
 20
195.989071
 30
0.0
  0
SEQEND
  5
302
100
AcDbEntity
  8
LAYER_1
 62
     7
  0
POLYLINE
  5
2F8
100
AcDbEntity
  8
LAYER_1
 62
     7
100
AcDb2dPolyline
 66
     1
 10
0.0
 20
0.0
 30
0.0
  0
VERTEX
  5
2F9
100
AcDbEntity
  8
LAYER_1
 62
     7
100
AcDbVertex
100
AcDb2dVertex
 10
50.531799
 20
197.047404
 30
0.0
  0
VERTEX
  5
2FA
100
AcDbEntity
  8
LAYER_1
 62
     7
100
AcDbVertex
100
AcDb2dVertex
 10
50.531799
 20
197.851834
 30
0.0
  0
VERTEX
  5
2FB
100
AcDbEntity
  8
LAYER_1
 62
     7
100
AcDbVertex
100
AcDb2dVertex
 10
50.616549
 20
197.555556
 30
0.0
  0
SEQEND
  5
2FC
100
AcDbEntity
  8
LAYER_1
 62
     7
  0
POLYLINE
  5
2F3
100
AcDbEntity
  8
LAYER_1
 62
     7
100
AcDb2dPolyline
 66
     1
 10
0.0
 20
0.0
 30
0.0
  0
VERTEX
  5
2F4
100
AcDbEntity
  8
LAYER_1
 62
     7
100
AcDbVertex
100
AcDb2dVertex
 10
50.362473
 20
195.989071
 30
0.0
  0
VERTEX
  5
2F5
100
AcDbEntity
  8
LAYER_1
 62
     7
100
AcDbVertex
100
AcDb2dVertex
 10
50.362473
 20
197.851834
 30
0.0
  0
VERTEX
  5
2F6
100
AcDbEntity
  8
LAYER_1
 62
     7
100
AcDbVertex
100
AcDb2dVertex
 10
50.447222
 20
196.497222
 30
0.0
  0
SEQEND
  5
2F7
100
AcDbEntity
  8
LAYER_1
 62
     7
  0
POLYLINE
  5
2EE
100
AcDbEntity
  8
LAYER_1
 62
     7
100
AcDb2dPolyline
 66
     1
 10
0.0
 20
0.0
 30
0.0
  0
VERTEX
  5
2EF
100
AcDbEntity
  8
LAYER_1
 62
     7
100
AcDbVertex
100
AcDb2dVertex
 10
50.193146
 20
196.87825
 30
0.0
  0
VERTEX
  5
2F0
100
AcDbEntity
  8
LAYER_1
 62
     7
100
AcDbVertex
100
AcDb2dVertex
 10
50.193146
 20
197.851834
 30
0.0
  0
VERTEX
  5
2F1
100
AcDbEntity
  8
LAYER_1
 62
     7
100
AcDbVertex
100
AcDb2dVertex
 10
50.277896
 20
196.370098
 30
0.0
  0
SEQEND
  5
2F2
100
AcDbEntity
  8
LAYER_1
 62
     7
  0
LINE
  5
2ED
100
AcDbEntity
  8
LAYER_1
 62
     7
100
AcDbLine
 10
50.066195
 20
197.851834
 30
0.0
 11
50.108569
 21
197.343854
 31
0.0
  0
LINE
  5
2EC
100
AcDbEntity
  8
LAYER_1
 62
     7
100
AcDbLine
 10
50.362473
 20
203.270452
 30
0.0
 11
50.362473
 21
205.217792
 31
0.0
  0
LINE
  5
2EB
100
AcDbEntity
  8
LAYER_1
 62
     7
100
AcDbLine
 10
50.362473
 20
199.799174
 30
0.0
 11
50.362473
 21
197.851834
 31
0.0
  0
LINE
  5
2EA
100
AcDbEntity
  8
LAYER_1
 62
     7
100
AcDbLine
 10
49.431091
 20
207.080556
 30
0.0
 11
69.285521
 21
207.080556
 31
0.0
  0
LINE
  5
2E9
100
AcDbEntity
  8
LAYER_1
 62
     7
100
AcDbLine
 10
69.285521
 20
195.989071
 30
0.0
 11
49.431091
 21
195.989071
 31
0.0
  0
LINE
  5
2E8
100
AcDbEntity
  8
LAYER_1
 62
     7
100
AcDbLine
 10
77.328786
 20
201.280737
 30
0.0
 11
77.328786
 21
201.958215
 31
0.0
  0
LINE
  5
2E7
100
AcDbEntity
  8
LAYER_1
 62
     7
100
AcDbLine
 10
77.667438
 20
201.958215
 30
0.0
 11
77.667438
 21
201.280737
 31
0.0
  0
LINE
  5
2E6
100
AcDbEntity
  8
LAYER_1
 62
     7
100
AcDbLine
 10
81.943146
 20
206.868854
 30
0.0
 11
81.943146
 21
206.995806
 31
0.0
  0
LINE
  5
2E5
100
AcDbEntity
  8
LAYER_1
 62
     7
100
AcDbLine
 10
83.72116
 20
196.116195
 30
0.0
 11
81.943146
 21
196.116195
 31
0.0
  0
LINE
  5
2E4
100
AcDbEntity
  8
LAYER_1
 62
     7
100
AcDbLine
 10
81.943146
 20
206.995806
 30
0.0
 11
83.72116
 21
206.995806
 31
0.0
  0
POLYLINE
  5
2DF
100
AcDbEntity
  8
LAYER_1
 62
     7
100
AcDb2dPolyline
 66
     1
 10
0.0
 20
0.0
 30
0.0
  0
VERTEX
  5
2E0
100
AcDbEntity
  8
LAYER_1
 62
     7
100
AcDbVertex
100
AcDb2dVertex
 10
83.255556
 20
198.486937
 30
0.0
  0
VERTEX
  5
2E1
100
AcDbEntity
  8
LAYER_1
 62
     7
100
AcDbVertex
100
AcDb2dVertex
 10
105.52293
 20
208.943146
 30
0.0
  0
VERTEX
  5
2E2
100
AcDbEntity
  8
LAYER_1
 62
     7
100
AcDbVertex
100
AcDb2dVertex
 10
107.385693
 20
208.943146
 30
0.0
  0
SEQEND
  5
2E3
100
AcDbEntity
  8
LAYER_1
 62
     7
  0
POLYLINE
  5
2D9
100
AcDbEntity
  8
LAYER_1
 62
     7
100
AcDb2dPolyline
 66
     1
 10
0.0
 20
0.0
 30
0.0
  0
VERTEX
  5
2DA
100
AcDbEntity
  8
LAYER_1
 62
     7
100
AcDbVertex
100
AcDb2dVertex
 10
81.562291
 20
197.682507
 30
0.0
  0
VERTEX
  5
2DB
100
AcDbEntity
  8
LAYER_1
 62
     7
100
AcDbVertex
100
AcDb2dVertex
 10
83.38268
 20
198.190487
 30
0.0
  0
VERTEX
  5
2DC
100
AcDbEntity
  8
LAYER_1
 62
     7
100
AcDbVertex
100
AcDb2dVertex
 10
83.086229
 20
198.783215
 30
0.0
  0
VERTEX
  5
2DD
100
AcDbEntity
  8
LAYER_1
 62
     7
100
AcDbVertex
100
AcDb2dVertex
 10
81.562291
 20
197.682507
 30
0.0
  0
SEQEND
  5
2DE
100
AcDbEntity
  8
LAYER_1
 62
     7
  0
POLYLINE
  5
2CF
100
AcDbEntity
  8
LAYER_1
 62
     7
100
AcDb2dPolyline
 66
     1
 10
0.0
 20
0.0
 30
0.0
  0
VERTEX
  5
2D0
100
AcDbEntity
  8
LAYER_1
 62
     7
100
AcDbVertex
100
AcDb2dVertex
 10
83.29793
 20
198.190487
 30
0.0
  0
VERTEX
  5
2D1
100
AcDbEntity
  8
LAYER_1
 62
     7
100
AcDbVertex
100
AcDb2dVertex
 10
82.281972
 20
198.190487
 30
0.0
  0
VERTEX
  5
2D2
100
AcDbEntity
  8
LAYER_1
 62
     7
100
AcDbVertex
100
AcDb2dVertex
 10
83.38268
 20
198.275236
 30
0.0
  0
VERTEX
  5
2D3
100
AcDbEntity
  8
LAYER_1
 62
     7
100
AcDbVertex
100
AcDb2dVertex
 10
82.493673
 20
198.359813
 30
0.0
  0
VERTEX
  5
2D4
100
AcDbEntity
  8
LAYER_1
 62
     7
100
AcDbVertex
100
AcDb2dVertex
 10
83.29793
 20
198.444562
 30
0.0
  0
VERTEX
  5
2D5
100
AcDbEntity
  8
LAYER_1
 62
     7
100
AcDbVertex
100
AcDb2dVertex
 10
82.747576
 20
198.52914
 30
0.0
  0
VERTEX
  5
2D6
100
AcDbEntity
  8
LAYER_1
 62
     7
100
AcDbVertex
100
AcDb2dVertex
 10
83.213353
 20
198.613889
 30
0.0
  0
VERTEX
  5
2D7
100
AcDbEntity
  8
LAYER_1
 62
     7
100
AcDbVertex
100
AcDb2dVertex
 10
83.001652
 20
198.698466
 30
0.0
  0
SEQEND
  5
2D8
100
AcDbEntity
  8
LAYER_1
 62
     7
  0
POLYLINE
  5
2CA
100
AcDbEntity
  8
LAYER_1
 62
     7
100
AcDb2dPolyline
 66
     1
 10
0.0
 20
0.0
 30
0.0
  0
VERTEX
  5
2CB
100
AcDbEntity
  8
LAYER_1
 62
     7
100
AcDbVertex
100
AcDb2dVertex
 10
82.705374
 20
198.02116
 30
0.0
  0
VERTEX
  5
2CC
100
AcDbEntity
  8
LAYER_1
 62
     7
100
AcDbVertex
100
AcDb2dVertex
 10
82.027896
 20
198.02116
 30
0.0
  0
VERTEX
  5
2CD
100
AcDbEntity
  8
LAYER_1
 62
     7
100
AcDbVertex
100
AcDb2dVertex
 10
83.001652
 20
198.10591
 30
0.0
  0
SEQEND
  5
2CE
100
AcDbEntity
  8
LAYER_1
 62
     7
  0
LINE
  5
2C9
100
AcDbEntity
  8
LAYER_1
 62
     7
100
AcDbLine
 10
81.900944
 20
197.936583
 30
0.0
 11
82.408923
 21
197.936583
 31
0.0
  0
LINE
  5
2C8
100
AcDbEntity
  8
LAYER_1
 62
     7
100
AcDbLine
 10
81.562291
 20
197.682507
 30
0.0
 11
82.15502
 21
197.851834
 31
0.0
  0
POLYLINE
  5
2C2
100
AcDbEntity
  8
LAYER_1
 62
     7
100
AcDb2dPolyline
 66
     1
 10
0.0
 20
0.0
 30
0.0
  0
VERTEX
  5
2C3
100
AcDbEntity
  8
LAYER_1
 62
     7
100
AcDbVertex
100
AcDb2dVertex
 10
171.660151
 20
114.172876
 30
0.0
  0
VERTEX
  5
2C4
100
AcDbEntity
  8
LAYER_1
 62
     7
100
AcDbVertex
100
AcDb2dVertex
 10
172.464236
 20
112.987763
 30
0.0
  0
VERTEX
  5
2C5
100
AcDbEntity
  8
LAYER_1
 62
     7
100
AcDbVertex
100
AcDb2dVertex
 10
171.321153
 20
113.834568
 30
0.0
  0
VERTEX
  5
2C6
100
AcDbEntity
  8
LAYER_1
 62
     7
100
AcDbVertex
100
AcDb2dVertex
 10
171.660151
 20
114.172876
 30
0.0
  0
SEQEND
  5
2C7
100
AcDbEntity
  8
LAYER_1
 62
     7
  0
POLYLINE
  5
2B2
100
AcDbEntity
  8
LAYER_1
 62
     7
100
AcDb2dPolyline
 66
     1
 10
0.0
 20
0.0
 30
0.0
  0
VERTEX
  5
2B3
100
AcDbEntity
  8
LAYER_1
 62
     7
100
AcDbVertex
100
AcDb2dVertex
 10
171.321153
 20
113.834568
 30
0.0
  0
VERTEX
  5
2B4
100
AcDbEntity
  8
LAYER_1
 62
     7
100
AcDbVertex
100
AcDb2dVertex
 10
171.405903
 20
113.918972
 30
0.0
  0
VERTEX
  5
2B5
100
AcDbEntity
  8
LAYER_1
 62
     7
100
AcDbVertex
100
AcDb2dVertex
 10
171.490652
 20
113.706755
 30
0.0
  0
VERTEX
  5
2B6
100
AcDbEntity
  8
LAYER_1
 62
     7
100
AcDbVertex
100
AcDb2dVertex
 10
171.575401
 20
114.088127
 30
0.0
  0
VERTEX
  5
2B7
100
AcDbEntity
  8
LAYER_1
 62
     7
100
AcDbVertex
100
AcDb2dVertex
 10
171.660151
 20
113.58032
 30
0.0
  0
VERTEX
  5
2B8
100
AcDbEntity
  8
LAYER_1
 62
     7
100
AcDbVertex
100
AcDb2dVertex
 10
171.744556
 20
114.003722
 30
0.0
  0
VERTEX
  5
2B9
100
AcDbEntity
  8
LAYER_1
 62
     7
100
AcDbVertex
100
AcDb2dVertex
 10
171.829305
 20
113.45354
 30
0.0
  0
VERTEX
  5
2BA
100
AcDbEntity
  8
LAYER_1
 62
     7
100
AcDbVertex
100
AcDb2dVertex
 10
171.914054
 20
113.791848
 30
0.0
  0
VERTEX
  5
2BB
100
AcDbEntity
  8
LAYER_1
 62
     7
100
AcDbVertex
100
AcDb2dVertex
 10
171.998804
 20
113.326416
 30
0.0
  0
VERTEX
  5
2BC
100
AcDbEntity
  8
LAYER_1
 62
     7
100
AcDbVertex
100
AcDb2dVertex
 10
172.083209
 20
113.537945
 30
0.0
  0
VERTEX
  5
2BD
100
AcDbEntity
  8
LAYER_1
 62
     7
100
AcDbVertex
100
AcDb2dVertex
 10
172.167958
 20
113.199292
 30
0.0
  0
VERTEX
  5
2BE
100
AcDbEntity
  8
LAYER_1
 62
     7
100
AcDbVertex
100
AcDb2dVertex
 10
172.252707
 20
113.284041
 30
0.0
  0
VERTEX
  5
2BF
100
AcDbEntity
  8
LAYER_1
 62
     7
100
AcDbVertex
100
AcDb2dVertex
 10
172.337457
 20
113.072512
 30
0.0
  0
VERTEX
  5
2C0
100
AcDbEntity
  8
LAYER_1
 62
     7
100
AcDbVertex
100
AcDb2dVertex
 10
172.421861
 20
113.029793
 30
0.0
  0
SEQEND
  5
2C1
100
AcDbEntity
  8
LAYER_1
 62
     7
  0
POLYLINE
  5
2AD
100
AcDbEntity
  8
LAYER_1
 62
     7
100
AcDb2dPolyline
 66
     1
 10
0.0
 20
0.0
 30
0.0
  0
VERTEX
  5
2AE
100
AcDbEntity
  8
LAYER_1
 62
     7
100
AcDbVertex
100
AcDb2dVertex
 10
160.046389
 20
123.062945
 30
0.0
  0
VERTEX
  5
2AF
100
AcDbEntity
  8
LAYER_1
 62
     7
100
AcDbVertex
100
AcDb2dVertex
 10
162.840706
 20
123.062945
 30
0.0
  0
VERTEX
  5
2B0
100
AcDbEntity
  8
LAYER_1
 62
     7
100
AcDbVertex
100
AcDb2dVertex
 10
172.464236
 20
112.987763
 30
0.0
  0
SEQEND
  5
2B1
100
AcDbEntity
  8
LAYER_1
 62
     7
  0
POLYLINE
  5
2A6
100
AcDbEntity
  8
LAYER_1
 62
     7
100
AcDb2dPolyline
 66
     1
 10
0.0
 20
0.0
 30
0.0
  0
VERTEX
  5
2A7
100
AcDbEntity
  8
LAYER_1
 62
     7
100
AcDbVertex
100
AcDb2dVertex
 10
199.430721
 20
90.847168
 30
0.0
  0
VERTEX
  5
2A8
100
AcDbEntity
  8
LAYER_1
 62
     7
100
AcDbVertex
100
AcDb2dVertex
 10
199.049693
 20
90.847168
 30
0.0
  0
VERTEX
  5
2A9
100
AcDbEntity
  8
LAYER_1
 62
     7
100
AcDbVertex
100
AcDb2dVertex
 10
200.44668
 20
90.635639
 30
0.0
  0
VERTEX
  5
2AA
100
AcDbEntity
  8
LAYER_1
 62
     7
100
AcDbVertex
100
AcDb2dVertex
 10
199.049693
 20
90.42411
 30
0.0
  0
VERTEX
  5
2AB
100
AcDbEntity
  8
LAYER_1
 62
     7
100
AcDbVertex
100
AcDb2dVertex
 10
199.049693
 20
90.889543
 30
0.0
  0
SEQEND
  5
2AC
100
AcDbEntity
  8
LAYER_1
 62
     7
  0
POLYLINE
  5
2A1
100
AcDbEntity
  8
LAYER_1
 62
     7
100
AcDb2dPolyline
 66
     1
 10
0.0
 20
0.0
 30
0.0
  0
VERTEX
  5
2A2
100
AcDbEntity
  8
LAYER_1
 62
     7
100
AcDbVertex
100
AcDb2dVertex
 10
200.44668
 20
90.678014
 30
0.0
  0
VERTEX
  5
2A3
100
AcDbEntity
  8
LAYER_1
 62
     7
100
AcDbVertex
100
AcDb2dVertex
 10
199.049693
 20
90.678014
 30
0.0
  0
VERTEX
  5
2A4
100
AcDbEntity
  8
LAYER_1
 62
     7
100
AcDbVertex
100
AcDb2dVertex
 10
199.938528
 20
90.762763
 30
0.0
  0
SEQEND
  5
2A5
100
AcDbEntity
  8
LAYER_1
 62
     7
  0
LINE
  5
2A0
100
AcDbEntity
  8
LAYER_1
 62
     7
100
AcDbLine
 10
199.049693
 20
90.593264
 30
0.0
 11
200.023277
 21
90.593264
 31
0.0
  0
LINE
  5
29F
100
AcDbEntity
  8
LAYER_1
 62
     7
100
AcDbLine
 10
199.049693
 20
90.42411
 30
0.0
 11
199.557501
 21
90.508515
 31
0.0
  0
LINE
  5
29E
100
AcDbEntity
  8
LAYER_1
 62
     7
100
AcDbLine
 10
192.600819
 20
90.635639
 30
0.0
 11
200.44668
 21
90.635639
 31
0.0
  0
POLYLINE
  5
298
100
AcDbEntity
  8
LAYER_1
 62
     7
100
AcDb2dPolyline
 66
     1
 10
0.0
 20
0.0
 30
0.0
  0
VERTEX
  5
299
100
AcDbEntity
  8
LAYER_1
 62
     7
100
AcDbVertex
100
AcDb2dVertex
 10
180.46547
 20
90.42411
 30
0.0
  0
VERTEX
  5
29A
100
AcDbEntity
  8
LAYER_1
 62
     7
100
AcDbVertex
100
AcDb2dVertex
 10
179.068484
 20
90.635639
 30
0.0
  0
VERTEX
  5
29B
100
AcDbEntity
  8
LAYER_1
 62
     7
100
AcDbVertex
100
AcDb2dVertex
 10
180.46547
 20
90.889543
 30
0.0
  0
VERTEX
  5
29C
100
AcDbEntity
  8
LAYER_1
 62
     7
100
AcDbVertex
100
AcDb2dVertex
 10
180.46547
 20
90.42411
 30
0.0
  0
SEQEND
  5
29D
100
AcDbEntity
  8
LAYER_1
 62
     7
  0
POLYLINE
  5
293
100
AcDbEntity
  8
LAYER_1
 62
     7
100
AcDb2dPolyline
 66
     1
 10
0.0
 20
0.0
 30
0.0
  0
VERTEX
  5
294
100
AcDbEntity
  8
LAYER_1
 62
     7
100
AcDbVertex
100
AcDb2dVertex
 10
179.576291
 20
90.762763
 30
0.0
  0
VERTEX
  5
295
100
AcDbEntity
  8
LAYER_1
 62
     7
100
AcDbVertex
100
AcDb2dVertex
 10
180.46547
 20
90.762763
 30
0.0
  0
VERTEX
  5
296
100
AcDbEntity
  8
LAYER_1
 62
     7
100
AcDbVertex
100
AcDb2dVertex
 10
180.042068
 20
90.847168
 30
0.0
  0
SEQEND
  5
297
100
AcDbEntity
  8
LAYER_1
 62
     7
  0
POLYLINE
  5
28E
100
AcDbEntity
  8
LAYER_1
 62
     7
100
AcDb2dPolyline
 66
     1
 10
0.0
 20
0.0
 30
0.0
  0
VERTEX
  5
28F
100
AcDbEntity
  8
LAYER_1
 62
     7
100
AcDbVertex
100
AcDb2dVertex
 10
179.449167
 20
90.593264
 30
0.0
  0
VERTEX
  5
290
100
AcDbEntity
  8
LAYER_1
 62
     7
100
AcDbVertex
100
AcDb2dVertex
 10
180.46547
 20
90.593264
 30
0.0
  0
VERTEX
  5
291
100
AcDbEntity
  8
LAYER_1
 62
     7
100
AcDbVertex
100
AcDb2dVertex
 10
179.068484
 20
90.678014
 30
0.0
  0
SEQEND
  5
292
100
AcDbEntity
  8
LAYER_1
 62
     7
  0
LINE
  5
28D
100
AcDbEntity
  8
LAYER_1
 62
     7
100
AcDbLine
 10
180.46547
 20
90.42411
 30
0.0
 11
179.957319
 21
90.508515
 31
0.0
  0
LINE
  5
28C
100
AcDbEntity
  8
LAYER_1
 62
     7
100
AcDbLine
 10
179.068484
 20
90.635639
 30
0.0
 11
187.069374
 21
90.635639
 31
0.0
  0
LINE
  5
28B
100
AcDbEntity
  8
LAYER_1
 62
     7
100
AcDbLine
 10
179.068484
 20
90.296986
 30
0.0
 11
179.068484
 21
100.626416
 31
0.0
  0
POLYLINE
  5
284
100
AcDbEntity
  8
LAYER_1
 62
     7
100
AcDb2dPolyline
 66
     1
 10
0.0
 20
0.0
 30
0.0
  0
VERTEX
  5
285
100
AcDbEntity
  8
LAYER_1
 62
     7
100
AcDbVertex
100
AcDb2dVertex
 10
172.887638
 20
97.197168
 30
0.0
  0
VERTEX
  5
286
100
AcDbEntity
  8
LAYER_1
 62
     7
100
AcDbVertex
100
AcDb2dVertex
 10
172.506611
 20
97.197168
 30
0.0
  0
VERTEX
  5
287
100
AcDbEntity
  8
LAYER_1
 62
     7
100
AcDbVertex
100
AcDb2dVertex
 10
173.903597
 20
97.028014
 30
0.0
  0
VERTEX
  5
288
100
AcDbEntity
  8
LAYER_1
 62
     7
100
AcDbVertex
100
AcDb2dVertex
 10
172.506611
 20
96.77411
 30
0.0
  0
VERTEX
  5
289
100
AcDbEntity
  8
LAYER_1
 62
     7
100
AcDbVertex
100
AcDb2dVertex
 10
172.506611
 20
97.239543
 30
0.0
  0
SEQEND
  5
28A
100
AcDbEntity
  8
LAYER_1
 62
     7
  0
POLYLINE
  5
27F
100
AcDbEntity
  8
LAYER_1
 62
     7
100
AcDb2dPolyline
 66
     1
 10
0.0
 20
0.0
 30
0.0
  0
VERTEX
  5
280
100
AcDbEntity
  8
LAYER_1
 62
     7
100
AcDbVertex
100
AcDb2dVertex
 10
173.903597
 20
97.028014
 30
0.0
  0
VERTEX
  5
281
100
AcDbEntity
  8
LAYER_1
 62
     7
100
AcDbVertex
100
AcDb2dVertex
 10
172.506611
 20
97.028014
 30
0.0
  0
VERTEX
  5
282
100
AcDbEntity
  8
LAYER_1
 62
     7
100
AcDbVertex
100
AcDb2dVertex
 10
173.39579
 20
97.112763
 30
0.0
  0
SEQEND
  5
283
100
AcDbEntity
  8
LAYER_1
 62
     7
  0
LINE
  5
27E
100
AcDbEntity
  8
LAYER_1
 62
     7
100
AcDbLine
 10
172.506611
 20
96.943264
 30
0.0
 11
173.522569
 21
96.943264
 31
0.0
  0
LINE
  5
27D
100
AcDbEntity
  8
LAYER_1
 62
     7
100
AcDbLine
 10
172.506611
 20
96.77411
 30
0.0
 11
173.014762
 21
96.858515
 31
0.0
  0
LINE
  5
27C
100
AcDbEntity
  8
LAYER_1
 62
     7
100
AcDbLine
 10
173.903597
 20
97.028014
 30
0.0
 11
169.331611
 21
97.028014
 31
0.0
  0
POLYLINE
  5
276
100
AcDbEntity
  8
LAYER_1
 62
     7
100
AcDb2dPolyline
 66
     1
 10
0.0
 20
0.0
 30
0.0
  0
VERTEX
  5
277
100
AcDbEntity
  8
LAYER_1
 62
     7
100
AcDbVertex
100
AcDb2dVertex
 10
180.46547
 20
96.77411
 30
0.0
  0
VERTEX
  5
278
100
AcDbEntity
  8
LAYER_1
 62
     7
100
AcDbVertex
100
AcDb2dVertex
 10
179.068484
 20
97.028014
 30
0.0
  0
VERTEX
  5
279
100
AcDbEntity
  8
LAYER_1
 62
     7
100
AcDbVertex
100
AcDb2dVertex
 10
180.46547
 20
97.239543
 30
0.0
  0
VERTEX
  5
27A
100
AcDbEntity
  8
LAYER_1
 62
     7
100
AcDbVertex
100
AcDb2dVertex
 10
180.46547
 20
96.77411
 30
0.0
  0
SEQEND
  5
27B
100
AcDbEntity
  8
LAYER_1
 62
     7
  0
POLYLINE
  5
271
100
AcDbEntity
  8
LAYER_1
 62
     7
100
AcDb2dPolyline
 66
     1
 10
0.0
 20
0.0
 30
0.0
  0
VERTEX
  5
272
100
AcDbEntity
  8
LAYER_1
 62
     7
100
AcDbVertex
100
AcDb2dVertex
 10
179.576291
 20
97.112763
 30
0.0
  0
VERTEX
  5
273
100
AcDbEntity
  8
LAYER_1
 62
     7
100
AcDbVertex
100
AcDb2dVertex
 10
180.46547
 20
97.112763
 30
0.0
  0
VERTEX
  5
274
100
AcDbEntity
  8
LAYER_1
 62
     7
100
AcDbVertex
100
AcDb2dVertex
 10
180.042068
 20
97.197168
 30
0.0
  0
SEQEND
  5
275
100
AcDbEntity
  8
LAYER_1
 62
     7
  0
POLYLINE
  5
26C
100
AcDbEntity
  8
LAYER_1
 62
     7
100
AcDb2dPolyline
 66
     1
 10
0.0
 20
0.0
 30
0.0
  0
VERTEX
  5
26D
100
AcDbEntity
  8
LAYER_1
 62
     7
100
AcDbVertex
100
AcDb2dVertex
 10
179.449167
 20
96.943264
 30
0.0
  0
VERTEX
  5
26E
100
AcDbEntity
  8
LAYER_1
 62
     7
100
AcDbVertex
100
AcDb2dVertex
 10
180.46547
 20
96.943264
 30
0.0
  0
VERTEX
  5
26F
100
AcDbEntity
  8
LAYER_1
 62
     7
100
AcDbVertex
100
AcDb2dVertex
 10
179.068484
 20
97.028014
 30
0.0
  0
SEQEND
  5
270
100
AcDbEntity
  8
LAYER_1
 62
     7
  0
LINE
  5
26B
100
AcDbEntity
  8
LAYER_1
 62
     7
100
AcDbLine
 10
180.46547
 20
96.77411
 30
0.0
 11
179.957319
 21
96.858515
 31
0.0
  0
LINE
  5
26A
100
AcDbEntity
  8
LAYER_1
 62
     7
100
AcDbLine
 10
179.068484
 20
97.028014
 30
0.0
 11
181.862457
 21
97.028014
 31
0.0
  0
LINE
  5
269
100
AcDbEntity
  8
LAYER_1
 62
     7
100
AcDbLine
 10
173.903597
 20
96.646986
 30
0.0
 11
173.903597
 21
103.589543
 31
0.0
  0
LINE
  5
268
100
AcDbEntity
  8
LAYER_1
 62
     7
100
AcDbLine
 10
176.528415
 20
105.409931
 30
0.0
 11
172.633735
 21
105.409931
 31
0.0
  0
LINE
  5
267
100
AcDbEntity
  8
LAYER_1
 62
     7
100
AcDbLine
 10
176.739944
 20
105.621804
 30
0.0
 11
176.739944
 21
113.241667
 31
0.0
  0
LINE
  5
266
100
AcDbEntity
  8
LAYER_1
 62
     7
100
AcDbLine
 10
172.421861
 20
105.621804
 30
0.0
 11
172.421861
 21
107.187945
 31
0.0
  0
POLYLINE
  5
260
100
AcDbEntity
  8
LAYER_1
 62
     7
100
AcDb2dPolyline
 66
     1
 10
0.0
 20
0.0
 30
0.0
  0
VERTEX
  5
261
100
AcDbEntity
  8
LAYER_1
 62
     7
100
AcDbVertex
100
AcDb2dVertex
 10
173.818848
 20
83.608333
 30
0.0
  0
VERTEX
  5
262
100
AcDbEntity
  8
LAYER_1
 62
     7
100
AcDbVertex
100
AcDb2dVertex
 10
172.421861
 20
83.862237
 30
0.0
  0
VERTEX
  5
263
100
AcDbEntity
  8
LAYER_1
 62
     7
100
AcDbVertex
100
AcDb2dVertex
 10
173.818848
 20
84.074455
 30
0.0
  0
VERTEX
  5
264
100
AcDbEntity
  8
LAYER_1
 62
     7
100
AcDbVertex
100
AcDb2dVertex
 10
173.818848
 20
83.608333
 30
0.0
  0
SEQEND
  5
265
100
AcDbEntity
  8
LAYER_1
 62
     7
  0
POLYLINE
  5
25B
100
AcDbEntity
  8
LAYER_1
 62
     7
100
AcDb2dPolyline
 66
     1
 10
0.0
 20
0.0
 30
0.0
  0
VERTEX
  5
25C
100
AcDbEntity
  8
LAYER_1
 62
     7
100
AcDbVertex
100
AcDb2dVertex
 10
172.887638
 20
83.946986
 30
0.0
  0
VERTEX
  5
25D
100
AcDbEntity
  8
LAYER_1
 62
     7
100
AcDbVertex
100
AcDb2dVertex
 10
173.818848
 20
83.946986
 30
0.0
  0
VERTEX
  5
25E
100
AcDbEntity
  8
LAYER_1
 62
     7
100
AcDbVertex
100
AcDb2dVertex
 10
173.39579
 20
84.031736
 30
0.0
  0
SEQEND
  5
25F
100
AcDbEntity
  8
LAYER_1
 62
     7
  0
POLYLINE
  5
256
100
AcDbEntity
  8
LAYER_1
 62
     7
100
AcDb2dPolyline
 66
     1
 10
0.0
 20
0.0
 30
0.0
  0
VERTEX
  5
257
100
AcDbEntity
  8
LAYER_1
 62
     7
100
AcDbVertex
100
AcDb2dVertex
 10
172.802889
 20
83.777832
 30
0.0
  0
VERTEX
  5
258
100
AcDbEntity
  8
LAYER_1
 62
     7
100
AcDbVertex
100
AcDb2dVertex
 10
173.818848
 20
83.777832
 30
0.0
  0
VERTEX
  5
259
100
AcDbEntity
  8
LAYER_1
 62
     7
100
AcDbVertex
100
AcDb2dVertex
 10
172.421861
 20
83.862237
 30
0.0
  0
SEQEND
  5
25A
100
AcDbEntity
  8
LAYER_1
 62
     7
  0
LINE
  5
255
100
AcDbEntity
  8
LAYER_1
 62
     7
100
AcDbLine
 10
173.818848
 20
83.608333
 30
0.0
 11
173.311041
 21
83.693083
 31
0.0
  0
LINE
  5
254
100
AcDbEntity
  8
LAYER_1
 62
     7
100
AcDbLine
 10
183.089944
 20
83.862237
 30
0.0
 11
172.421861
 21
83.862237
 31
0.0
  0
POLYLINE
  5
24D
100
AcDbEntity
  8
LAYER_1
 62
     7
100
AcDb2dPolyline
 66
     1
 10
0.0
 20
0.0
 30
0.0
  0
VERTEX
  5
24E
100
AcDbEntity
  8
LAYER_1
 62
     7
100
AcDbVertex
100
AcDb2dVertex
 10
199.430721
 20
84.031736
 30
0.0
  0
VERTEX
  5
24F
100
AcDbEntity
  8
LAYER_1
 62
     7
100
AcDbVertex
100
AcDb2dVertex
 10
199.049693
 20
84.031736
 30
0.0
  0
VERTEX
  5
250
100
AcDbEntity
  8
LAYER_1
 62
     7
100
AcDbVertex
100
AcDb2dVertex
 10
200.44668
 20
83.862237
 30
0.0
  0
VERTEX
  5
251
100
AcDbEntity
  8
LAYER_1
 62
     7
100
AcDbVertex
100
AcDb2dVertex
 10
199.049693
 20
83.608333
 30
0.0
  0
VERTEX
  5
252
100
AcDbEntity
  8
LAYER_1
 62
     7
100
AcDbVertex
100
AcDb2dVertex
 10
199.049693
 20
84.074455
 30
0.0
  0
SEQEND
  5
253
100
AcDbEntity
  8
LAYER_1
 62
     7
  0
POLYLINE
  5
248
100
AcDbEntity
  8
LAYER_1
 62
     7
100
AcDb2dPolyline
 66
     1
 10
0.0
 20
0.0
 30
0.0
  0
VERTEX
  5
249
100
AcDbEntity
  8
LAYER_1
 62
     7
100
AcDbVertex
100
AcDb2dVertex
 10
200.44668
 20
83.862237
 30
0.0
  0
VERTEX
  5
24A
100
AcDbEntity
  8
LAYER_1
 62
     7
100
AcDbVertex
100
AcDb2dVertex
 10
199.049693
 20
83.862237
 30
0.0
  0
VERTEX
  5
24B
100
AcDbEntity
  8
LAYER_1
 62
     7
100
AcDbVertex
100
AcDb2dVertex
 10
199.938528
 20
83.946986
 30
0.0
  0
SEQEND
  5
24C
100
AcDbEntity
  8
LAYER_1
 62
     7
  0
LINE
  5
247
100
AcDbEntity
  8
LAYER_1
 62
     7
100
AcDbLine
 10
199.049693
 20
83.777832
 30
0.0
 11
200.023277
 21
83.777832
 31
0.0
  0
LINE
  5
246
100
AcDbEntity
  8
LAYER_1
 62
     7
100
AcDbLine
 10
199.049693
 20
83.608333
 30
0.0
 11
199.557156
 21
83.693083
 31
0.0
  0
LINE
  5
245
100
AcDbEntity
  8
LAYER_1
 62
     7
100
AcDbLine
 10
190.822805
 20
83.862237
 30
0.0
 11
200.44668
 21
83.862237
 31
0.0
  0
LINE
  5
244
100
AcDbEntity
  8
LAYER_1
 62
     7
100
AcDbLine
 10
172.421861
 20
104.351598
 30
0.0
 11
172.421861
 21
83.523584
 31
0.0
  0
LINE
  5
243
100
AcDbEntity
  8
LAYER_1
 62
     7
100
AcDbLine
 10
200.44668
 20
83.523584
 30
0.0
 11
200.44668
 21
99.313835
 31
0.0
  0
POLYLINE
  5
239
100
AcDbEntity
  8
LAYER_1
 62
     7
100
AcDb2dPolyline
 66
     1
 10
0.0
 20
0.0
 30
0.0
  0
VERTEX
  5
23A
100
AcDbEntity
  8
LAYER_1
 62
     7
100
AcDbVertex
100
AcDb2dVertex
 10
172.633735
 20
107.399818
 30
0.0
  0
VERTEX
  5
23B
100
AcDbEntity
  8
LAYER_1
 62
     7
100
AcDbVertex
100
AcDb2dVertex
 10
172.676109
 20
107.399818
 30
0.0
  0
VERTEX
  5
23C
100
AcDbEntity
  8
LAYER_1
 62
     7
100
AcDbVertex
100
AcDb2dVertex
 10
172.718484
 20
107.441848
 30
0.0
  0
VERTEX
  5
23D
100
AcDbEntity
  8
LAYER_1
 62
     7
100
AcDbVertex
100
AcDb2dVertex
 10
172.760514
 20
107.441848
 30
0.0
  0
VERTEX
  5
23E
100
AcDbEntity
  8
LAYER_1
 62
     7
100
AcDbVertex
100
AcDb2dVertex
 10
172.760514
 20
107.484223
 30
0.0
  0
VERTEX
  5
23F
100
AcDbEntity
  8
LAYER_1
 62
     7
100
AcDbVertex
100
AcDb2dVertex
 10
172.802889
 20
107.484223
 30
0.0
  0
VERTEX
  5
240
100
AcDbEntity
  8
LAYER_1
 62
     7
100
AcDbVertex
100
AcDb2dVertex
 10
172.845264
 20
107.526598
 30
0.0
  0
VERTEX
  5
241
100
AcDbEntity
  8
LAYER_1
 62
     7
100
AcDbVertex
100
AcDb2dVertex
 10
172.845264
 20
107.611347
 30
0.0
  0
SEQEND
  5
242
100
AcDbEntity
  8
LAYER_1
 62
     7
  0
POLYLINE
  5
230
100
AcDbEntity
  8
LAYER_1
 62
     7
100
AcDb2dPolyline
 66
     1
 10
0.0
 20
0.0
 30
0.0
  0
VERTEX
  5
231
100
AcDbEntity
  8
LAYER_1
 62
     7
100
AcDbVertex
100
AcDb2dVertex
 10
172.845264
 20
111.209749
 30
0.0
  0
VERTEX
  5
232
100
AcDbEntity
  8
LAYER_1
 62
     7
100
AcDbVertex
100
AcDb2dVertex
 10
172.845264
 20
111.294154
 30
0.0
  0
VERTEX
  5
233
100
AcDbEntity
  8
LAYER_1
 62
     7
100
AcDbVertex
100
AcDb2dVertex
 10
172.802889
 20
111.336873
 30
0.0
  0
VERTEX
  5
234
100
AcDbEntity
  8
LAYER_1
 62
     7
100
AcDbVertex
100
AcDb2dVertex
 10
172.760514
 20
111.336873
 30
0.0
  0
VERTEX
  5
235
100
AcDbEntity
  8
LAYER_1
 62
     7
100
AcDbVertex
100
AcDb2dVertex
 10
172.760514
 20
111.378904
 30
0.0
  0
VERTEX
  5
236
100
AcDbEntity
  8
LAYER_1
 62
     7
100
AcDbVertex
100
AcDb2dVertex
 10
172.718484
 20
111.421278
 30
0.0
  0
VERTEX
  5
237
100
AcDbEntity
  8
LAYER_1
 62
     7
100
AcDbVertex
100
AcDb2dVertex
 10
172.633735
 20
111.421278
 30
0.0
  0
SEQEND
  5
238
100
AcDbEntity
  8
LAYER_1
 62
     7
  0
POLYLINE
  5
227
100
AcDbEntity
  8
LAYER_1
 62
     7
100
AcDb2dPolyline
 66
     1
 10
0.0
 20
0.0
 30
0.0
  0
VERTEX
  5
228
100
AcDbEntity
  8
LAYER_1
 62
     7
100
AcDbVertex
100
AcDb2dVertex
 10
172.421861
 20
111.633152
 30
0.0
  0
VERTEX
  5
229
100
AcDbEntity
  8
LAYER_1
 62
     7
100
AcDbVertex
100
AcDb2dVertex
 10
172.421861
 20
111.548402
 30
0.0
  0
VERTEX
  5
22A
100
AcDbEntity
  8
LAYER_1
 62
     7
100
AcDbVertex
100
AcDb2dVertex
 10
172.464236
 20
111.548402
 30
0.0
  0
VERTEX
  5
22B
100
AcDbEntity
  8
LAYER_1
 62
     7
100
AcDbVertex
100
AcDb2dVertex
 10
172.464236
 20
111.463653
 30
0.0
  0
VERTEX
  5
22C
100
AcDbEntity
  8
LAYER_1
 62
     7
100
AcDbVertex
100
AcDb2dVertex
 10
172.506611
 20
111.463653
 30
0.0
  0
VERTEX
  5
22D
100
AcDbEntity
  8
LAYER_1
 62
     7
100
AcDbVertex
100
AcDb2dVertex
 10
172.548985
 20
111.421278
 30
0.0
  0
VERTEX
  5
22E
100
AcDbEntity
  8
LAYER_1
 62
     7
100
AcDbVertex
100
AcDb2dVertex
 10
172.633735
 20
111.421278
 30
0.0
  0
SEQEND
  5
22F
100
AcDbEntity
  8
LAYER_1
 62
     7
  0
POLYLINE
  5
21F
100
AcDbEntity
  8
LAYER_1
 62
     7
100
AcDb2dPolyline
 66
     1
 10
0.0
 20
0.0
 30
0.0
  0
VERTEX
  5
220
100
AcDbEntity
  8
LAYER_1
 62
     7
100
AcDbVertex
100
AcDb2dVertex
 10
173.564944
 20
105.621804
 30
0.0
  0
VERTEX
  5
221
100
AcDbEntity
  8
LAYER_1
 62
     7
100
AcDbVertex
100
AcDb2dVertex
 10
173.564944
 20
105.49468
 30
0.0
  0
VERTEX
  5
222
100
AcDbEntity
  8
LAYER_1
 62
     7
100
AcDbVertex
100
AcDb2dVertex
 10
173.607319
 20
105.49468
 30
0.0
  0
VERTEX
  5
223
100
AcDbEntity
  8
LAYER_1
 62
     7
100
AcDbVertex
100
AcDb2dVertex
 10
173.607319
 20
105.452306
 30
0.0
  0
VERTEX
  5
224
100
AcDbEntity
  8
LAYER_1
 62
     7
100
AcDbVertex
100
AcDb2dVertex
 10
173.649693
 20
105.409931
 30
0.0
  0
VERTEX
  5
225
100
AcDbEntity
  8
LAYER_1
 62
     7
100
AcDbVertex
100
AcDb2dVertex
 10
173.776817
 20
105.409931
 30
0.0
  0
SEQEND
  5
226
100
AcDbEntity
  8
LAYER_1
 62
     7
  0
POLYLINE
  5
217
100
AcDbEntity
  8
LAYER_1
 62
     7
100
AcDb2dPolyline
 66
     1
 10
0.0
 20
0.0
 30
0.0
  0
VERTEX
  5
218
100
AcDbEntity
  8
LAYER_1
 62
     7
100
AcDbVertex
100
AcDb2dVertex
 10
173.776817
 20
113.45354
 30
0.0
  0
VERTEX
  5
219
100
AcDbEntity
  8
LAYER_1
 62
     7
100
AcDbVertex
100
AcDb2dVertex
 10
173.734443
 20
113.45354
 30
0.0
  0
VERTEX
  5
21A
100
AcDbEntity
  8
LAYER_1
 62
     7
100
AcDbVertex
100
AcDb2dVertex
 10
173.692068
 20
113.410821
 30
0.0
  0
VERTEX
  5
21B
100
AcDbEntity
  8
LAYER_1
 62
     7
100
AcDbVertex
100
AcDb2dVertex
 10
173.649693
 20
113.410821
 30
0.0
  0
VERTEX
  5
21C
100
AcDbEntity
  8
LAYER_1
 62
     7
100
AcDbVertex
100
AcDb2dVertex
 10
173.564944
 20
113.326416
 30
0.0
  0
VERTEX
  5
21D
100
AcDbEntity
  8
LAYER_1
 62
     7
100
AcDbVertex
100
AcDb2dVertex
 10
173.564944
 20
113.241667
 30
0.0
  0
SEQEND
  5
21E
100
AcDbEntity
  8
LAYER_1
 62
     7
  0
POLYLINE
  5
20D
100
AcDbEntity
  8
LAYER_1
 62
     7
100
AcDb2dPolyline
 66
     1
 10
0.0
 20
0.0
 30
0.0
  0
VERTEX
  5
20E
100
AcDbEntity
  8
LAYER_1
 62
     7
100
AcDbVertex
100
AcDb2dVertex
 10
173.564944
 20
113.241667
 30
0.0
  0
VERTEX
  5
20F
100
AcDbEntity
  8
LAYER_1
 62
     7
100
AcDbVertex
100
AcDb2dVertex
 10
173.564944
 20
113.284041
 30
0.0
  0
VERTEX
  5
210
100
AcDbEntity
  8
LAYER_1
 62
     7
100
AcDbVertex
100
AcDb2dVertex
 10
173.522569
 20
113.284041
 30
0.0
  0
VERTEX
  5
211
100
AcDbEntity
  8
LAYER_1
 62
     7
100
AcDbVertex
100
AcDb2dVertex
 10
173.522569
 20
113.368791
 30
0.0
  0
VERTEX
  5
212
100
AcDbEntity
  8
LAYER_1
 62
     7
100
AcDbVertex
100
AcDb2dVertex
 10
173.480195
 20
113.368791
 30
0.0
  0
VERTEX
  5
213
100
AcDbEntity
  8
LAYER_1
 62
     7
100
AcDbVertex
100
AcDb2dVertex
 10
173.43782
 20
113.410821
 30
0.0
  0
VERTEX
  5
214
100
AcDbEntity
  8
LAYER_1
 62
     7
100
AcDbVertex
100
AcDb2dVertex
 10
173.39579
 20
113.45354
 30
0.0
  0
VERTEX
  5
215
100
AcDbEntity
  8
LAYER_1
 62
     7
100
AcDbVertex
100
AcDb2dVertex
 10
173.353415
 20
113.45354
 30
0.0
  0
SEQEND
  5
216
100
AcDbEntity
  8
LAYER_1
 62
     7
  0
POLYLINE
  5
205
100
AcDbEntity
  8
LAYER_1
 62
     7
100
AcDb2dPolyline
 66
     1
 10
0.0
 20
0.0
 30
0.0
  0
VERTEX
  5
206
100
AcDbEntity
  8
LAYER_1
 62
     7
100
AcDbVertex
100
AcDb2dVertex
 10
173.353415
 20
105.409931
 30
0.0
  0
VERTEX
  5
207
100
AcDbEntity
  8
LAYER_1
 62
     7
100
AcDbVertex
100
AcDb2dVertex
 10
173.43782
 20
105.409931
 30
0.0
  0
VERTEX
  5
208
100
AcDbEntity
  8
LAYER_1
 62
     7
100
AcDbVertex
100
AcDb2dVertex
 10
173.522569
 20
105.49468
 30
0.0
  0
VERTEX
  5
209
100
AcDbEntity
  8
LAYER_1
 62
     7
100
AcDbVertex
100
AcDb2dVertex
 10
173.522569
 20
105.537055
 30
0.0
  0
VERTEX
  5
20A
100
AcDbEntity
  8
LAYER_1
 62
     7
100
AcDbVertex
100
AcDb2dVertex
 10
173.564944
 20
105.57943
 30
0.0
  0
VERTEX
  5
20B
100
AcDbEntity
  8
LAYER_1
 62
     7
100
AcDbVertex
100
AcDb2dVertex
 10
173.564944
 20
105.621804
 30
0.0
  0
SEQEND
  5
20C
100
AcDbEntity
  8
LAYER_1
 62
     7
  0
POLYLINE
  5
1FD
100
AcDbEntity
  8
LAYER_1
 62
     7
100
AcDb2dPolyline
 66
     1
 10
0.0
 20
0.0
 30
0.0
  0
VERTEX
  5
1FE
100
AcDbEntity
  8
LAYER_1
 62
     7
100
AcDbVertex
100
AcDb2dVertex
 10
172.421861
 20
105.621804
 30
0.0
  0
VERTEX
  5
1FF
100
AcDbEntity
  8
LAYER_1
 62
     7
100
AcDbVertex
100
AcDb2dVertex
 10
172.421861
 20
105.537055
 30
0.0
  0
VERTEX
  5
200
100
AcDbEntity
  8
LAYER_1
 62
     7
100
AcDbVertex
100
AcDb2dVertex
 10
172.464236
 20
105.49468
 30
0.0
  0
VERTEX
  5
201
100
AcDbEntity
  8
LAYER_1
 62
     7
100
AcDbVertex
100
AcDb2dVertex
 10
172.464236
 20
105.452306
 30
0.0
  0
VERTEX
  5
202
100
AcDbEntity
  8
LAYER_1
 62
     7
100
AcDbVertex
100
AcDb2dVertex
 10
172.506611
 20
105.409931
 30
0.0
  0
VERTEX
  5
203
100
AcDbEntity
  8
LAYER_1
 62
     7
100
AcDbVertex
100
AcDb2dVertex
 10
172.633735
 20
105.409931
 30
0.0
  0
SEQEND
  5
204
100
AcDbEntity
  8
LAYER_1
 62
     7
  0
POLYLINE
  5
1F5
100
AcDbEntity
  8
LAYER_1
 62
     7
100
AcDb2dPolyline
 66
     1
 10
0.0
 20
0.0
 30
0.0
  0
VERTEX
  5
1F6
100
AcDbEntity
  8
LAYER_1
 62
     7
100
AcDbVertex
100
AcDb2dVertex
 10
176.528415
 20
105.409931
 30
0.0
  0
VERTEX
  5
1F7
100
AcDbEntity
  8
LAYER_1
 62
     7
100
AcDbVertex
100
AcDb2dVertex
 10
176.655195
 20
105.409931
 30
0.0
  0
VERTEX
  5
1F8
100
AcDbEntity
  8
LAYER_1
 62
     7
100
AcDbVertex
100
AcDb2dVertex
 10
176.697569
 20
105.452306
 30
0.0
  0
VERTEX
  5
1F9
100
AcDbEntity
  8
LAYER_1
 62
     7
100
AcDbVertex
100
AcDb2dVertex
 10
176.697569
 20
105.49468
 30
0.0
  0
VERTEX
  5
1FA
100
AcDbEntity
  8
LAYER_1
 62
     7
100
AcDbVertex
100
AcDb2dVertex
 10
176.739944
 20
105.537055
 30
0.0
  0
VERTEX
  5
1FB
100
AcDbEntity
  8
LAYER_1
 62
     7
100
AcDbVertex
100
AcDb2dVertex
 10
176.739944
 20
105.621804
 30
0.0
  0
SEQEND
  5
1FC
100
AcDbEntity
  8
LAYER_1
 62
     7
  0
POLYLINE
  5
1EB
100
AcDbEntity
  8
LAYER_1
 62
     7
100
AcDb2dPolyline
 66
     1
 10
0.0
 20
0.0
 30
0.0
  0
VERTEX
  5
1EC
100
AcDbEntity
  8
LAYER_1
 62
     7
100
AcDbVertex
100
AcDb2dVertex
 10
176.739944
 20
113.241667
 30
0.0
  0
VERTEX
  5
1ED
100
AcDbEntity
  8
LAYER_1
 62
     7
100
AcDbVertex
100
AcDb2dVertex
 10
176.739944
 20
113.284041
 30
0.0
  0
VERTEX
  5
1EE
100
AcDbEntity
  8
LAYER_1
 62
     7
100
AcDbVertex
100
AcDb2dVertex
 10
176.697569
 20
113.326416
 30
0.0
  0
VERTEX
  5
1EF
100
AcDbEntity
  8
LAYER_1
 62
     7
100
AcDbVertex
100
AcDb2dVertex
 10
176.697569
 20
113.368791
 30
0.0
  0
VERTEX
  5
1F0
100
AcDbEntity
  8
LAYER_1
 62
     7
100
AcDbVertex
100
AcDb2dVertex
 10
176.655195
 20
113.410821
 30
0.0
  0
VERTEX
  5
1F1
100
AcDbEntity
  8
LAYER_1
 62
     7
100
AcDbVertex
100
AcDb2dVertex
 10
176.61282
 20
113.410821
 30
0.0
  0
VERTEX
  5
1F2
100
AcDbEntity
  8
LAYER_1
 62
     7
100
AcDbVertex
100
AcDb2dVertex
 10
176.57079
 20
113.45354
 30
0.0
  0
VERTEX
  5
1F3
100
AcDbEntity
  8
LAYER_1
 62
     7
100
AcDbVertex
100
AcDb2dVertex
 10
176.528415
 20
113.45354
 30
0.0
  0
SEQEND
  5
1F4
100
AcDbEntity
  8
LAYER_1
 62
     7
  0
POLYLINE
  5
1E1
100
AcDbEntity
  8
LAYER_1
 62
     7
100
AcDb2dPolyline
 66
     1
 10
0.0
 20
0.0
 30
0.0
  0
VERTEX
  5
1E2
100
AcDbEntity
  8
LAYER_1
 62
     7
100
AcDbVertex
100
AcDb2dVertex
 10
172.633735
 20
113.45354
 30
0.0
  0
VERTEX
  5
1E3
100
AcDbEntity
  8
LAYER_1
 62
     7
100
AcDbVertex
100
AcDb2dVertex
 10
172.59136
 20
113.45354
 30
0.0
  0
VERTEX
  5
1E4
100
AcDbEntity
  8
LAYER_1
 62
     7
100
AcDbVertex
100
AcDb2dVertex
 10
172.548985
 20
113.410821
 30
0.0
  0
VERTEX
  5
1E5
100
AcDbEntity
  8
LAYER_1
 62
     7
100
AcDbVertex
100
AcDb2dVertex
 10
172.506611
 20
113.410821
 30
0.0
  0
VERTEX
  5
1E6
100
AcDbEntity
  8
LAYER_1
 62
     7
100
AcDbVertex
100
AcDb2dVertex
 10
172.464236
 20
113.368791
 30
0.0
  0
VERTEX
  5
1E7
100
AcDbEntity
  8
LAYER_1
 62
     7
100
AcDbVertex
100
AcDb2dVertex
 10
172.464236
 20
113.326416
 30
0.0
  0
VERTEX
  5
1E8
100
AcDbEntity
  8
LAYER_1
 62
     7
100
AcDbVertex
100
AcDb2dVertex
 10
172.421861
 20
113.284041
 30
0.0
  0
VERTEX
  5
1E9
100
AcDbEntity
  8
LAYER_1
 62
     7
100
AcDbVertex
100
AcDb2dVertex
 10
172.421861
 20
113.241667
 30
0.0
  0
SEQEND
  5
1EA
100
AcDbEntity
  8
LAYER_1
 62
     7
  0
POLYLINE
  5
1D7
100
AcDbEntity
  8
LAYER_1
 62
     7
100
AcDb2dPolyline
 66
     1
 10
0.0
 20
0.0
 30
0.0
  0
VERTEX
  5
1D8
100
AcDbEntity
  8
LAYER_1
 62
     7
100
AcDbVertex
100
AcDb2dVertex
 10
179.068484
 20
106.680138
 30
0.0
  0
VERTEX
  5
1D9
100
AcDbEntity
  8
LAYER_1
 62
     7
100
AcDbVertex
100
AcDb2dVertex
 10
179.068484
 20
106.595388
 30
0.0
  0
VERTEX
  5
1DA
100
AcDbEntity
  8
LAYER_1
 62
     7
100
AcDbVertex
100
AcDb2dVertex
 10
178.983735
 20
106.42589
 30
0.0
  0
VERTEX
  5
1DB
100
AcDbEntity
  8
LAYER_1
 62
     7
100
AcDbVertex
100
AcDb2dVertex
 10
178.856611
 20
106.341485
 30
0.0
  0
VERTEX
  5
1DC
100
AcDbEntity
  8
LAYER_1
 62
     7
100
AcDbVertex
100
AcDb2dVertex
 10
178.560333
 20
106.341485
 30
0.0
  0
VERTEX
  5
1DD
100
AcDbEntity
  8
LAYER_1
 62
     7
100
AcDbVertex
100
AcDb2dVertex
 10
178.390834
 20
106.510639
 30
0.0
  0
VERTEX
  5
1DE
100
AcDbEntity
  8
LAYER_1
 62
     7
100
AcDbVertex
100
AcDb2dVertex
 10
178.348804
 20
106.595388
 30
0.0
  0
VERTEX
  5
1DF
100
AcDbEntity
  8
LAYER_1
 62
     7
100
AcDbVertex
100
AcDb2dVertex
 10
178.348804
 20
106.680138
 30
0.0
  0
SEQEND
  5
1E0
100
AcDbEntity
  8
LAYER_1
 62
     7
  0
POLYLINE
  5
1CA
100
AcDbEntity
  8
LAYER_1
 62
     7
100
AcDb2dPolyline
 66
     1
 10
0.0
 20
0.0
 30
0.0
  0
VERTEX
  5
1CB
100
AcDbEntity
  8
LAYER_1
 62
     7
100
AcDbVertex
100
AcDb2dVertex
 10
179.068484
 20
112.140959
 30
0.0
  0
VERTEX
  5
1CC
100
AcDbEntity
  8
LAYER_1
 62
     7
100
AcDbVertex
100
AcDb2dVertex
 10
179.068484
 20
112.225708
 30
0.0
  0
VERTEX
  5
1CD
100
AcDbEntity
  8
LAYER_1
 62
     7
100
AcDbVertex
100
AcDb2dVertex
 10
179.026109
 20
112.310457
 30
0.0
  0
VERTEX
  5
1CE
100
AcDbEntity
  8
LAYER_1
 62
     7
100
AcDbVertex
100
AcDb2dVertex
 10
178.983735
 20
112.437237
 30
0.0
  0
VERTEX
  5
1CF
100
AcDbEntity
  8
LAYER_1
 62
     7
100
AcDbVertex
100
AcDb2dVertex
 10
178.856611
 20
112.479612
 30
0.0
  0
VERTEX
  5
1D0
100
AcDbEntity
  8
LAYER_1
 62
     7
100
AcDbVertex
100
AcDb2dVertex
 10
178.687457
 20
112.521986
 30
0.0
  0
VERTEX
  5
1D1
100
AcDbEntity
  8
LAYER_1
 62
     7
100
AcDbVertex
100
AcDb2dVertex
 10
178.560333
 20
112.479612
 30
0.0
  0
VERTEX
  5
1D2
100
AcDbEntity
  8
LAYER_1
 62
     7
100
AcDbVertex
100
AcDb2dVertex
 10
178.475583
 20
112.437237
 30
0.0
  0
VERTEX
  5
1D3
100
AcDbEntity
  8
LAYER_1
 62
     7
100
AcDbVertex
100
AcDb2dVertex
 10
178.390834
 20
112.310457
 30
0.0
  0
VERTEX
  5
1D4
100
AcDbEntity
  8
LAYER_1
 62
     7
100
AcDbVertex
100
AcDb2dVertex
 10
178.348804
 20
112.225708
 30
0.0
  0
VERTEX
  5
1D5
100
AcDbEntity
  8
LAYER_1
 62
     7
100
AcDbVertex
100
AcDb2dVertex
 10
178.348804
 20
112.140959
 30
0.0
  0
SEQEND
  5
1D6
100
AcDbEntity
  8
LAYER_1
 62
     7
  0
POLYLINE
  5
1C5
100
AcDbEntity
  8
LAYER_1
 62
     7
100
AcDb2dPolyline
 66
     1
 10
0.0
 20
0.0
 30
0.0
  0
VERTEX
  5
1C6
100
AcDbEntity
  8
LAYER_1
 62
     7
100
AcDbVertex
100
AcDb2dVertex
 10
176.739944
 20
106.341485
 30
0.0
  0
VERTEX
  5
1C7
100
AcDbEntity
  8
LAYER_1
 62
     7
100
AcDbVertex
100
AcDb2dVertex
 10
178.348804
 20
106.341485
 30
0.0
  0
VERTEX
  5
1C8
100
AcDbEntity
  8
LAYER_1
 62
     7
100
AcDbVertex
100
AcDb2dVertex
 10
178.348804
 20
112.521986
 30
0.0
  0
SEQEND
  5
1C9
100
AcDbEntity
  8
LAYER_1
 62
     7
  0
LINE
  5
1C4
100
AcDbEntity
  8
LAYER_1
 62
     7
100
AcDbLine
 10
178.348804
 20
112.521986
 30
0.0
 11
176.739944
 21
112.521986
 31
0.0
  0
LINE
  5
1C3
100
AcDbEntity
  8
LAYER_1
 62
     7
100
AcDbLine
 10
177.629123
 20
111.252124
 30
0.0
 11
177.629123
 21
107.611347
 31
0.0
  0
LINE
  5
1C2
100
AcDbEntity
  8
LAYER_1
 62
     7
100
AcDbLine
 10
177.629123
 20
111.252124
 30
0.0
 11
176.739944
 21
111.252124
 31
0.0
  0
LINE
  5
1C1
100
AcDbEntity
  8
LAYER_1
 62
     7
100
AcDbLine
 10
176.739944
 20
107.611347
 30
0.0
 11
177.629123
 21
107.611347
 31
0.0
  0
LINE
  5
1C0
100
AcDbEntity
  8
LAYER_1
 62
     7
100
AcDbLine
 10
174.919556
 20
105.409931
 30
0.0
 11
174.792776
 21
104.605501
 31
0.0
  0
LINE
  5
1BF
100
AcDbEntity
  8
LAYER_1
 62
     7
100
AcDbLine
 10
173.014762
 20
104.605501
 30
0.0
 11
172.887638
 21
105.409931
 31
0.0
  0
LINE
  5
1BE
100
AcDbEntity
  8
LAYER_1
 62
     7
100
AcDbLine
 10
173.014762
 20
104.605501
 30
0.0
 11
174.792776
 21
104.605501
 31
0.0
  0
LINE
  5
1BD
100
AcDbEntity
  8
LAYER_1
 62
     7
100
AcDbLine
 10
172.887638
 20
107.441848
 30
0.0
 11
173.057137
 21
107.441848
 31
0.0
  0
LINE
  5
1BC
100
AcDbEntity
  8
LAYER_1
 62
     7
100
AcDbLine
 10
172.760514
 20
107.441848
 30
0.0
 11
172.633735
 21
107.441848
 31
0.0
  0
LINE
  5
1BB
100
AcDbEntity
  8
LAYER_1
 62
     7
100
AcDbLine
 10
172.633735
 20
111.421278
 30
0.0
 11
173.057137
 21
111.421278
 31
0.0
  0
LINE
  5
1BA
100
AcDbEntity
  8
LAYER_1
 62
     7
100
AcDbLine
 10
172.421861
 20
111.633152
 30
0.0
 11
172.421861
 21
113.241667
 31
0.0
  0
LINE
  5
1B9
100
AcDbEntity
  8
LAYER_1
 62
     7
100
AcDbLine
 10
172.845264
 20
107.611347
 30
0.0
 11
172.845264
 21
111.209749
 31
0.0
  0
LINE
  5
1B8
100
AcDbEntity
  8
LAYER_1
 62
     7
100
AcDbLine
 10
172.633735
 20
107.399818
 30
0.0
 11
172.633735
 21
107.399818
 31
0.0
  0
LINE
  5
1B7
100
AcDbEntity
  8
LAYER_1
 62
     7
100
AcDbLine
 10
172.633735
 20
111.421278
 30
0.0
 11
172.633735
 21
111.421278
 31
0.0
  0
LINE
  5
1B6
100
AcDbEntity
  8
LAYER_1
 62
     7
100
AcDbLine
 10
173.564944
 20
113.241667
 30
0.0
 11
173.564944
 21
105.621804
 31
0.0
  0
LINE
  5
1B5
100
AcDbEntity
  8
LAYER_1
 62
     7
100
AcDbLine
 10
172.633735
 20
113.45354
 30
0.0
 11
176.528415
 21
113.45354
 31
0.0
  0
LINE
  5
1B4
100
AcDbEntity
  8
LAYER_1
 62
     7
100
AcDbLine
 10
80.461755
 20
107.639597
 30
0.0
 11
80.461755
 21
105.057153
 31
0.0
  0
POLYLINE
  5
1A9
100
AcDbEntity
  8
LAYER_1
 62
     7
100
AcDb2dPolyline
 66
     1
 10
0.0
 20
0.0
 30
0.0
  0
VERTEX
  5
1AA
100
AcDbEntity
  8
LAYER_1
 62
     7
100
AcDbVertex
100
AcDb2dVertex
 10
80.461755
 20
107.639597
 30
0.0
  0
VERTEX
  5
1AB
100
AcDbEntity
  8
LAYER_1
 62
     7
100
AcDbVertex
100
AcDb2dVertex
 10
80.461755
 20
107.724346
 30
0.0
  0
VERTEX
  5
1AC
100
AcDbEntity
  8
LAYER_1
 62
     7
100
AcDbVertex
100
AcDb2dVertex
 10
80.419036
 20
107.809096
 30
0.0
  0
VERTEX
  5
1AD
100
AcDbEntity
  8
LAYER_1
 62
     7
100
AcDbVertex
100
AcDb2dVertex
 10
80.419036
 20
107.8935
 30
0.0
  0
VERTEX
  5
1AE
100
AcDbEntity
  8
LAYER_1
 62
     7
100
AcDbVertex
100
AcDb2dVertex
 10
80.334804
 20
108.062655
 30
0.0
  0
VERTEX
  5
1AF
100
AcDbEntity
  8
LAYER_1
 62
     7
100
AcDbVertex
100
AcDb2dVertex
 10
80.250054
 20
108.147404
 30
0.0
  0
VERTEX
  5
1B0
100
AcDbEntity
  8
LAYER_1
 62
     7
100
AcDbVertex
100
AcDb2dVertex
 10
80.123102
 20
108.232153
 30
0.0
  0
VERTEX
  5
1B1
100
AcDbEntity
  8
LAYER_1
 62
     7
100
AcDbVertex
100
AcDb2dVertex
 10
79.868682
 20
108.359277
 30
0.0
  0
VERTEX
  5
1B2
100
AcDbEntity
  8
LAYER_1
 62
     7
100
AcDbVertex
100
AcDb2dVertex
 10
79.742075
 20
108.359277
 30
0.0
  0
SEQEND
  5
1B3
100
AcDbEntity
  8
LAYER_1
 62
     7
  0
POLYLINE
  5
19B
100
AcDbEntity
  8
LAYER_1
 62
     7
100
AcDb2dPolyline
 66
     1
 10
0.0
 20
0.0
 30
0.0
  0
VERTEX
  5
19C
100
AcDbEntity
  8
LAYER_1
 62
     7
100
AcDbVertex
100
AcDb2dVertex
 10
74.87381
 20
108.359277
 30
0.0
  0
VERTEX
  5
19D
100
AcDbEntity
  8
LAYER_1
 62
     7
100
AcDbVertex
100
AcDb2dVertex
 10
74.703967
 20
108.359277
 30
0.0
  0
VERTEX
  5
19E
100
AcDbEntity
  8
LAYER_1
 62
     7
100
AcDbVertex
100
AcDb2dVertex
 10
74.577016
 20
108.274183
 30
0.0
  0
VERTEX
  5
19F
100
AcDbEntity
  8
LAYER_1
 62
     7
100
AcDbVertex
100
AcDb2dVertex
 10
74.450408
 20
108.232153
 30
0.0
  0
VERTEX
  5
1A0
100
AcDbEntity
  8
LAYER_1
 62
     7
100
AcDbVertex
100
AcDb2dVertex
 10
74.281082
 20
108.062655
 30
0.0
  0
VERTEX
  5
1A1
100
AcDbEntity
  8
LAYER_1
 62
     7
100
AcDbVertex
100
AcDb2dVertex
 10
74.15413
 20
107.809096
 30
0.0
  0
VERTEX
  5
1A2
100
AcDbEntity
  8
LAYER_1
 62
     7
100
AcDbVertex
100
AcDb2dVertex
 10
74.15413
 20
104.887999
 30
0.0
  0
VERTEX
  5
1A3
100
AcDbEntity
  8
LAYER_1
 62
     7
100
AcDbVertex
100
AcDb2dVertex
 10
74.281082
 20
104.633751
 30
0.0
  0
VERTEX
  5
1A4
100
AcDbEntity
  8
LAYER_1
 62
     7
100
AcDbVertex
100
AcDb2dVertex
 10
74.450408
 20
104.464597
 30
0.0
  0
VERTEX
  5
1A5
100
AcDbEntity
  8
LAYER_1
 62
     7
100
AcDbVertex
100
AcDb2dVertex
 10
74.577016
 20
104.379848
 30
0.0
  0
VERTEX
  5
1A6
100
AcDbEntity
  8
LAYER_1
 62
     7
100
AcDbVertex
100
AcDb2dVertex
 10
74.703967
 20
104.337473
 30
0.0
  0
VERTEX
  5
1A7
100
AcDbEntity
  8
LAYER_1
 62
     7
100
AcDbVertex
100
AcDb2dVertex
 10
74.87381
 20
104.337473
 30
0.0
  0
SEQEND
  5
1A8
100
AcDbEntity
  8
LAYER_1
 62
     7
  0
POLYLINE
  5
190
100
AcDbEntity
  8
LAYER_1
 62
     7
100
AcDb2dPolyline
 66
     1
 10
0.0
 20
0.0
 30
0.0
  0
VERTEX
  5
191
100
AcDbEntity
  8
LAYER_1
 62
     7
100
AcDbVertex
100
AcDb2dVertex
 10
80.588363
 20
107.639597
 30
0.0
  0
VERTEX
  5
192
100
AcDbEntity
  8
LAYER_1
 62
     7
100
AcDbVertex
100
AcDb2dVertex
 10
80.588363
 20
107.724346
 30
0.0
  0
VERTEX
  5
193
100
AcDbEntity
  8
LAYER_1
 62
     7
100
AcDbVertex
100
AcDb2dVertex
 10
80.545988
 20
107.809096
 30
0.0
  0
VERTEX
  5
194
100
AcDbEntity
  8
LAYER_1
 62
     7
100
AcDbVertex
100
AcDb2dVertex
 10
80.545988
 20
107.8935
 30
0.0
  0
VERTEX
  5
195
100
AcDbEntity
  8
LAYER_1
 62
     7
100
AcDbVertex
100
AcDb2dVertex
 10
80.50413
 20
107.97825
 30
0.0
  0
VERTEX
  5
196
100
AcDbEntity
  8
LAYER_1
 62
     7
100
AcDbVertex
100
AcDb2dVertex
 10
80.250054
 20
108.232153
 30
0.0
  0
VERTEX
  5
197
100
AcDbEntity
  8
LAYER_1
 62
     7
100
AcDbVertex
100
AcDb2dVertex
 10
80.123102
 20
108.274183
 30
0.0
  0
VERTEX
  5
198
100
AcDbEntity
  8
LAYER_1
 62
     7
100
AcDbVertex
100
AcDb2dVertex
 10
79.995634
 20
108.359277
 30
0.0
  0
VERTEX
  5
199
100
AcDbEntity
  8
LAYER_1
 62
     7
100
AcDbVertex
100
AcDb2dVertex
 10
79.868682
 20
108.359277
 30
0.0
  0
SEQEND
  5
19A
100
AcDbEntity
  8
LAYER_1
 62
     7
  0
POLYLINE
  5
185
100
AcDbEntity
  8
LAYER_1
 62
     7
100
AcDb2dPolyline
 66
     1
 10
0.0
 20
0.0
 30
0.0
  0
VERTEX
  5
186
100
AcDbEntity
  8
LAYER_1
 62
     7
100
AcDbVertex
100
AcDb2dVertex
 10
79.868682
 20
104.337473
 30
0.0
  0
VERTEX
  5
187
100
AcDbEntity
  8
LAYER_1
 62
     7
100
AcDbVertex
100
AcDb2dVertex
 10
79.995634
 20
104.337473
 30
0.0
  0
VERTEX
  5
188
100
AcDbEntity
  8
LAYER_1
 62
     7
100
AcDbVertex
100
AcDb2dVertex
 10
80.123102
 20
104.379848
 30
0.0
  0
VERTEX
  5
189
100
AcDbEntity
  8
LAYER_1
 62
     7
100
AcDbVertex
100
AcDb2dVertex
 10
80.250054
 20
104.464597
 30
0.0
  0
VERTEX
  5
18A
100
AcDbEntity
  8
LAYER_1
 62
     7
100
AcDbVertex
100
AcDb2dVertex
 10
80.50413
 20
104.7185
 30
0.0
  0
VERTEX
  5
18B
100
AcDbEntity
  8
LAYER_1
 62
     7
100
AcDbVertex
100
AcDb2dVertex
 10
80.545988
 20
104.80325
 30
0.0
  0
VERTEX
  5
18C
100
AcDbEntity
  8
LAYER_1
 62
     7
100
AcDbVertex
100
AcDb2dVertex
 10
80.545988
 20
104.887999
 30
0.0
  0
VERTEX
  5
18D
100
AcDbEntity
  8
LAYER_1
 62
     7
100
AcDbVertex
100
AcDb2dVertex
 10
80.588363
 20
104.972404
 30
0.0
  0
VERTEX
  5
18E
100
AcDbEntity
  8
LAYER_1
 62
     7
100
AcDbVertex
100
AcDb2dVertex
 10
80.588363
 20
105.057153
 30
0.0
  0
SEQEND
  5
18F
100
AcDbEntity
  8
LAYER_1
 62
     7
  0
POLYLINE
  5
17A
100
AcDbEntity
  8
LAYER_1
 62
     7
100
AcDb2dPolyline
 66
     1
 10
0.0
 20
0.0
 30
0.0
  0
VERTEX
  5
17B
100
AcDbEntity
  8
LAYER_1
 62
     7
100
AcDbVertex
100
AcDb2dVertex
 10
74.026662
 20
105.057153
 30
0.0
  0
VERTEX
  5
17C
100
AcDbEntity
  8
LAYER_1
 62
     7
100
AcDbVertex
100
AcDb2dVertex
 10
74.026662
 20
104.887999
 30
0.0
  0
VERTEX
  5
17D
100
AcDbEntity
  8
LAYER_1
 62
     7
100
AcDbVertex
100
AcDb2dVertex
 10
74.111755
 20
104.7185
 30
0.0
  0
VERTEX
  5
17E
100
AcDbEntity
  8
LAYER_1
 62
     7
100
AcDbVertex
100
AcDb2dVertex
 10
74.195988
 20
104.633751
 30
0.0
  0
VERTEX
  5
17F
100
AcDbEntity
  8
LAYER_1
 62
     7
100
AcDbVertex
100
AcDb2dVertex
 10
74.238363
 20
104.549346
 30
0.0
  0
VERTEX
  5
180
100
AcDbEntity
  8
LAYER_1
 62
     7
100
AcDbVertex
100
AcDb2dVertex
 10
74.323456
 20
104.464597
 30
0.0
  0
VERTEX
  5
181
100
AcDbEntity
  8
LAYER_1
 62
     7
100
AcDbVertex
100
AcDb2dVertex
 10
74.450408
 20
104.379848
 30
0.0
  0
VERTEX
  5
182
100
AcDbEntity
  8
LAYER_1
 62
     7
100
AcDbVertex
100
AcDb2dVertex
 10
74.577016
 20
104.337473
 30
0.0
  0
VERTEX
  5
183
100
AcDbEntity
  8
LAYER_1
 62
     7
100
AcDbVertex
100
AcDb2dVertex
 10
74.746342
 20
104.337473
 30
0.0
  0
SEQEND
  5
184
100
AcDbEntity
  8
LAYER_1
 62
     7
  0
POLYLINE
  5
16F
100
AcDbEntity
  8
LAYER_1
 62
     7
100
AcDb2dPolyline
 66
     1
 10
0.0
 20
0.0
 30
0.0
  0
VERTEX
  5
170
100
AcDbEntity
  8
LAYER_1
 62
     7
100
AcDbVertex
100
AcDb2dVertex
 10
74.746342
 20
108.359277
 30
0.0
  0
VERTEX
  5
171
100
AcDbEntity
  8
LAYER_1
 62
     7
100
AcDbVertex
100
AcDb2dVertex
 10
74.577016
 20
108.359277
 30
0.0
  0
VERTEX
  5
172
100
AcDbEntity
  8
LAYER_1
 62
     7
100
AcDbVertex
100
AcDb2dVertex
 10
74.450408
 20
108.274183
 30
0.0
  0
VERTEX
  5
173
100
AcDbEntity
  8
LAYER_1
 62
     7
100
AcDbVertex
100
AcDb2dVertex
 10
74.323456
 20
108.232153
 30
0.0
  0
VERTEX
  5
174
100
AcDbEntity
  8
LAYER_1
 62
     7
100
AcDbVertex
100
AcDb2dVertex
 10
74.238363
 20
108.147404
 30
0.0
  0
VERTEX
  5
175
100
AcDbEntity
  8
LAYER_1
 62
     7
100
AcDbVertex
100
AcDb2dVertex
 10
74.195988
 20
108.062655
 30
0.0
  0
VERTEX
  5
176
100
AcDbEntity
  8
LAYER_1
 62
     7
100
AcDbVertex
100
AcDb2dVertex
 10
74.111755
 20
107.97825
 30
0.0
  0
VERTEX
  5
177
100
AcDbEntity
  8
LAYER_1
 62
     7
100
AcDbVertex
100
AcDb2dVertex
 10
74.026662
 20
107.809096
 30
0.0
  0
VERTEX
  5
178
100
AcDbEntity
  8
LAYER_1
 62
     7
100
AcDbVertex
100
AcDb2dVertex
 10
74.026662
 20
107.639597
 30
0.0
  0
SEQEND
  5
179
100
AcDbEntity
  8
LAYER_1
 62
     7
  0
POLYLINE
  5
165
100
AcDbEntity
  8
LAYER_1
 62
     7
100
AcDb2dPolyline
 66
     1
 10
0.0
 20
0.0
 30
0.0
  0
VERTEX
  5
166
100
AcDbEntity
  8
LAYER_1
 62
     7
100
AcDbVertex
100
AcDb2dVertex
 10
72.037463
 20
103.19439
 30
0.0
  0
VERTEX
  5
167
100
AcDbEntity
  8
LAYER_1
 62
     7
100
AcDbVertex
100
AcDb2dVertex
 10
72.037463
 20
103.025236
 30
0.0
  0
VERTEX
  5
168
100
AcDbEntity
  8
LAYER_1
 62
     7
100
AcDbVertex
100
AcDb2dVertex
 10
72.121696
 20
102.771332
 30
0.0
  0
VERTEX
  5
169
100
AcDbEntity
  8
LAYER_1
 62
     7
100
AcDbVertex
100
AcDb2dVertex
 10
72.20679
 20
102.686583
 30
0.0
  0
VERTEX
  5
16A
100
AcDbEntity
  8
LAYER_1
 62
     7
100
AcDbVertex
100
AcDb2dVertex
 10
72.291022
 20
102.559459
 30
0.0
  0
VERTEX
  5
16B
100
AcDbEntity
  8
LAYER_1
 62
     7
100
AcDbVertex
100
AcDb2dVertex
 10
72.417974
 20
102.475054
 30
0.0
  0
VERTEX
  5
16C
100
AcDbEntity
  8
LAYER_1
 62
     7
100
AcDbVertex
100
AcDb2dVertex
 10
72.587301
 20
102.390305
 30
0.0
  0
VERTEX
  5
16D
100
AcDbEntity
  8
LAYER_1
 62
     7
100
AcDbVertex
100
AcDb2dVertex
 10
72.92647
 20
102.305556
 30
0.0
  0
SEQEND
  5
16E
100
AcDbEntity
  8
LAYER_1
 62
     7
  0
POLYLINE
  5
15B
100
AcDbEntity
  8
LAYER_1
 62
     7
100
AcDb2dPolyline
 66
     1
 10
0.0
 20
0.0
 30
0.0
  0
VERTEX
  5
15C
100
AcDbEntity
  8
LAYER_1
 62
     7
100
AcDbVertex
100
AcDb2dVertex
 10
81.689415
 20
102.305556
 30
0.0
  0
VERTEX
  5
15D
100
AcDbEntity
  8
LAYER_1
 62
     7
100
AcDbVertex
100
AcDb2dVertex
 10
82.028068
 20
102.390305
 30
0.0
  0
VERTEX
  5
15E
100
AcDbEntity
  8
LAYER_1
 62
     7
100
AcDbVertex
100
AcDb2dVertex
 10
82.282144
 20
102.559459
 30
0.0
  0
VERTEX
  5
15F
100
AcDbEntity
  8
LAYER_1
 62
     7
100
AcDbVertex
100
AcDb2dVertex
 10
82.409096
 20
102.686583
 30
0.0
  0
VERTEX
  5
160
100
AcDbEntity
  8
LAYER_1
 62
     7
100
AcDbVertex
100
AcDb2dVertex
 10
82.45147
 20
102.771332
 30
0.0
  0
VERTEX
  5
161
100
AcDbEntity
  8
LAYER_1
 62
     7
100
AcDbVertex
100
AcDb2dVertex
 10
82.535703
 20
103.025236
 30
0.0
  0
VERTEX
  5
162
100
AcDbEntity
  8
LAYER_1
 62
     7
100
AcDbVertex
100
AcDb2dVertex
 10
82.535703
 20
103.109985
 30
0.0
  0
VERTEX
  5
163
100
AcDbEntity
  8
LAYER_1
 62
     7
100
AcDbVertex
100
AcDb2dVertex
 10
82.578422
 20
103.19439
 30
0.0
  0
SEQEND
  5
164
100
AcDbEntity
  8
LAYER_1
 62
     7
  0
POLYLINE
  5
14F
100
AcDbEntity
  8
LAYER_1
 62
     7
100
AcDb2dPolyline
 66
     1
 10
0.0
 20
0.0
 30
0.0
  0
VERTEX
  5
150
100
AcDbEntity
  8
LAYER_1
 62
     7
100
AcDbVertex
100
AcDb2dVertex
 10
82.578422
 20
109.502016
 30
0.0
  0
VERTEX
  5
151
100
AcDbEntity
  8
LAYER_1
 62
     7
100
AcDbVertex
100
AcDb2dVertex
 10
82.535703
 20
109.586765
 30
0.0
  0
VERTEX
  5
152
100
AcDbEntity
  8
LAYER_1
 62
     7
100
AcDbVertex
100
AcDb2dVertex
 10
82.535703
 20
109.671514
 30
0.0
  0
VERTEX
  5
153
100
AcDbEntity
  8
LAYER_1
 62
     7
100
AcDbVertex
100
AcDb2dVertex
 10
82.493328
 20
109.798638
 30
0.0
  0
VERTEX
  5
154
100
AcDbEntity
  8
LAYER_1
 62
     7
100
AcDbVertex
100
AcDb2dVertex
 10
82.45147
 20
109.883043
 30
0.0
  0
VERTEX
  5
155
100
AcDbEntity
  8
LAYER_1
 62
     7
100
AcDbVertex
100
AcDb2dVertex
 10
82.409096
 20
110.010167
 30
0.0
  0
VERTEX
  5
156
100
AcDbEntity
  8
LAYER_1
 62
     7
100
AcDbVertex
100
AcDb2dVertex
 10
82.282144
 20
110.137291
 30
0.0
  0
VERTEX
  5
157
100
AcDbEntity
  8
LAYER_1
 62
     7
100
AcDbVertex
100
AcDb2dVertex
 10
82.028068
 20
110.30679
 30
0.0
  0
VERTEX
  5
158
100
AcDbEntity
  8
LAYER_1
 62
     7
100
AcDbVertex
100
AcDb2dVertex
 10
81.858742
 20
110.34882
 30
0.0
  0
VERTEX
  5
159
100
AcDbEntity
  8
LAYER_1
 62
     7
100
AcDbVertex
100
AcDb2dVertex
 10
81.689415
 20
110.34882
 30
0.0
  0
SEQEND
  5
15A
100
AcDbEntity
  8
LAYER_1
 62
     7
  0
POLYLINE
  5
144
100
AcDbEntity
  8
LAYER_1
 62
     7
100
AcDb2dPolyline
 66
     1
 10
0.0
 20
0.0
 30
0.0
  0
VERTEX
  5
145
100
AcDbEntity
  8
LAYER_1
 62
     7
100
AcDbVertex
100
AcDb2dVertex
 10
72.92647
 20
110.34882
 30
0.0
  0
VERTEX
  5
146
100
AcDbEntity
  8
LAYER_1
 62
     7
100
AcDbVertex
100
AcDb2dVertex
 10
72.757144
 20
110.34882
 30
0.0
  0
VERTEX
  5
147
100
AcDbEntity
  8
LAYER_1
 62
     7
100
AcDbVertex
100
AcDb2dVertex
 10
72.587301
 20
110.30679
 30
0.0
  0
VERTEX
  5
148
100
AcDbEntity
  8
LAYER_1
 62
     7
100
AcDbVertex
100
AcDb2dVertex
 10
72.417974
 20
110.22204
 30
0.0
  0
VERTEX
  5
149
100
AcDbEntity
  8
LAYER_1
 62
     7
100
AcDbVertex
100
AcDb2dVertex
 10
72.291022
 20
110.137291
 30
0.0
  0
VERTEX
  5
14A
100
AcDbEntity
  8
LAYER_1
 62
     7
100
AcDbVertex
100
AcDb2dVertex
 10
72.121696
 20
109.883043
 30
0.0
  0
VERTEX
  5
14B
100
AcDbEntity
  8
LAYER_1
 62
     7
100
AcDbVertex
100
AcDb2dVertex
 10
72.079321
 20
109.798638
 30
0.0
  0
VERTEX
  5
14C
100
AcDbEntity
  8
LAYER_1
 62
     7
100
AcDbVertex
100
AcDb2dVertex
 10
72.037463
 20
109.671514
 30
0.0
  0
VERTEX
  5
14D
100
AcDbEntity
  8
LAYER_1
 62
     7
100
AcDbVertex
100
AcDb2dVertex
 10
72.037463
 20
109.502016
 30
0.0
  0
SEQEND
  5
14E
100
AcDbEntity
  8
LAYER_1
 62
     7
  0
POLYLINE
  5
13E
100
AcDbEntity
  8
LAYER_1
 62
     7
100
AcDb2dPolyline
 66
     1
 10
0.0
 20
0.0
 30
0.0
  0
VERTEX
  5
13F
100
AcDbEntity
  8
LAYER_1
 62
     7
100
AcDbVertex
100
AcDb2dVertex
 10
76.270797
 20
102.305556
 30
0.0
  0
VERTEX
  5
140
100
AcDbEntity
  8
LAYER_1
 62
     7
100
AcDbVertex
100
AcDb2dVertex
 10
76.397748
 20
101.5435
 30
0.0
  0
VERTEX
  5
141
100
AcDbEntity
  8
LAYER_1
 62
     7
100
AcDbVertex
100
AcDb2dVertex
 10
78.175762
 20
101.5435
 30
0.0
  0
VERTEX
  5
142
100
AcDbEntity
  8
LAYER_1
 62
     7
100
AcDbVertex
100
AcDb2dVertex
 10
78.30237
 20
102.305556
 30
0.0
  0
SEQEND
  5
143
100
AcDbEntity
  8
LAYER_1
 62
     7
  0
LINE
  5
13D
100
AcDbEntity
  8
LAYER_1
 62
     7
100
AcDbLine
 10
74.026662
 20
105.057153
 30
0.0
 11
74.026662
 21
107.639597
 31
0.0
  0
LINE
  5
13C
100
AcDbEntity
  8
LAYER_1
 62
     7
100
AcDbLine
 10
79.868682
 20
104.337473
 30
0.0
 11
74.746342
 21
104.337473
 31
0.0
  0
LINE
  5
13B
100
AcDbEntity
  8
LAYER_1
 62
     7
100
AcDbLine
 10
80.588363
 20
107.639597
 30
0.0
 11
80.588363
 21
105.057153
 31
0.0
  0
LINE
  5
13A
100
AcDbEntity
  8
LAYER_1
 62
     7
100
AcDbLine
 10
74.746342
 20
108.359277
 30
0.0
 11
79.868682
 21
108.359277
 31
0.0
  0
LINE
  5
139
100
AcDbEntity
  8
LAYER_1
 62
     7
100
AcDbLine
 10
72.037463
 20
103.19439
 30
0.0
 11
72.037463
 21
109.502016
 31
0.0
  0
LINE
  5
138
100
AcDbEntity
  8
LAYER_1
 62
     7
100
AcDbLine
 10
81.689415
 20
102.305556
 30
0.0
 11
72.92647
 21
102.305556
 31
0.0
  0
LINE
  5
137
100
AcDbEntity
  8
LAYER_1
 62
     7
100
AcDbLine
 10
82.578422
 20
109.502016
 30
0.0
 11
82.578422
 21
103.19439
 31
0.0
  0
LINE
  5
136
100
AcDbEntity
  8
LAYER_1
 62
     7
100
AcDbLine
 10
81.689415
 20
110.34882
 30
0.0
 11
72.92647
 21
110.34882
 31
0.0
  0
POLYLINE
  5
12E
100
AcDbEntity
  8
LAYER_1
 62
     7
100
AcDb2dPolyline
 66
     1
 10
0.0
 20
0.0
 30
0.0
  0
VERTEX
  5
12F
100
AcDbEntity
  8
LAYER_1
 62
     7
100
AcDbVertex
100
AcDb2dVertex
 10
172.633735
 20
107.399818
 30
0.0
  0
VERTEX
  5
130
100
AcDbEntity
  8
LAYER_1
 62
     7
100
AcDbVertex
100
AcDb2dVertex
 10
172.506611
 20
107.399818
 30
0.0
  0
VERTEX
  5
131
100
AcDbEntity
  8
LAYER_1
 62
     7
100
AcDbVertex
100
AcDb2dVertex
 10
172.464236
 20
107.357444
 30
0.0
  0
VERTEX
  5
132
100
AcDbEntity
  8
LAYER_1
 62
     7
100
AcDbVertex
100
AcDb2dVertex
 10
172.464236
 20
107.315069
 30
0.0
  0
VERTEX
  5
133
100
AcDbEntity
  8
LAYER_1
 62
     7
100
AcDbVertex
100
AcDb2dVertex
 10
172.421861
 20
107.272694
 30
0.0
  0
VERTEX
  5
134
100
AcDbEntity
  8
LAYER_1
 62
     7
100
AcDbVertex
100
AcDb2dVertex
 10
172.421861
 20
107.187945
 30
0.0
  0
SEQEND
  5
135
100
AcDbEntity
  8
LAYER_1
 62
     7
  0
POLYLINE
  5
125
100
AcDbEntity
  8
LAYER_1
 62
     7
100
AcDb2dPolyline
 66
     1
 10
0.0
 20
0.0
 30
0.0
  0
VERTEX
  5
126
100
AcDbEntity
  8
LAYER_1
 62
     7
100
AcDbVertex
100
AcDb2dVertex
 10
82.57825
 20
189.893491
 30
0.0
  0
VERTEX
  5
127
100
AcDbEntity
  8
LAYER_1
 62
     7
100
AcDbVertex
100
AcDb2dVertex
 10
82.57825
 20
189.977724
 30
0.0
  0
VERTEX
  5
128
100
AcDbEntity
  8
LAYER_1
 62
     7
100
AcDbVertex
100
AcDb2dVertex
 10
82.535875
 20
190.020098
 30
0.0
  0
VERTEX
  5
129
100
AcDbEntity
  8
LAYER_1
 62
     7
100
AcDbVertex
100
AcDb2dVertex
 10
82.535875
 20
190.062473
 30
0.0
  0
VERTEX
  5
12A
100
AcDbEntity
  8
LAYER_1
 62
     7
100
AcDbVertex
100
AcDb2dVertex
 10
82.4935
 20
190.062473
 30
0.0
  0
VERTEX
  5
12B
100
AcDbEntity
  8
LAYER_1
 62
     7
100
AcDbVertex
100
AcDb2dVertex
 10
82.451298
 20
190.104848
 30
0.0
  0
VERTEX
  5
12C
100
AcDbEntity
  8
LAYER_1
 62
     7
100
AcDbVertex
100
AcDb2dVertex
 10
82.366549
 20
190.104848
 30
0.0
  0
SEQEND
  5
12D
100
AcDbEntity
  8
LAYER_1
 62
     7
  0
POLYLINE
  5
11A
100
AcDbEntity
  8
LAYER_1
 62
     7
100
AcDb2dPolyline
 66
     1
 10
0.0
 20
0.0
 30
0.0
  0
VERTEX
  5
11B
100
AcDbEntity
  8
LAYER_1
 62
     7
100
AcDbVertex
100
AcDb2dVertex
 10
72.291195
 20
190.104848
 30
0.0
  0
VERTEX
  5
11C
100
AcDbEntity
  8
LAYER_1
 62
     7
100
AcDbVertex
100
AcDb2dVertex
 10
72.206618
 20
190.104848
 30
0.0
  0
VERTEX
  5
11D
100
AcDbEntity
  8
LAYER_1
 62
     7
100
AcDbVertex
100
AcDb2dVertex
 10
72.164243
 20
190.062473
 30
0.0
  0
VERTEX
  5
11E
100
AcDbEntity
  8
LAYER_1
 62
     7
100
AcDbVertex
100
AcDb2dVertex
 10
72.121868
 20
190.062473
 30
0.0
  0
VERTEX
  5
11F
100
AcDbEntity
  8
LAYER_1
 62
     7
100
AcDbVertex
100
AcDb2dVertex
 10
72.121868
 20
190.020098
 30
0.0
  0
VERTEX
  5
120
100
AcDbEntity
  8
LAYER_1
 62
     7
100
AcDbVertex
100
AcDb2dVertex
 10
72.079494
 20
190.020098
 30
0.0
  0
VERTEX
  5
121
100
AcDbEntity
  8
LAYER_1
 62
     7
100
AcDbVertex
100
AcDb2dVertex
 10
72.079494
 20
189.977724
 30
0.0
  0
VERTEX
  5
122
100
AcDbEntity
  8
LAYER_1
 62
     7
100
AcDbVertex
100
AcDb2dVertex
 10
72.037291
 20
189.935521
 30
0.0
  0
VERTEX
  5
123
100
AcDbEntity
  8
LAYER_1
 62
     7
100
AcDbVertex
100
AcDb2dVertex
 10
72.037291
 20
189.893491
 30
0.0
  0
SEQEND
  5
124
100
AcDbEntity
  8
LAYER_1
 62
     7
  0
POLYLINE
  5
112
100
AcDbEntity
  8
LAYER_1
 62
     7
100
AcDb2dPolyline
 66
     1
 10
0.0
 20
0.0
 30
0.0
  0
VERTEX
  5
113
100
AcDbEntity
  8
LAYER_1
 62
     7
100
AcDbVertex
100
AcDb2dVertex
 10
77.625236
 20
186.294916
 30
0.0
  0
VERTEX
  5
114
100
AcDbEntity
  8
LAYER_1
 62
     7
100
AcDbVertex
100
AcDb2dVertex
 10
77.709813
 20
186.337119
 30
0.0
  0
VERTEX
  5
115
100
AcDbEntity
  8
LAYER_1
 62
     7
100
AcDbVertex
100
AcDb2dVertex
 10
78.006264
 20
186.506445
 30
0.0
  0
VERTEX
  5
116
100
AcDbEntity
  8
LAYER_1
 62
     7
100
AcDbVertex
100
AcDb2dVertex
 10
78.217965
 20
186.760521
 30
0.0
  0
VERTEX
  5
117
100
AcDbEntity
  8
LAYER_1
 62
     7
100
AcDbVertex
100
AcDb2dVertex
 10
78.302542
 20
187.056799
 30
0.0
  0
VERTEX
  5
118
100
AcDbEntity
  8
LAYER_1
 62
     7
100
AcDbVertex
100
AcDb2dVertex
 10
78.344916
 20
187.226126
 30
0.0
  0
SEQEND
  5
119
100
AcDbEntity
  8
LAYER_1
 62
     7
  0
POLYLINE
  5
109
100
AcDbEntity
  8
LAYER_1
 62
     7
100
AcDb2dPolyline
 66
     1
 10
0.0
 20
0.0
 30
0.0
  0
VERTEX
  5
10A
100
AcDbEntity
  8
LAYER_1
 62
     7
100
AcDbVertex
100
AcDb2dVertex
 10
76.524528
 20
187.903432
 30
0.0
  0
VERTEX
  5
10B
100
AcDbEntity
  8
LAYER_1
 62
     7
100
AcDbVertex
100
AcDb2dVertex
 10
76.397576
 20
187.734105
 30
0.0
  0
VERTEX
  5
10C
100
AcDbEntity
  8
LAYER_1
 62
     7
100
AcDbVertex
100
AcDb2dVertex
 10
76.355202
 20
187.522404
 30
0.0
  0
VERTEX
  5
10D
100
AcDbEntity
  8
LAYER_1
 62
     7
100
AcDbVertex
100
AcDb2dVertex
 10
76.312827
 20
187.2685
 30
0.0
  0
VERTEX
  5
10E
100
AcDbEntity
  8
LAYER_1
 62
     7
100
AcDbVertex
100
AcDb2dVertex
 10
76.312827
 20
187.056799
 30
0.0
  0
VERTEX
  5
10F
100
AcDbEntity
  8
LAYER_1
 62
     7
100
AcDbVertex
100
AcDb2dVertex
 10
76.397576
 20
186.802724
 30
0.0
  0
VERTEX
  5
110
100
AcDbEntity
  8
LAYER_1
 62
     7
100
AcDbVertex
100
AcDb2dVertex
 10
76.482153
 20
186.675772
 30
0.0
  0
SEQEND
  5
111
100
AcDbEntity
  8
LAYER_1
 62
     7
  0
POLYLINE
  5
FD
100
AcDbEntity
  8
LAYER_1
 62
     7
100
AcDb2dPolyline
 66
     1
 10
0.0
 20
0.0
 30
0.0
  0
VERTEX
  5
FE
100
AcDbEntity
  8
LAYER_1
 62
     7
100
AcDbVertex
100
AcDb2dVertex
 10
77.582861
 20
186.421868
 30
0.0
  0
VERTEX
  5
FF
100
AcDbEntity
  8
LAYER_1
 62
     7
100
AcDbVertex
100
AcDb2dVertex
 10
77.921514
 20
186.591195
 30
0.0
  0
VERTEX
  5
100
100
AcDbEntity
  8
LAYER_1
 62
     7
100
AcDbVertex
100
AcDb2dVertex
 10
78.090841
 20
186.845098
 30
0.0
  0
VERTEX
  5
101
100
AcDbEntity
  8
LAYER_1
 62
     7
100
AcDbVertex
100
AcDb2dVertex
 10
78.17559
 20
187.056799
 30
0.0
  0
VERTEX
  5
102
100
AcDbEntity
  8
LAYER_1
 62
     7
100
AcDbVertex
100
AcDb2dVertex
 10
78.17559
 20
187.226126
 30
0.0
  0
VERTEX
  5
103
100
AcDbEntity
  8
LAYER_1
 62
     7
100
AcDbVertex
100
AcDb2dVertex
 10
78.344916
 20
187.480202
 30
0.0
  0
VERTEX
  5
104
100
AcDbEntity
  8
LAYER_1
 62
     7
100
AcDbVertex
100
AcDb2dVertex
 10
78.260167
 20
187.734105
 30
0.0
  0
VERTEX
  5
105
100
AcDbEntity
  8
LAYER_1
 62
     7
100
AcDbVertex
100
AcDb2dVertex
 10
78.048638
 20
188.030556
 30
0.0
  0
VERTEX
  5
106
100
AcDbEntity
  8
LAYER_1
 62
     7
100
AcDbVertex
100
AcDb2dVertex
 10
77.752188
 20
188.199882
 30
0.0
  0
VERTEX
  5
107
100
AcDbEntity
  8
LAYER_1
 62
     7
100
AcDbVertex
100
AcDb2dVertex
 10
77.667611
 20
188.242084
 30
0.0
  0
SEQEND
  5
108
100
AcDbEntity
  8
LAYER_1
 62
     7
  0
POLYLINE
  5
F4
100
AcDbEntity
  8
LAYER_1
 62
     7
100
AcDb2dPolyline
 66
     1
 10
0.0
 20
0.0
 30
0.0
  0
VERTEX
  5
F5
100
AcDbEntity
  8
LAYER_1
 62
     7
100
AcDbVertex
100
AcDb2dVertex
 10
76.65148
 20
187.818854
 30
0.0
  0
VERTEX
  5
F6
100
AcDbEntity
  8
LAYER_1
 62
     7
100
AcDbVertex
100
AcDb2dVertex
 10
76.566903
 20
187.691903
 30
0.0
  0
VERTEX
  5
F7
100
AcDbEntity
  8
LAYER_1
 62
     7
100
AcDbVertex
100
AcDb2dVertex
 10
76.482153
 20
187.480202
 30
0.0
  0
VERTEX
  5
F8
100
AcDbEntity
  8
LAYER_1
 62
     7
100
AcDbVertex
100
AcDb2dVertex
 10
76.439951
 20
187.2685
 30
0.0
  0
VERTEX
  5
F9
100
AcDbEntity
  8
LAYER_1
 62
     7
100
AcDbVertex
100
AcDb2dVertex
 10
76.439951
 20
187.099174
 30
0.0
  0
VERTEX
  5
FA
100
AcDbEntity
  8
LAYER_1
 62
     7
100
AcDbVertex
100
AcDb2dVertex
 10
76.524528
 20
186.845098
 30
0.0
  0
VERTEX
  5
FB
100
AcDbEntity
  8
LAYER_1
 62
     7
100
AcDbVertex
100
AcDb2dVertex
 10
76.609277
 20
186.760521
 30
0.0
  0
SEQEND
  5
FC
100
AcDbEntity
  8
LAYER_1
 62
     7
  0
POLYLINE
  5
EC
100
AcDbEntity
  8
LAYER_1
 62
     7
100
AcDb2dPolyline
 66
     1
 10
0.0
 20
0.0
 30
0.0
  0
VERTEX
  5
ED
100
AcDbEntity
  8
LAYER_1
 62
     7
100
AcDbVertex
100
AcDb2dVertex
 10
78.217965
 20
187.2685
 30
0.0
  0
VERTEX
  5
EE
100
AcDbEntity
  8
LAYER_1
 62
     7
100
AcDbVertex
100
AcDb2dVertex
 10
78.217965
 20
187.437827
 30
0.0
  0
VERTEX
  5
EF
100
AcDbEntity
  8
LAYER_1
 62
     7
100
AcDbVertex
100
AcDb2dVertex
 10
78.133215
 20
187.649528
 30
0.0
  0
VERTEX
  5
F0
100
AcDbEntity
  8
LAYER_1
 62
     7
100
AcDbVertex
100
AcDb2dVertex
 10
77.963889
 20
187.903432
 30
0.0
  0
VERTEX
  5
F1
100
AcDbEntity
  8
LAYER_1
 62
     7
100
AcDbVertex
100
AcDb2dVertex
 10
77.709813
 20
188.072758
 30
0.0
  0
VERTEX
  5
F2
100
AcDbEntity
  8
LAYER_1
 62
     7
100
AcDbVertex
100
AcDb2dVertex
 10
77.582861
 20
188.072758
 30
0.0
  0
SEQEND
  5
F3
100
AcDbEntity
  8
LAYER_1
 62
     7
  0
LINE
  5
EB
100
AcDbEntity
  8
LAYER_1
 62
     7
100
AcDbLine
 10
77.328958
 20
188.580737
 30
0.0
 11
77.328958
 21
185.956091
 31
0.0
  0
LINE
  5
EA
100
AcDbEntity
  8
LAYER_1
 62
     7
100
AcDbLine
 10
78.641195
 20
187.2685
 30
0.0
 11
76.016549
 21
187.2685
 31
0.0
  0
LINE
  5
E9
100
AcDbEntity
  8
LAYER_1
 62
     7
100
AcDbLine
 10
79.911229
 20
190.104848
 30
0.0
 11
79.911229
 21
191.713535
 31
0.0
  0
LINE
  5
E8
100
AcDbEntity
  8
LAYER_1
 62
     7
100
AcDbLine
 10
74.70414
 20
191.713535
 30
0.0
 11
74.70414
 21
190.104848
 31
0.0
  0
POLYLINE
  5
D8
100
AcDbEntity
  8
LAYER_1
 62
     7
100
AcDb2dPolyline
 66
     1
 10
0.0
 20
0.0
 30
0.0
  0
VERTEX
  5
D9
100
AcDbEntity
  8
LAYER_1
 62
     7
100
AcDbVertex
100
AcDb2dVertex
 10
80.038181
 20
191.713535
 30
0.0
  0
VERTEX
  5
DA
100
AcDbEntity
  8
LAYER_1
 62
     7
100
AcDbVertex
100
AcDb2dVertex
 10
80.12293
 20
191.713535
 30
0.0
  0
VERTEX
  5
DB
100
AcDbEntity
  8
LAYER_1
 62
     7
100
AcDbVertex
100
AcDb2dVertex
 10
80.207507
 20
191.755737
 30
0.0
  0
VERTEX
  5
DC
100
AcDbEntity
  8
LAYER_1
 62
     7
100
AcDbVertex
100
AcDb2dVertex
 10
80.249882
 20
191.798112
 30
0.0
  0
VERTEX
  5
DD
100
AcDbEntity
  8
LAYER_1
 62
     7
100
AcDbVertex
100
AcDb2dVertex
 10
80.292257
 20
191.798112
 30
0.0
  0
VERTEX
  5
DE
100
AcDbEntity
  8
LAYER_1
 62
     7
100
AcDbVertex
100
AcDb2dVertex
 10
80.334631
 20
191.840487
 30
0.0
  0
VERTEX
  5
DF
100
AcDbEntity
  8
LAYER_1
 62
     7
100
AcDbVertex
100
AcDb2dVertex
 10
80.376834
 20
191.925236
 30
0.0
  0
VERTEX
  5
E0
100
AcDbEntity
  8
LAYER_1
 62
     7
100
AcDbVertex
100
AcDb2dVertex
 10
80.419208
 20
191.967438
 30
0.0
  0
VERTEX
  5
E1
100
AcDbEntity
  8
LAYER_1
 62
     7
100
AcDbVertex
100
AcDb2dVertex
 10
80.419208
 20
192.221514
 30
0.0
  0
VERTEX
  5
E2
100
AcDbEntity
  8
LAYER_1
 62
     7
100
AcDbVertex
100
AcDb2dVertex
 10
80.376834
 20
192.263889
 30
0.0
  0
VERTEX
  5
E3
100
AcDbEntity
  8
LAYER_1
 62
     7
100
AcDbVertex
100
AcDb2dVertex
 10
80.334631
 20
192.306091
 30
0.0
  0
VERTEX
  5
E4
100
AcDbEntity
  8
LAYER_1
 62
     7
100
AcDbVertex
100
AcDb2dVertex
 10
80.207507
 20
192.433215
 30
0.0
  0
VERTEX
  5
E5
100
AcDbEntity
  8
LAYER_1
 62
     7
100
AcDbVertex
100
AcDb2dVertex
 10
80.12293
 20
192.433215
 30
0.0
  0
VERTEX
  5
E6
100
AcDbEntity
  8
LAYER_1
 62
     7
100
AcDbVertex
100
AcDb2dVertex
 10
80.038181
 20
192.475418
 30
0.0
  0
SEQEND
  5
E7
100
AcDbEntity
  8
LAYER_1
 62
     7
  0
POLYLINE
  5
C8
100
AcDbEntity
  8
LAYER_1
 62
     7
100
AcDb2dPolyline
 66
     1
 10
0.0
 20
0.0
 30
0.0
  0
VERTEX
  5
C9
100
AcDbEntity
  8
LAYER_1
 62
     7
100
AcDbVertex
100
AcDb2dVertex
 10
74.577188
 20
192.475418
 30
0.0
  0
VERTEX
  5
CA
100
AcDbEntity
  8
LAYER_1
 62
     7
100
AcDbVertex
100
AcDb2dVertex
 10
74.534813
 20
192.433215
 30
0.0
  0
VERTEX
  5
CB
100
AcDbEntity
  8
LAYER_1
 62
     7
100
AcDbVertex
100
AcDb2dVertex
 10
74.450236
 20
192.433215
 30
0.0
  0
VERTEX
  5
CC
100
AcDbEntity
  8
LAYER_1
 62
     7
100
AcDbVertex
100
AcDb2dVertex
 10
74.407861
 20
192.390841
 30
0.0
  0
VERTEX
  5
CD
100
AcDbEntity
  8
LAYER_1
 62
     7
100
AcDbVertex
100
AcDb2dVertex
 10
74.323284
 20
192.348466
 30
0.0
  0
VERTEX
  5
CE
100
AcDbEntity
  8
LAYER_1
 62
     7
100
AcDbVertex
100
AcDb2dVertex
 10
74.28091
 20
192.306091
 30
0.0
  0
VERTEX
  5
CF
100
AcDbEntity
  8
LAYER_1
 62
     7
100
AcDbVertex
100
AcDb2dVertex
 10
74.238535
 20
192.263889
 30
0.0
  0
VERTEX
  5
D0
100
AcDbEntity
  8
LAYER_1
 62
     7
100
AcDbVertex
100
AcDb2dVertex
 10
74.238535
 20
191.925236
 30
0.0
  0
VERTEX
  5
D1
100
AcDbEntity
  8
LAYER_1
 62
     7
100
AcDbVertex
100
AcDb2dVertex
 10
74.28091
 20
191.840487
 30
0.0
  0
VERTEX
  5
D2
100
AcDbEntity
  8
LAYER_1
 62
     7
100
AcDbVertex
100
AcDb2dVertex
 10
74.323284
 20
191.798112
 30
0.0
  0
VERTEX
  5
D3
100
AcDbEntity
  8
LAYER_1
 62
     7
100
AcDbVertex
100
AcDb2dVertex
 10
74.407861
 20
191.798112
 30
0.0
  0
VERTEX
  5
D4
100
AcDbEntity
  8
LAYER_1
 62
     7
100
AcDbVertex
100
AcDb2dVertex
 10
74.450236
 20
191.755737
 30
0.0
  0
VERTEX
  5
D5
100
AcDbEntity
  8
LAYER_1
 62
     7
100
AcDbVertex
100
AcDb2dVertex
 10
74.534813
 20
191.713535
 30
0.0
  0
VERTEX
  5
D6
100
AcDbEntity
  8
LAYER_1
 62
     7
100
AcDbVertex
100
AcDb2dVertex
 10
74.577188
 20
191.713535
 30
0.0
  0
SEQEND
  5
D7
100
AcDbEntity
  8
LAYER_1
 62
     7
  0
LINE
  5
C7
100
AcDbEntity
  8
LAYER_1
 62
     7
100
AcDbLine
 10
80.038181
 20
191.713535
 30
0.0
 11
74.577188
 21
191.713535
 31
0.0
  0
POLYLINE
  5
B4
100
AcDbEntity
  8
LAYER_1
 62
     7
100
AcDb2dPolyline
 66
     1
 10
0.0
 20
0.0
 30
0.0
  0
VERTEX
  5
B5
100
AcDbEntity
  8
LAYER_1
 62
     7
100
AcDbVertex
100
AcDb2dVertex
 10
72.206618
 20
186.845098
 30
0.0
  0
VERTEX
  5
B6
100
AcDbEntity
  8
LAYER_1
 62
     7
100
AcDbVertex
100
AcDb2dVertex
 10
73.137827
 20
186.506445
 30
0.0
  0
VERTEX
  5
B7
100
AcDbEntity
  8
LAYER_1
 62
     7
100
AcDbVertex
100
AcDb2dVertex
 10
74.153958
 20
186.167792
 30
0.0
  0
VERTEX
  5
B8
100
AcDbEntity
  8
LAYER_1
 62
     7
100
AcDbVertex
100
AcDb2dVertex
 10
74.661937
 20
186.083215
 30
0.0
  0
VERTEX
  5
B9
100
AcDbEntity
  8
LAYER_1
 62
     7
100
AcDbVertex
100
AcDb2dVertex
 10
75.169916
 20
185.956091
 30
0.0
  0
VERTEX
  5
BA
100
AcDbEntity
  8
LAYER_1
 62
     7
100
AcDbVertex
100
AcDb2dVertex
 10
75.72027
 20
185.871514
 30
0.0
  0
VERTEX
  5
BB
100
AcDbEntity
  8
LAYER_1
 62
     7
100
AcDbVertex
100
AcDb2dVertex
 10
76.22825
 20
185.82914
 30
0.0
  0
VERTEX
  5
BC
100
AcDbEntity
  8
LAYER_1
 62
     7
100
AcDbVertex
100
AcDb2dVertex
 10
76.778604
 20
185.786765
 30
0.0
  0
VERTEX
  5
BD
100
AcDbEntity
  8
LAYER_1
 62
     7
100
AcDbVertex
100
AcDb2dVertex
 10
77.836937
 20
185.786765
 30
0.0
  0
VERTEX
  5
BE
100
AcDbEntity
  8
LAYER_1
 62
     7
100
AcDbVertex
100
AcDb2dVertex
 10
78.937473
 20
185.871514
 30
0.0
  0
VERTEX
  5
BF
100
AcDbEntity
  8
LAYER_1
 62
     7
100
AcDbVertex
100
AcDb2dVertex
 10
79.445624
 20
185.956091
 30
0.0
  0
VERTEX
  5
C0
100
AcDbEntity
  8
LAYER_1
 62
     7
100
AcDbVertex
100
AcDb2dVertex
 10
79.953604
 20
186.083215
 30
0.0
  0
VERTEX
  5
C1
100
AcDbEntity
  8
LAYER_1
 62
     7
100
AcDbVertex
100
AcDb2dVertex
 10
80.503958
 20
186.167792
 30
0.0
  0
VERTEX
  5
C2
100
AcDbEntity
  8
LAYER_1
 62
     7
100
AcDbVertex
100
AcDb2dVertex
 10
81.011937
 20
186.337119
 30
0.0
  0
VERTEX
  5
C3
100
AcDbEntity
  8
LAYER_1
 62
     7
100
AcDbVertex
100
AcDb2dVertex
 10
81.477542
 20
186.506445
 30
0.0
  0
VERTEX
  5
C4
100
AcDbEntity
  8
LAYER_1
 62
     7
100
AcDbVertex
100
AcDb2dVertex
 10
81.985521
 20
186.675772
 30
0.0
  0
VERTEX
  5
C5
100
AcDbEntity
  8
LAYER_1
 62
     7
100
AcDbVertex
100
AcDb2dVertex
 10
82.451298
 20
186.845098
 30
0.0
  0
SEQEND
  5
C6
100
AcDbEntity
  8
LAYER_1
 62
     7
  0
LINE
  5
B3
100
AcDbEntity
  8
LAYER_1
 62
     7
100
AcDbLine
 10
72.037291
 20
187.056799
 30
0.0
 11
72.037291
 21
189.893491
 31
0.0
  0
LINE
  5
B2
100
AcDbEntity
  8
LAYER_1
 62
     7
100
AcDbLine
 10
82.57825
 20
189.893491
 30
0.0
 11
82.57825
 21
187.056799
 31
0.0
  0
LINE
  5
B1
100
AcDbEntity
  8
LAYER_1
 62
     7
100
AcDbLine
 10
82.366549
 20
190.104848
 30
0.0
 11
72.291195
 21
190.104848
 31
0.0
  0
LINE
  5
B0
100
AcDbEntity
  8
LAYER_1
 62
     7
100
AcDbLine
 10
77.328958
 20
99.088181
 30
0.0
 11
77.328958
 21
100.400418
 31
0.0
  0
LINE
  5
AF
100
AcDbEntity
  8
LAYER_1
 62
     7
100
AcDbLine
 10
77.328958
 20
98.199346
 30
0.0
 11
77.328958
 21
98.664779
 31
0.0
  0
LINE
  5
AE
100
AcDbEntity
  8
LAYER_1
 62
     7
100
AcDbLine
 10
77.328958
 20
96.463707
 30
0.0
 11
77.328958
 21
97.775944
 31
0.0
  0
LINE
  5
AD
100
AcDbEntity
  8
LAYER_1
 62
     7
100
AcDbLine
 10
77.328958
 20
95.616903
 30
0.0
 11
77.328958
 21
96.040305
 31
0.0
  0
LINE
  5
AC
100
AcDbEntity
  8
LAYER_1
 62
     7
100
AcDbLine
 10
77.328958
 20
95.151126
 30
0.0
 11
77.328958
 21
93.881264
 31
0.0
  0
POLYLINE
  5
A0
100
AcDbEntity
  8
LAYER_1
 62
     7
100
AcDb2dPolyline
 66
     1
 10
0.0
 20
0.0
 30
0.0
  0
VERTEX
  5
A1
100
AcDbEntity
  8
LAYER_1
 62
     7
100
AcDbVertex
100
AcDb2dVertex
 10
79.741903
 20
104.337473
 30
0.0
  0
VERTEX
  5
A2
100
AcDbEntity
  8
LAYER_1
 62
     7
100
AcDbVertex
100
AcDb2dVertex
 10
79.868854
 20
104.337473
 30
0.0
  0
VERTEX
  5
A3
100
AcDbEntity
  8
LAYER_1
 62
     7
100
AcDbVertex
100
AcDb2dVertex
 10
80.038181
 20
104.379848
 30
0.0
  0
VERTEX
  5
A4
100
AcDbEntity
  8
LAYER_1
 62
     7
100
AcDbVertex
100
AcDb2dVertex
 10
80.12293
 20
104.464597
 30
0.0
  0
VERTEX
  5
A5
100
AcDbEntity
  8
LAYER_1
 62
     7
100
AcDbVertex
100
AcDb2dVertex
 10
80.249882
 20
104.549346
 30
0.0
  0
VERTEX
  5
A6
100
AcDbEntity
  8
LAYER_1
 62
     7
100
AcDbVertex
100
AcDb2dVertex
 10
80.334631
 20
104.633751
 30
0.0
  0
VERTEX
  5
A7
100
AcDbEntity
  8
LAYER_1
 62
     7
100
AcDbVertex
100
AcDb2dVertex
 10
80.419208
 20
104.80325
 30
0.0
  0
VERTEX
  5
A8
100
AcDbEntity
  8
LAYER_1
 62
     7
100
AcDbVertex
100
AcDb2dVertex
 10
80.419208
 20
104.888344
 30
0.0
  0
VERTEX
  5
A9
100
AcDbEntity
  8
LAYER_1
 62
     7
100
AcDbVertex
100
AcDb2dVertex
 10
80.461583
 20
104.972404
 30
0.0
  0
VERTEX
  5
AA
100
AcDbEntity
  8
LAYER_1
 62
     7
100
AcDbVertex
100
AcDb2dVertex
 10
80.461583
 20
105.057153
 30
0.0
  0
SEQEND
  5
AB
100
AcDbEntity
  8
LAYER_1
 62
     7
  0
POLYLINE
  5
9B
100
AcDbEntity
  8
LAYER_1
 62
     7
100
AcDb2dPolyline
 66
     1
 10
0.0
 20
0.0
 30
0.0
  0
VERTEX
  5
9C
100
AcDbEntity
  8
LAYER_1
 62
     7
100
AcDbVertex
100
AcDb2dVertex
 10
207.601109
 20
156.464007
 30
0.0
  0
VERTEX
  5
9D
100
AcDbEntity
  8
LAYER_1
 62
     7
100
AcDbVertex
100
AcDb2dVertex
 10
200.742958
 20
167.640069
 30
0.0
  0
VERTEX
  5
9E
100
AcDbEntity
  8
LAYER_1
 62
     7
100
AcDbVertex
100
AcDb2dVertex
 10
198.880195
 20
167.640069
 30
0.0
  0
SEQEND
  5
9F
100
AcDbEntity
  8
LAYER_1
 62
     7
  0
POLYLINE
  5
95
100
AcDbEntity
  8
LAYER_1
 62
     7
100
AcDb2dPolyline
 66
     1
 10
0.0
 20
0.0
 30
0.0
  0
VERTEX
  5
96
100
AcDbEntity
  8
LAYER_1
 62
     7
100
AcDbVertex
100
AcDb2dVertex
 10
208.574693
 20
154.85532
 30
0.0
  0
VERTEX
  5
97
100
AcDbEntity
  8
LAYER_1
 62
     7
100
AcDbVertex
100
AcDb2dVertex
 10
207.346861
 20
156.29468
 30
0.0
  0
VERTEX
  5
98
100
AcDbEntity
  8
LAYER_1
 62
     7
100
AcDbVertex
100
AcDb2dVertex
 10
207.897388
 20
156.590959
 30
0.0
  0
VERTEX
  5
99
100
AcDbEntity
  8
LAYER_1
 62
     7
100
AcDbVertex
100
AcDb2dVertex
 10
208.574693
 20
154.85532
 30
0.0
  0
SEQEND
  5
9A
100
AcDbEntity
  8
LAYER_1
 62
     7
  0
POLYLINE
  5
90
100
AcDbEntity
  8
LAYER_1
 62
     7
100
AcDb2dPolyline
 66
     1
 10
0.0
 20
0.0
 30
0.0
  0
VERTEX
  5
91
100
AcDbEntity
  8
LAYER_1
 62
     7
100
AcDbVertex
100
AcDb2dVertex
 10
208.447569
 20
155.363299
 30
0.0
  0
VERTEX
  5
92
100
AcDbEntity
  8
LAYER_1
 62
     7
100
AcDbVertex
100
AcDb2dVertex
 10
208.447569
 20
155.024646
 30
0.0
  0
VERTEX
  5
93
100
AcDbEntity
  8
LAYER_1
 62
     7
100
AcDbVertex
100
AcDb2dVertex
 10
208.532319
 20
155.15177
 30
0.0
  0
SEQEND
  5
94
100
AcDbEntity
  8
LAYER_1
 62
     7
  0
POLYLINE
  5
8B
100
AcDbEntity
  8
LAYER_1
 62
     7
100
AcDb2dPolyline
 66
     1
 10
0.0
 20
0.0
 30
0.0
  0
VERTEX
  5
8C
100
AcDbEntity
  8
LAYER_1
 62
     7
100
AcDbVertex
100
AcDb2dVertex
 10
208.278415
 20
155.786701
 30
0.0
  0
VERTEX
  5
8D
100
AcDbEntity
  8
LAYER_1
 62
     7
100
AcDbVertex
100
AcDb2dVertex
 10
208.278415
 20
155.236347
 30
0.0
  0
VERTEX
  5
8E
100
AcDbEntity
  8
LAYER_1
 62
     7
100
AcDbVertex
100
AcDb2dVertex
 10
208.36282
 20
155.575
 30
0.0
  0
SEQEND
  5
8F
100
AcDbEntity
  8
LAYER_1
 62
     7
  0
POLYLINE
  5
86
100
AcDbEntity
  8
LAYER_1
 62
     7
100
AcDb2dPolyline
 66
     1
 10
0.0
 20
0.0
 30
0.0
  0
VERTEX
  5
87
100
AcDbEntity
  8
LAYER_1
 62
     7
100
AcDbVertex
100
AcDb2dVertex
 10
208.108917
 20
156.210103
 30
0.0
  0
VERTEX
  5
88
100
AcDbEntity
  8
LAYER_1
 62
     7
100
AcDbVertex
100
AcDb2dVertex
 10
208.108917
 20
155.448048
 30
0.0
  0
VERTEX
  5
89
100
AcDbEntity
  8
LAYER_1
 62
     7
100
AcDbVertex
100
AcDb2dVertex
 10
208.193666
 20
155.998402
 30
0.0
  0
SEQEND
  5
8A
100
AcDbEntity
  8
LAYER_1
 62
     7
  0
POLYLINE
  5
7B
100
AcDbEntity
  8
LAYER_1
 62
     7
100
AcDb2dPolyline
 66
     1
 10
0.0
 20
0.0
 30
0.0
  0
VERTEX
  5
7C
100
AcDbEntity
  8
LAYER_1
 62
     7
100
AcDbVertex
100
AcDb2dVertex
 10
207.346861
 20
156.29468
 30
0.0
  0
VERTEX
  5
7D
100
AcDbEntity
  8
LAYER_1
 62
     7
100
AcDbVertex
100
AcDb2dVertex
 10
207.431611
 20
156.210103
 30
0.0
  0
VERTEX
  5
7E
100
AcDbEntity
  8
LAYER_1
 62
     7
100
AcDbVertex
100
AcDb2dVertex
 10
207.51636
 20
156.37943
 30
0.0
  0
VERTEX
  5
7F
100
AcDbEntity
  8
LAYER_1
 62
     7
100
AcDbVertex
100
AcDb2dVertex
 10
207.601109
 20
155.998402
 30
0.0
  0
VERTEX
  5
80
100
AcDbEntity
  8
LAYER_1
 62
     7
100
AcDbVertex
100
AcDb2dVertex
 10
207.685514
 20
156.506382
 30
0.0
  0
VERTEX
  5
81
100
AcDbEntity
  8
LAYER_1
 62
     7
100
AcDbVertex
100
AcDb2dVertex
 10
207.770264
 20
155.829076
 30
0.0
  0
VERTEX
  5
82
100
AcDbEntity
  8
LAYER_1
 62
     7
100
AcDbVertex
100
AcDb2dVertex
 10
207.855013
 20
156.590959
 30
0.0
  0
VERTEX
  5
83
100
AcDbEntity
  8
LAYER_1
 62
     7
100
AcDbVertex
100
AcDb2dVertex
 10
207.939762
 20
155.617375
 30
0.0
  0
VERTEX
  5
84
100
AcDbEntity
  8
LAYER_1
 62
     7
100
AcDbVertex
100
AcDb2dVertex
 10
208.024167
 20
156.37943
 30
0.0
  0
SEQEND
  5
85
100
AcDbEntity
  8
LAYER_1
 62
     7
  0
POLYLINE
  5
71
100
AcDbEntity
  8
LAYER_1
 62
     7
100
AcDb2dPolyline
 66
     1
 10
0.0
 20
0.0
 30
0.0
  0
VERTEX
  5
72
100
AcDbEntity
  8
LAYER_1
 62
     7
100
AcDbVertex
100
AcDb2dVertex
 10
72.037291
 20
187.056972
 30
0.0
  0
VERTEX
  5
73
100
AcDbEntity
  8
LAYER_1
 62
     7
100
AcDbVertex
100
AcDb2dVertex
 10
72.037291
 20
187.014597
 30
0.0
  0
VERTEX
  5
74
100
AcDbEntity
  8
LAYER_1
 62
     7
100
AcDbVertex
100
AcDb2dVertex
 10
72.079666
 20
186.972222
 30
0.0
  0
VERTEX
  5
75
100
AcDbEntity
  8
LAYER_1
 62
     7
100
AcDbVertex
100
AcDb2dVertex
 10
72.079666
 20
186.929848
 30
0.0
  0
VERTEX
  5
76
100
AcDbEntity
  8
LAYER_1
 62
     7
100
AcDbVertex
100
AcDb2dVertex
 10
72.12204
 20
186.929848
 30
0.0
  0
VERTEX
  5
77
100
AcDbEntity
  8
LAYER_1
 62
     7
100
AcDbVertex
100
AcDb2dVertex
 10
72.12204
 20
186.887645
 30
0.0
  0
VERTEX
  5
78
100
AcDbEntity
  8
LAYER_1
 62
     7
100
AcDbVertex
100
AcDb2dVertex
 10
72.164243
 20
186.887645
 30
0.0
  0
VERTEX
  5
79
100
AcDbEntity
  8
LAYER_1
 62
     7
100
AcDbVertex
100
AcDb2dVertex
 10
72.206618
 20
186.84527
 30
0.0
  0
SEQEND
  5
7A
100
AcDbEntity
  8
LAYER_1
 62
     7
  0
POLYLINE
  5
6A
100
AcDbEntity
  8
LAYER_1
 62
     7
100
AcDb2dPolyline
 66
     1
 10
0.0
 20
0.0
 30
0.0
  0
VERTEX
  5
6B
100
AcDbEntity
  8
LAYER_1
 62
     7
100
AcDbVertex
100
AcDb2dVertex
 10
82.451298
 20
186.84527
 30
0.0
  0
VERTEX
  5
6C
100
AcDbEntity
  8
LAYER_1
 62
     7
100
AcDbVertex
100
AcDb2dVertex
 10
82.535875
 20
186.929848
 30
0.0
  0
VERTEX
  5
6D
100
AcDbEntity
  8
LAYER_1
 62
     7
100
AcDbVertex
100
AcDb2dVertex
 10
82.535875
 20
186.972222
 30
0.0
  0
VERTEX
  5
6E
100
AcDbEntity
  8
LAYER_1
 62
     7
100
AcDbVertex
100
AcDb2dVertex
 10
82.57825
 20
186.972222
 30
0.0
  0
VERTEX
  5
6F
100
AcDbEntity
  8
LAYER_1
 62
     7
100
AcDbVertex
100
AcDb2dVertex
 10
82.57825
 20
187.056972
 30
0.0
  0
SEQEND
  5
70
100
AcDbEntity
  8
LAYER_1
 62
     7
  0
LINE
  5
69
100
AcDbEntity
  8
LAYER_1
 62
     7
100
AcDbLine
 10
80.588707
 20
186.464243
 30
0.0
 11
80.503958
 21
186.675944
 31
0.0
  0
LINE
  5
68
100
AcDbEntity
  8
LAYER_1
 62
     7
100
AcDbLine
 10
80.588707
 20
186.337291
 30
0.0
 11
80.631082
 21
186.210339
 31
0.0
  0
POLYLINE
  5
63
100
AcDbEntity
  8
LAYER_1
 62
     7
100
AcDb2dPolyline
 66
     1
 10
0.0
 20
0.0
 30
0.0
  0
VERTEX
  5
64
100
AcDbEntity
  8
LAYER_1
 62
     7
100
AcDbVertex
100
AcDb2dVertex
 10
74.153958
 20
186.675944
 30
0.0
  0
VERTEX
  5
65
100
AcDbEntity
  8
LAYER_1
 62
     7
100
AcDbVertex
100
AcDb2dVertex
 10
74.111583
 20
186.506618
 30
0.0
  0
VERTEX
  5
66
100
AcDbEntity
  8
LAYER_1
 62
     7
100
AcDbVertex
100
AcDb2dVertex
 10
74.027006
 20
186.210339
 30
0.0
  0
SEQEND
  5
67
100
AcDbEntity
  8
LAYER_1
 62
     7
  0
POLYLINE
  5
5B
100
AcDbEntity
  8
LAYER_1
 62
     7
100
AcDb2dPolyline
 66
     1
 10
0.0
 20
0.0
 30
0.0
  0
VERTEX
  5
5C
100
AcDbEntity
  8
LAYER_1
 62
     7
100
AcDbVertex
100
AcDb2dVertex
 10
77.75236
 20
186.252542
 30
0.0
  0
VERTEX
  5
5D
100
AcDbEntity
  8
LAYER_1
 62
     7
100
AcDbVertex
100
AcDb2dVertex
 10
77.836937
 20
186.252542
 30
0.0
  0
VERTEX
  5
5E
100
AcDbEntity
  8
LAYER_1
 62
     7
100
AcDbVertex
100
AcDb2dVertex
 10
78.387291
 20
186.294916
 30
0.0
  0
VERTEX
  5
5F
100
AcDbEntity
  8
LAYER_1
 62
     7
100
AcDbVertex
100
AcDb2dVertex
 10
78.937301
 20
186.337291
 30
0.0
  0
VERTEX
  5
60
100
AcDbEntity
  8
LAYER_1
 62
     7
100
AcDbVertex
100
AcDb2dVertex
 10
79.445624
 20
186.379666
 30
0.0
  0
VERTEX
  5
61
100
AcDbEntity
  8
LAYER_1
 62
     7
100
AcDbVertex
100
AcDb2dVertex
 10
79.614951
 20
186.464243
 30
0.0
  0
SEQEND
  5
62
100
AcDbEntity
  8
LAYER_1
 62
     7
  0
POLYLINE
  5
54
100
AcDbEntity
  8
LAYER_1
 62
     7
100
AcDb2dPolyline
 66
     1
 10
0.0
 20
0.0
 30
0.0
  0
VERTEX
  5
55
100
AcDbEntity
  8
LAYER_1
 62
     7
100
AcDbVertex
100
AcDb2dVertex
 10
74.153958
 20
186.675944
 30
0.0
  0
VERTEX
  5
56
100
AcDbEntity
  8
LAYER_1
 62
     7
100
AcDbVertex
100
AcDb2dVertex
 10
74.703967
 20
186.548992
 30
0.0
  0
VERTEX
  5
57
100
AcDbEntity
  8
LAYER_1
 62
     7
100
AcDbVertex
100
AcDb2dVertex
 10
75.169916
 20
186.464243
 30
0.0
  0
VERTEX
  5
58
100
AcDbEntity
  8
LAYER_1
 62
     7
100
AcDbVertex
100
AcDb2dVertex
 10
75.72027
 20
186.379666
 30
0.0
  0
VERTEX
  5
59
100
AcDbEntity
  8
LAYER_1
 62
     7
100
AcDbVertex
100
AcDb2dVertex
 10
75.974346
 20
186.337291
 30
0.0
  0
SEQEND
  5
5A
100
AcDbEntity
  8
LAYER_1
 62
     7
  0
POLYLINE
  5
4E
100
AcDbEntity
  8
LAYER_1
 62
     7
100
AcDb2dPolyline
 66
     1
 10
0.0
 20
0.0
 30
0.0
  0
VERTEX
  5
4F
100
AcDbEntity
  8
LAYER_1
 62
     7
100
AcDbVertex
100
AcDb2dVertex
 10
173.057137
 20
107.441848
 30
0.0
  0
VERTEX
  5
50
100
AcDbEntity
  8
LAYER_1
 62
     7
100
AcDbVertex
100
AcDb2dVertex
 10
173.183917
 20
107.441848
 30
0.0
  0
VERTEX
  5
51
100
AcDbEntity
  8
LAYER_1
 62
     7
100
AcDbVertex
100
AcDb2dVertex
 10
173.226291
 20
107.483879
 30
0.0
  0
VERTEX
  5
52
100
AcDbEntity
  8
LAYER_1
 62
     7
100
AcDbVertex
100
AcDb2dVertex
 10
173.226291
 20
107.526598
 30
0.0
  0
SEQEND
  5
53
100
AcDbEntity
  8
LAYER_1
 62
     7
  0
POLYLINE
  5
48
100
AcDbEntity
  8
LAYER_1
 62
     7
100
AcDb2dPolyline
 66
     1
 10
0.0
 20
0.0
 30
0.0
  0
VERTEX
  5
49
100
AcDbEntity
  8
LAYER_1
 62
     7
100
AcDbVertex
100
AcDb2dVertex
 10
173.268666
 20
111.209749
 30
0.0
  0
VERTEX
  5
4A
100
AcDbEntity
  8
LAYER_1
 62
     7
100
AcDbVertex
100
AcDb2dVertex
 10
173.268666
 20
111.336873
 30
0.0
  0
VERTEX
  5
4B
100
AcDbEntity
  8
LAYER_1
 62
     7
100
AcDbVertex
100
AcDb2dVertex
 10
173.226291
 20
111.336873
 30
0.0
  0
VERTEX
  5
4C
100
AcDbEntity
  8
LAYER_1
 62
     7
100
AcDbVertex
100
AcDb2dVertex
 10
173.226291
 20
111.378559
 30
0.0
  0
SEQEND
  5
4D
100
AcDbEntity
  8
LAYER_1
 62
     7
  0
LINE
  5
47
100
AcDbEntity
  8
LAYER_1
 62
     7
100
AcDbLine
 10
173.268666
 20
108.838835
 30
0.0
 11
173.268666
 21
107.653722
 31
0.0
  0
LINE
  5
46
100
AcDbEntity
  8
LAYER_1
 62
     7
100
AcDbLine
 10
173.268666
 20
111.209749
 30
0.0
 11
173.268666
 21
110.024292
 31
0.0
  0
INSERT
  5
2B
100
AcDbEntity
  8
LAYER_1
 62
     7
100
AcDbBlockReference
  2
AI9-BLK1
 10
105.000137
 20
148.500066
 30
0.0
  0
LINE
  5
29
100
AcDbEntity
  8
LAYER_1
 62
     7
100
AcDbLine
 10
50.362301
 20
188.806736
 30
0.0
 11
50.362301
 21
190.753904
 31
0.0
  0
ENDSEC
  0
SECTION
  2
OBJECTS
  0
DICTIONARY
  5
19
100
AcDbDictionary
280
     0
281
     1
  3
ACAD_GROUP
350
1A
  3
ACAD_MLINESTYLE
350
1B
  3
ACAD_LAYOUT
350
1E
  3
ACAD_PLOTSETTINGS
350
22
  3
ACAD_PLOTSTYLENAME
350
1F
  3
ACAD_WIPEOUT_VARS
350
23
  0
DICTIONARY
  5
1A
102
{ACAD_REACTORS
330
19
102
}
100
AcDbDictionary
280
     0
281
     1
  0
DICTIONARY
  5
1B
102
{ACAD_REACTORS
330
19
102
}
100
AcDbDictionary
280
     0
281
     1
  3
Standard
350
1C
  0
MLINESTYLE
  5
1C
102
{ACAD_REACTORS
330
1B
102
}
100
AcDbMlineStyle
  2
Standard
 70
     0
  3

 62
     0
 51
90.0
 52
90.0
 71
     2
 49
0.5
 62
   256
  6
ByLayer
 49
-0.5
 62
   256
  6
ByLayer
  0
ACDBDICTIONARYWDFLT
  5
1F
102
{ACAD_REACTORS
330
19
102
}
100
AcDbDictionary
281
     1
  3
Normal
350
1D
100
AcDbDictionaryWithDefault
340
1D
  0
ACDBPLACEHOLDER
  5
1D
102
{ACAD_REACTORS
330
1F
102
}
  0
LAYOUT
  5
20
102
{ACAD_REACTORS
330
1E
102
}
100
AcDbPlotSettings
  1

  2

  4

  6

 40
0.0
 41
0.0
 42
0.0
 43
0.0
 44
0.0
 45
0.0
 46
0.0
 47
0.0
 48
0.0
 49
0.0
140
0.0
141
0.0
142
1.0
143
1.0
 70
  1024
 72
     0
 73
     0
 74
     0
  7

 75
     0
147
1.0
148
0.0
149
0.0
100
AcDbLayout
  1
Model
 70
     0
 71
     0
 10
0.0
 20
0.0
 11
0.0
 21
0.0
 12
0.0
 22
0.0
 32
0.0
 14
0.0
 24
0.0
 34
0.0
 15
0.0
 25
0.0
 35
0.0
146
0.0
 13
0.0
 23
0.0
 33
0.0
 16
0.0
 26
0.0
 36
0.0
 17
0.0
 27
0.0
 37
0.0
 76
     0
330
A
331
0
345
0
346
0
  0
LAYOUT
  5
21
102
{ACAD_REACTORS
330
1E
102
}
100
AcDbPlotSettings
  1

  2

  4

  6

 40
0.0
 41
0.0
 42
0.0
 43
0.0
 44
0.0
 45
0.0
 46
0.0
 47
0.0
 48
0.0
 49
0.0
140
0.0
141
0.0
142
1.0
143
1.0
 70
     0
 72
     0
 73
     0
 74
     0
  7

 75
     0
147
1.0
148
0.0
149
0.0
100
AcDbLayout
  1
Layout1
 70
     0
 71
     0
 10
0.0
 20
0.0
 11
0.0
 21
0.0
 12
0.0
 22
0.0
 32
0.0
 14
0.0
 24
0.0
 34
0.0
 15
0.0
 25
0.0
 35
0.0
146
0.0
 13
0.0
 23
0.0
 33
0.0
 16
0.0
 26
0.0
 36
0.0
 17
0.0
 27
0.0
 37
0.0
 76
     0
330
B
331
0
345
0
346
0
  0
DICTIONARY
  5
1E
102
{ACAD_REACTORS
330
19
102
}
100
AcDbDictionary
280
     0
281
     1
  3
Layout1
350
21
  3
Model
350
20
  0
DICTIONARY
  5
22
102
{ACAD_REACTORS
330
19
102
}
100
AcDbDictionary
280
     0
281
     1
  0
WIPEOUTVARIABLES
  5
23
100
AcDbWipeoutVariables
 70
     1
  0
ENDSEC
  0
EOF
