  0
SECTION
  2
HEADER
  9
$ACADVER
  1
AC1027
  9
$ACADMAINTVER
 70
   125
  9
$DWGCODEPAGE
  3
ANSI_1252
  9
$LASTSAVEDBY
  1
fleminab
  9
$REQUIREDVERSIONS
160
                 0
  9
$INSBASE
 10
0.0
 20
0.0
 30
0.0
  9
$EXTMIN
 10
0.3090081905588278
 20
1.521926838456224
 30
-0.0000000349181948
  9
$EXTMAX
 10
16.328722904946
 20
10.9678127668331
 30
0.0000000814935746
  9
$LIMMIN
 10
0.0
 20
0.0
  9
$LIMMAX
 10
12.0
 20
9.0
  9
$ORTHOMODE
 70
     0
  9
$REGENMODE
 70
     1
  9
$FILLMODE
 70
     1
  9
$QTEXTMODE
 70
     0
  9
$MIRRTEXT
 70
     0
  9
$LTSCALE
 40
1.0
  9
$ATTMODE
 70
     1
  9
$TEXTSIZE
 40
0.2
  9
$TRACEWID
 40
0.05
  9
$TEXTSTYLE
  7
Standard
  9
$CLAYER
  8
0
  9
$CELTYPE
  6
ByLayer
  9
$CECOLOR
 62
   256
  9
$CELTSCALE
 40
1.0
  9
$DISPSILH
 70
     0
  9
$DIMSCALE
 40
1.0
  9
$DIMASZ
 40
0.18
  9
$DIMEXO
 40
0.0625
  9
$DIMDLI
 40
0.38
  9
$DIMRND
 40
0.0
  9
$DIMDLE
 40
0.0
  9
$DIMEXE
 40
0.18
  9
$DIMTP
 40
0.0
  9
$DIMTM
 40
0.0
  9
$DIMTXT
 40
0.18
  9
$DIMCEN
 40
0.09
  9
$DIMTSZ
 40
0.0
  9
$DIMTOL
 70
     0
  9
$DIMLIM
 70
     0
  9
$DIMTIH
 70
     1
  9
$DIMTOH
 70
     1
  9
$DIMSE1
 70
     0
  9
$DIMSE2
 70
     0
  9
$DIMTAD
 70
     0
  9
$DIMZIN
 70
     0
  9
$DIMBLK
  1

  9
$DIMASO
 70
     1
  9
$DIMSHO
 70
     1
  9
$DIMPOST
  1

  9
$DIMAPOST
  1

  9
$DIMALT
 70
     0
  9
$DIMALTD
 70
     2
  9
$DIMALTF
 40
25.4
  9
$DIMLFAC
 40
1.0
  9
$DIMTOFL
 70
     0
  9
$DIMTVP
 40
0.0
  9
$DIMTIX
 70
     0
  9
$DIMSOXD
 70
     0
  9
$DIMSAH
 70
     0
  9
$DIMBLK1
  1

  9
$DIMBLK2
  1

  9
$DIMSTYLE
  2
Standard
  9
$DIMCLRD
 70
     0
  9
$DIMCLRE
 70
     0
  9
$DIMCLRT
 70
     0
  9
$DIMTFAC
 40
1.0
  9
$DIMGAP
 40
0.09
  9
$DIMJUST
 70
     0
  9
$DIMSD1
 70
     0
  9
$DIMSD2
 70
     0
  9
$DIMTOLJ
 70
     1
  9
$DIMTZIN
 70
     0
  9
$DIMALTZ
 70
     0
  9
$DIMALTTZ
 70
     0
  9
$DIMUPT
 70
     0
  9
$DIMDEC
 70
     4
  9
$DIMTDEC
 70
     4
  9
$DIMALTU
 70
     2
  9
$DIMALTTD
 70
     2
  9
$DIMTXSTY
  7
Standard
  9
$DIMAUNIT
 70
     0
  9
$DIMADEC
 70
     0
  9
$DIMALTRND
 40
0.0
  9
$DIMAZIN
 70
     0
  9
$DIMDSEP
 70
    46
  9
$DIMATFIT
 70
     3
  9
$DIMFRAC
 70
     0
  9
$DIMLDRBLK
  1

  9
$DIMLUNIT
 70
     2
  9
$DIMLWD
 70
    -2
  9
$DIMLWE
 70
    -2
  9
$DIMTMOVE
 70
     0
  9
$DIMFXL
 40
1.0
  9
$DIMFXLON
 70
     0
  9
$DIMJOGANG
 40
0.7853981633974483
  9
$DIMTFILL
 70
     0
  9
$DIMTFILLCLR
 70
     0
  9
$DIMARCSYM
 70
     0
  9
$DIMLTYPE
  6

  9
$DIMLTEX1
  6

  9
$DIMLTEX2
  6

  9
$DIMTXTDIRECTION
 70
     0
  9
$LUNITS
 70
     2
  9
$LUPREC
 70
     4
  9
$SKETCHINC
 40
0.1
  9
$FILLETRAD
 40
0.0
  9
$AUNITS
 70
     0
  9
$AUPREC
 70
     0
  9
$MENU
  1
.
  9
$ELEVATION
 40
0.0
  9
$PELEVATION
 40
0.0
  9
$THICKNESS
 40
0.0
  9
$LIMCHECK
 70
     0
  9
$CHAMFERA
 40
0.0
  9
$CHAMFERB
 40
0.0
  9
$CHAMFERC
 40
0.0
  9
$CHAMFERD
 40
0.0
  9
$SKPOLY
 70
     0
  9
$TDCREATE
 40
2458248.510150463
  9
$TDUCREATE
 40
2458248.093483796
  9
$TDUPDATE
 40
2458248.510509259
  9
$TDUUPDATE
 40
2458248.093842593
  9
$TDINDWG
 40
0.0003587963
  9
$TDUSRTIMER
 40
0.0003587963
  9
$USRTIMER
 70
     1
  9
$ANGBASE
 50
0.0
  9
$ANGDIR
 70
     0
  9
$PDMODE
 70
     0
  9
$PDSIZE
 40
0.0
  9
$PLINEWID
 40
0.0
  9
$SPLFRAME
 70
     0
  9
$SPLINETYPE
 70
     6
  9
$SPLINESEGS
 70
     8
  9
$HANDSEED
  5
1F0
  9
$SURFTAB1
 70
     6
  9
$SURFTAB2
 70
     6
  9
$SURFTYPE
 70
     6
  9
$SURFU
 70
     6
  9
$SURFV
 70
     6
  9
$UCSBASE
  2

  9
$UCSNAME
  2

  9
$UCSORG
 10
0.0
 20
0.0
 30
0.0
  9
$UCSXDIR
 10
1.0
 20
0.0
 30
0.0
  9
$UCSYDIR
 10
0.0
 20
1.0
 30
0.0
  9
$UCSORTHOREF
  2

  9
$UCSORTHOVIEW
 70
     0
  9
$UCSORGTOP
 10
0.0
 20
0.0
 30
0.0
  9
$UCSORGBOTTOM
 10
0.0
 20
0.0
 30
0.0
  9
$UCSORGLEFT
 10
0.0
 20
0.0
 30
0.0
  9
$UCSORGRIGHT
 10
0.0
 20
0.0
 30
0.0
  9
$UCSORGFRONT
 10
0.0
 20
0.0
 30
0.0
  9
$UCSORGBACK
 10
0.0
 20
0.0
 30
0.0
  9
$PUCSBASE
  2

  9
$PUCSNAME
  2

  9
$PUCSORG
 10
0.0
 20
0.0
 30
0.0
  9
$PUCSXDIR
 10
1.0
 20
0.0
 30
0.0
  9
$PUCSYDIR
 10
0.0
 20
1.0
 30
0.0
  9
$PUCSORTHOREF
  2

  9
$PUCSORTHOVIEW
 70
     0
  9
$PUCSORGTOP
 10
0.0
 20
0.0
 30
0.0
  9
$PUCSORGBOTTOM
 10
0.0
 20
0.0
 30
0.0
  9
$PUCSORGLEFT
 10
0.0
 20
0.0
 30
0.0
  9
$PUCSORGRIGHT
 10
0.0
 20
0.0
 30
0.0
  9
$PUCSORGFRONT
 10
0.0
 20
0.0
 30
0.0
  9
$PUCSORGBACK
 10
0.0
 20
0.0
 30
0.0
  9
$USERI1
 70
     0
  9
$USERI2
 70
     0
  9
$USERI3
 70
     0
  9
$USERI4
 70
     0
  9
$USERI5
 70
     0
  9
$USERR1
 40
0.0
  9
$USERR2
 40
0.0
  9
$USERR3
 40
0.0
  9
$USERR4
 40
0.0
  9
$USERR5
 40
0.0
  9
$WORLDVIEW
 70
     1
  9
$SHADEDGE
 70
     3
  9
$SHADEDIF
 70
    70
  9
$TILEMODE
 70
     1
  9
$MAXACTVP
 70
    64
  9
$PINSBASE
 10
0.0
 20
0.0
 30
0.0
  9
$PLIMCHECK
 70
     0
  9
$PEXTMIN
 10
1.000000000000000E+20
 20
1.000000000000000E+20
 30
1.000000000000000E+20
  9
$PEXTMAX
 10
-1.000000000000000E+20
 20
-1.000000000000000E+20
 30
-1.000000000000000E+20
  9
$PLIMMIN
 10
-0.7524054877282309
 20
-0.5025428238148726
  9
$PLIMMAX
 10
35.24759547345533
 20
23.49745621500156
  9
$UNITMODE
 70
     0
  9
$VISRETAIN
 70
     1
  9
$PLINEGEN
 70
     0
  9
$PSLTSCALE
 70
     1
  9
$TREEDEPTH
 70
  3020
  9
$CMLSTYLE
  2
Standard
  9
$CMLJUST
 70
     0
  9
$CMLSCALE
 40
1.0
  9
$PROXYGRAPHICS
 70
     1
  9
$MEASUREMENT
 70
     0
  9
$CELWEIGHT
370
    -1
  9
$ENDCAPS
280
     0
  9
$JOINSTYLE
280
     0
  9
$LWDISPLAY
290
     0
  9
$INSUNITS
 70
     1
  9
$HYPERLINKBASE
  1

  9
$STYLESHEET
  1

  9
$XEDIT
290
     1
  9
$CEPSNTYPE
380
     0
  9
$PSTYLEMODE
290
     1
  9
$FINGERPRINTGUID
  2
{5A6F51B2-A6CB-EA43-8888-BA5AC4F06449}
  9
$VERSIONGUID
  2
{22146775-462D-D141-B9EB-3C4506F9E5ED}
  9
$EXTNAMES
290
     1
  9
$PSVPSCALE
 40
0.0
  9
$OLESTARTUP
290
     0
  9
$SORTENTS
280
   127
  9
$INDEXCTL
280
     0
  9
$HIDETEXT
280
     0
  9
$XCLIPFRAME
280
     0
  9
$HALOGAP
280
     0
  9
$OBSCOLOR
 70
   257
  9
$OBSLTYPE
280
     0
  9
$INTERSECTIONDISPLAY
280
     0
  9
$INTERSECTIONCOLOR
 70
   257
  9
$DIMASSOC
280
     1
  9
$PROJECTNAME
  1

  9
$CAMERADISPLAY
290
     0
  9
$LENSLENGTH
 40
50.0
  9
$CAMERAHEIGHT
 40
0.0
  9
$STEPSPERSEC
 40
2.0
  9
$STEPSIZE
 40
6.0
  9
$3DDWFPREC
 40
2.0
  9
$PSOLWIDTH
 40
0.25
  9
$PSOLHEIGHT
 40
4.0
  9
$LOFTANG1
 40
1.570796326794896
  9
$LOFTANG2
 40
1.570796326794896
  9
$LOFTMAG1
 40
0.0
  9
$LOFTMAG2
 40
0.0
  9
$LOFTPARAM
 70
     7
  9
$LOFTNORMALS
280
     1
  9
$LATITUDE
 40
37.795
  9
$LONGITUDE
 40
-122.394
  9
$NORTHDIRECTION
 40
0.0
  9
$TIMEZONE
 70
 -8000
  9
$LIGHTGLYPHDISPLAY
280
     1
  9
$TILEMODELIGHTSYNCH
280
     1
  9
$CMATERIAL
347
7F
  9
$SOLIDHIST
280
     1
  9
$SHOWHIST
280
     1
  9
$DWFFRAME
280
     2
  9
$DGNFRAME
280
     0
  9
$REALWORLDSCALE
290
     1
  9
$INTERFERECOLOR
 62
     1
  9
$INTERFEREOBJVS
345
8C
  9
$INTERFEREVPVS
346
A5
  9
$CSHADOW
280
     0
  9
$SHADOWPLANELOCATION
 40
0.0
  0
ENDSEC
  0
SECTION
  2
CLASSES
  0
CLASS
  1
ACDBDICTIONARYWDFLT
  2
AcDbDictionaryWithDefault
  3
ObjectDBX Classes
 90
        0
 91
        1
280
     0
281
     0
  0
CLASS
  1
PLOTSETTINGS
  2
AcDbPlotSettings
  3
ObjectDBX Classes
 90
        0
 91
        0
280
     0
281
     0
  0
CLASS
  1
MATERIAL
  2
AcDbMaterial
  3
ObjectDBX Classes
 90
     1153
 91
        3
280
     0
281
     0
  0
CLASS
  1
VISUALSTYLE
  2
AcDbVisualStyle
  3
ObjectDBX Classes
 90
     4095
 91
       26
280
     0
281
     0
  0
CLASS
  1
TABLESTYLE
  2
AcDbTableStyle
  3
ObjectDBX Classes
 90
     4095
 91
        1
280
     0
281
     0
  0
CLASS
  1
DICTIONARYVAR
  2
AcDbDictionaryVar
  3
ObjectDBX Classes
 90
        0
 91
       17
280
     0
281
     0
  0
CLASS
  1
SCALE
  2
AcDbScale
  3
ObjectDBX Classes
 90
     1153
 91
       17
280
     0
281
     0
  0
CLASS
  1
MLEADERSTYLE
  2
AcDbMLeaderStyle
  3
ACDB_MLEADERSTYLE_CLASS
 90
     4095
 91
        1
280
     0
281
     0
  0
CLASS
  1
ACDBSECTIONVIEWSTYLE
  2
AcDbSectionViewStyle
  3
ObjectDBX Classes
 90
     1025
 91
        1
280
     0
281
     0
  0
CLASS
  1
ACDBDETAILVIEWSTYLE
  2
AcDbDetailViewStyle
  3
ObjectDBX Classes
 90
     1025
 91
        1
280
     0
281
     0
  0
CLASS
  1
CELLSTYLEMAP
  2
AcDbCellStyleMap
  3
ObjectDBX Classes
 90
     1152
 91
        1
280
     0
281
     0
  0
ENDSEC
  0
SECTION
  2
TABLES
  0
TABLE
  2
VPORT
  5
19
330
0
100
AcDbSymbolTable
 70
     1
1001
ACAD
1000
DbSaveVer
1071
        5
  0
VPORT
  5
7D
330
19
100
AcDbSymbolTableRecord
100
AcDbViewportTableRecord
  2
*Active
 70
     0
 10
0.0
 20
0.0
 11
1.0
 21
1.0
 12
8.318865547752416
 22
6.24486980264466
 13
0.0
 23
0.0
 14
0.5
 24
0.5
 15
0.5
 25
0.5
 16
0.0
 26
0.0
 36
1.0
 17
0.0
 27
0.0
 37
0.0
 40
9.513517569868831
 41
2.292712066905615
 42
50.0
 43
0.0
 44
0.0
 50
0.0
 51
0.0
 71
     0
 72
  1000
 73
     1
 74
     3
 75
     0
 76
     0
 77
     0
 78
     0
281
     0
 65
     1
110
0.0
120
0.0
130
0.0
111
1.0
121
0.0
131
0.0
112
0.0
122
1.0
132
0.0
 79
     0
146
0.0
348
88
 60
     3
 61
     5
292
     1
282
     1
141
0.0
142
0.0
 63
   250
421
  3355443
1001
ACAD_NAV_VCDISPLAY
1070
     3
  0
ENDTAB
  0
TABLE
  2
LTYPE
  5
14
330
0
100
AcDbSymbolTable
 70
     1
  0
LTYPE
  5
15
330
14
100
AcDbSymbolTableRecord
100
AcDbLinetypeTableRecord
  2
ByBlock
 70
     0
  3

 72
    65
 73
     0
 40
0.0
  0
LTYPE
  5
16
330
14
100
AcDbSymbolTableRecord
100
AcDbLinetypeTableRecord
  2
ByLayer
 70
     0
  3

 72
    65
 73
     0
 40
0.0
  0
LTYPE
  5
8
330
14
100
AcDbSymbolTableRecord
100
AcDbLinetypeTableRecord
  2
Continuous
 70
     0
  3
Solid line
 72
    65
 73
     0
 40
0.0
  0
ENDTAB
  0
TABLE
  2
LAYER
  5
10
330
0
100
AcDbSymbolTable
 70
     4
  0
LAYER
  5
4
102
{ACAD_XDICTIONARY
360
1CB
102
}
330
10
100
AcDbSymbolTableRecord
100
AcDbLayerTableRecord
  2
0
 70
     0
 62
     7
  6
Continuous
370
    -3
390
5
347
81
348
0
  0
LAYER
  5
25
102
{ACAD_XDICTIONARY
360
1CD
102
}
330
10
100
AcDbSymbolTableRecord
100
AcDbLayerTableRecord
  2
Title Block
 70
     0
 62
     7
  6
Continuous
370
    -3
390
5
347
81
348
0
  0
LAYER
  5
CE
102
{ACAD_XDICTIONARY
360
1CF
102
}
330
10
100
AcDbSymbolTableRecord
100
AcDbLayerTableRecord
  2
PDF_Layer 1
 70
     0
 62
    28
420
  1052429
  6
Continuous
370
    -3
390
5
347
81
348
0
  0
LAYER
  5
DD
102
{ACAD_XDICTIONARY
360
1D1
102
}
330
10
100
AcDbSymbolTableRecord
100
AcDbLayerTableRecord
  2
PDF_Text
 70
     0
 62
   250
420
  2301728
  6
Continuous
370
    -3
390
5
347
81
348
0
  0
ENDTAB
  0
TABLE
  2
STYLE
  5
11
330
0
100
AcDbSymbolTable
 70
     3
  0
STYLE
  5
12
330
11
100
AcDbSymbolTableRecord
100
AcDbTextStyleTableRecord
  2
Standard
 70
     0
 40
0.0
 41
1.0
 50
0.0
 71
     0
 42
0.2
  3
txt
  4

  0
STYLE
  5
27
330
11
100
AcDbSymbolTableRecord
100
AcDbTextStyleTableRecord
  2
Roman
 70
     0
 40
0.0
 41
1.0
 50
0.0
 71
     0
 42
0.2
  3
ROMANS.SHX
  4

  0
STYLE
  5
DC
330
11
100
AcDbSymbolTableRecord
100
AcDbTextStyleTableRecord
  2
PDF Arial
 70
     0
 40
0.0
 41
1.0
 50
0.0
 71
     0
 42
0.2
  3
arial.ttf
  4

1001
ACAD
1000
Arial
1071
       34
  0
ENDTAB
  0
TABLE
  2
VIEW
  5
17
330
0
100
AcDbSymbolTable
 70
     0
  0
ENDTAB
  0
TABLE
  2
UCS
  5
18
330
0
100
AcDbSymbolTable
 70
     0
  0
ENDTAB
  0
TABLE
  2
APPID
  5
1B
330
0
100
AcDbSymbolTable
 70
     2
  0
APPID
  5
1C
330
1B
100
AcDbSymbolTableRecord
100
AcDbRegAppTableRecord
  2
ACAD
 70
     0
  0
APPID
  5
1D3
330
1B
100
AcDbSymbolTableRecord
100
AcDbRegAppTableRecord
  2
ACAD_NAV_VCDISPLAY
 70
     0
  0
ENDTAB
  0
TABLE
  2
DIMSTYLE
  5
1D
330
0
100
AcDbSymbolTable
 70
     1
100
AcDbDimStyleTable
 71
     0
  0
DIMSTYLE
105
23
330
1D
100
AcDbSymbolTableRecord
100
AcDbDimStyleTableRecord
  2
Standard
 70
     0
340
12
  0
ENDTAB
  0
TABLE
  2
BLOCK_RECORD
  5
1
330
0
100
AcDbSymbolTable
 70
     0
  0
BLOCK_RECORD
  5
2
330
1
100
AcDbSymbolTableRecord
100
AcDbBlockTableRecord
  2
*Model_Space
340
A
 70
     0
280
     1
281
     0
  0
BLOCK_RECORD
  5
C
330
1
100
AcDbSymbolTableRecord
100
AcDbBlockTableRecord
  2
*Paper_Space
340
F
 70
     0
280
     1
281
     0
  0
ENDTAB
  0
ENDSEC
  0
SECTION
  2
BLOCKS
  0
BLOCK
  5
3
330
2
100
AcDbEntity
  8
0
100
AcDbBlockBegin
  2
*Model_Space
 70
     2
 10
0.0
 20
0.0
 30
0.0
  3
*Model_Space
  1

  0
ENDBLK
  5
9
330
2
100
AcDbEntity
  8
0
100
AcDbBlockEnd
  0
BLOCK
  5
D
330
C
100
AcDbEntity
 67
     1
  8
0
100
AcDbBlockBegin
  2
*Paper_Space
 70
     0
 10
0.0
 20
0.0
 30
0.0
  3
*Paper_Space
  1

  0
ENDBLK
  5
E
330
C
100
AcDbEntity
 67
     1
  8
0
100
AcDbBlockEnd
  0
ENDSEC
  0
SECTION
  2
ENTITIES
  0
SOLID
  5
CF
330
2
100
AcDbEntity
  8
PDF_Layer 1
 62
     7
420
 16777215
440
 33554559
370
    35
100
AcDbTrace
 10
14.24717916666667
 20
1.62961111111111
 30
0.0
 11
14.26960972222222
 21
1.576833333333333
 31
0.0
 12
14.37231805555556
 22
1.576833333333333
 32
0.0
 13
14.24717916666667
 23
1.524041666666666
 33
0.0
  0
SOLID
  5
D0
330
2
100
AcDbEntity
  8
PDF_Layer 1
 62
     7
420
 16777215
440
 33554559
370
    35
100
AcDbTrace
 10
15.98216388888889
 20
1.524047222222222
 30
0.0
 11
15.95974722222222
 21
1.576838888888888
 31
0.0
 12
15.85703888888889
 22
1.576838888888888
 32
0.0
 13
15.98216388888889
 23
1.629616666666666
 33
0.0
  0
SOLID
  5
D1
330
2
100
AcDbEntity
  8
PDF_Layer 1
 62
     7
420
 16777215
440
 33554559
370
    35
100
AcDbTrace
 10
12.19190833333333
 20
6.591675
 30
0.0
 11
12.14045
 21
6.616994444444444
 31
0.0
 12
12.14614444444444
 22
6.719536111111111
 32
0.0
 13
12.08650555555555
 23
6.597536111111111
 33
0.0
  0
SOLID
  5
D2
330
2
100
AcDbEntity
  8
PDF_Layer 1
 62
     7
420
 16777215
440
 33554559
370
    35
100
AcDbTrace
 10
10.65391666666666
 20
5.85792361111111
 30
0.0
 11
10.67633333333333
 21
5.805131944444443
 31
0.0
 12
10.77904166666666
 22
5.805131944444443
 32
0.0
 13
10.65391666666666
 23
5.752354166666665
 33
0.0
  0
SOLID
  5
D3
330
2
100
AcDbEntity
  8
PDF_Layer 1
 62
     7
420
 16777215
440
 33554559
370
    35
100
AcDbTrace
 10
4.811008333333333
 20
5.85792361111111
 30
0.0
 11
4.788591666666667
 21
5.805131944444443
 31
0.0
 12
4.685883333333333
 22
5.805131944444443
 32
0.0
 13
4.811008333333333
 23
5.752354166666665
 33
0.0
  0
SOLID
  5
D4
330
2
100
AcDbEntity
  8
PDF_Layer 1
 62
     7
420
 16777215
440
 33554559
370
    35
100
AcDbTrace
 10
0.8419319444444443
 20
10.54672638888888
 30
0.0
 11
0.8947236111111111
 21
10.56914305555555
 31
0.0
 12
0.8947236111111111
 22
10.67185138888889
 32
0.0
 13
0.9475013888888888
 23
10.54672638888888
 33
0.0
  0
SOLID
  5
D5
330
2
100
AcDbEntity
  8
PDF_Layer 1
 62
     7
420
 16777215
440
 33554559
370
    35
100
AcDbTrace
 10
0.8419319444444443
 20
3.177259722222221
 30
0.0
 11
0.8947236111111111
 21
3.154843055555555
 31
0.0
 12
0.8947236111111111
 22
3.052134722222221
 32
0.0
 13
0.9475013888888888
 23
3.177259722222221
 33
0.0
  0
SOLID
  5
D6
330
2
100
AcDbEntity
  8
PDF_Layer 1
 62
     7
420
 16777215
440
 33554559
370
    35
100
AcDbTrace
 10
11.68035277777778
 20
6.594415277777777
 30
0.0
 11
11.73314444444444
 21
6.616831944444443
 31
0.0
 12
11.73314444444444
 22
6.719526388888888
 32
0.0
 13
11.78592222222222
 23
6.594415277777777
 33
0.0
  0
SOLID
  5
D7
330
2
100
AcDbEntity
  8
PDF_Layer 1
 62
     7
420
 16777215
440
 33554559
370
    35
100
AcDbTrace
 10
11.68035277777778
 20
3.177259722222221
 30
0.0
 11
11.73314444444444
 21
3.154843055555555
 31
0.0
 12
11.73314444444444
 22
3.052134722222221
 32
0.0
 13
11.78592222222222
 23
3.177259722222221
 33
0.0
  0
SOLID
  5
D8
330
2
100
AcDbEntity
  8
PDF_Layer 1
 62
     7
420
 16777215
440
 33554559
370
    35
100
AcDbTrace
 10
12.14957638888889
 20
7.088386111111111
 30
0.0
 11
12.1029375
 21
7.055038888888889
 31
0.0
 12
12.12522916666667
 22
6.954788888888889
 32
0.0
 13
12.04653472222222
 23
7.065469444444445
 33
0.0
  0
SOLID
  5
D9
330
2
100
AcDbEntity
  8
PDF_Layer 1
 62
     7
420
 16777215
440
 33554559
370
    35
100
AcDbTrace
 10
4.2653875
 20
5.081081944444443
 30
0.0
 11
4.287818055555555
 21
5.028290277777776
 31
0.0
 12
4.390512499999999
 22
5.028290277777776
 32
0.0
 13
4.2653875
 23
4.975512499999998
 33
0.0
  0
SOLID
  5
DA
330
2
100
AcDbEntity
  8
PDF_Layer 1
 62
     7
420
 16777215
440
 33554559
370
    35
100
AcDbTrace
 10
5.106384722222222
 20
4.975518055555554
 30
0.0
 11
5.083968055555556
 21
5.028295833333332
 31
0.0
 12
4.981259722222223
 22
5.028295833333332
 32
0.0
 13
5.106384722222222
 23
5.081087499999999
 33
0.0
  0
ELLIPSE
  5
DE
330
2
100
AcDbEntity
  8
PDF_Layer 1
 62
     7
420
 16777215
370
   100
100
AcDbEllipse
 10
15.39069429995948
 20
7.070849660045009
 30
0.0
 11
0.1788463009029568
 21
0.0049065568045584
 31
0.0
210
0.0
220
0.0
230
1.0
 40
0.5082467359249833
 41
4.806859210333487
 42
7.011957374350773
  0
LWPOLYLINE
  5
DF
330
2
100
AcDbEntity
  8
PDF_Layer 1
 62
     7
420
 16777215
370
   100
100
AcDbPolyline
 90
       15
 70
     0
 43
0.0
 10
14.70428333333333
 20
7.132431944444443
 10
14.69121388888888
 20
7.124584722222221
 10
14.67814444444444
 20
7.111515277777776
 10
14.66768611111111
 20
7.095834722222221
 10
14.66246388888888
 20
7.074918055555555
 10
14.66506111111111
 20
7.054015277777777
 10
14.67551944444444
 20
7.038320833333332
 10
14.68597777777777
 20
7.025251388888888
 10
14.70428333333333
 20
7.014793055555554
 10
14.72781111111111
 20
7.00172361111111
 10
14.76178333333333
 20
6.991265277777777
 10
14.80099166666666
 20
6.983431944444443
 10
14.8454361111111
 20
6.97559861111111
 10
14.89510277777777
 20
6.970362499999999
 10
14.93953333333333
 20
6.965140277777776
  0
LWPOLYLINE
  5
E0
330
2
100
AcDbEntity
  8
PDF_Layer 1
 62
     7
420
 16777215
370
   100
100
AcDbPolyline
 90
        9
 70
     0
 43
0.0
 10
14.81667222222221
 20
7.877404166666665
 10
14.81407499999999
 20
7.757168055555554
 10
14.79838055555555
 20
7.582029166666665
 10
14.77486666666666
 20
7.409515277777776
 10
14.74349166666666
 20
7.236987499999999
 10
14.72518611111111
 20
7.158570833333332
 10
14.72257499999999
 20
7.148112499999998
 10
14.71735277777777
 20
7.140265277777777
 10
14.71472777777777
 20
7.137654166666665
  0
LWPOLYLINE
  5
E1
330
2
100
AcDbEntity
  8
PDF_Layer 1
 62
     7
420
 16777215
370
   100
100
AcDbPolyline
 90
       64
 70
     0
 43
0.0
 10
15.51460277777777
 20
7.137654166666665
 10
15.50938055555555
 20
7.145501388888888
 10
15.50414444444444
 20
7.158570833333332
 10
15.47017222222222
 20
7.331084722222221
 10
15.44142222222222
 20
7.50884861111111
 10
15.42311666666666
 20
7.686584722222221
 10
15.41265833333333
 20
7.864334722222221
 10
15.41265833333333
 20
7.877404166666665
 10
15.41265833333333
 20
8.222445833333331
 10
15.41265833333333
 20
8.384515277777776
 10
15.41265833333333
 20
8.543973611111109
 10
15.41265833333333
 20
8.700806944444444
 10
15.41265833333333
 20
8.855029166666666
 10
15.41265833333333
 20
9.006640277777776
 10
15.41265833333333
 20
9.153015277777777
 10
15.41265833333333
 20
9.294181944444442
 10
15.41265833333333
 20
9.432723611111111
 10
15.41265833333333
 20
9.563418055555555
 10
15.41265833333333
 20
9.691501388888887
 10
15.41265833333333
 20
9.809126388888888
 10
15.41265833333333
 20
9.924140277777777
 10
15.41265833333333
 20
10.03132083333333
 10
15.41265833333333
 20
10.12802916666666
 10
15.41265833333333
 20
10.21952916666666
 10
15.41265833333333
 20
10.30577916666666
 10
15.41265833333333
 20
10.37897361111111
 10
15.41265833333333
 20
10.44694583333333
 10
15.41265833333333
 20
10.50705694444444
 10
15.41265833333333
 20
10.55672361111111
 10
15.41265833333333
 20
10.59854305555555
 10
15.41265833333333
 20
10.62991805555555
 10
15.41265833333333
 20
10.65344583333333
 10
15.41265833333333
 20
10.66651527777777
 10
15.41265833333333
 20
10.6717375
 42
0.9928665201407085
 10
14.81929722222222
 20
10.6717375
 10
14.81929722222222
 20
10.66651527777777
 10
14.81929722222222
 20
10.65344583333333
 10
14.81929722222222
 20
10.62991805555555
 10
14.81929722222222
 20
10.59854305555555
 10
14.81929722222222
 20
10.55672361111111
 10
14.81929722222222
 20
10.50705694444444
 10
14.81929722222222
 20
10.44694583333333
 10
14.81929722222222
 20
10.37897361111111
 10
14.81929722222222
 20
10.30577916666666
 10
14.81929722222222
 20
10.21952916666666
 10
14.81929722222222
 20
10.12802916666666
 10
14.81929722222222
 20
10.03132083333333
 10
14.81929722222222
 20
9.924140277777777
 10
14.81929722222222
 20
9.809126388888888
 10
14.81929722222222
 20
9.691501388888887
 10
14.81929722222222
 20
9.563418055555555
 10
14.81929722222222
 20
9.432723611111111
 10
14.81929722222222
 20
9.294181944444442
 10
14.81929722222222
 20
9.153015277777777
 10
14.81929722222222
 20
9.006640277777776
 10
14.81929722222222
 20
8.855029166666666
 10
14.81929722222222
 20
8.700806944444444
 10
14.81929722222222
 20
8.543973611111109
 10
14.81929722222222
 20
8.384515277777776
 10
14.81929722222222
 20
8.222445833333331
 10
14.81929722222222
 20
7.877404166666665
 42
-0.1723527502573207
 10
15.41265833333333
 20
7.877404166666665
 42
0.1490817719846201
 10
15.11467222222222
 20
7.927070833333332
 42
0.1779766506157914
 10
14.81929722222222
 20
7.877404166666665
  0
LWPOLYLINE
  5
E4
330
2
100
AcDbEntity
  8
PDF_Layer 1
 62
     7
420
 16777215
370
   100
100
AcDbPolyline
 90
       59
 70
     1
 43
0.0
 10
15.52244999999999
 20
2.991904166666666
 10
15.52244999999999
 20
4.236154166666666
 10
15.51199166666666
 20
4.236154166666666
 10
15.4936861111111
 20
4.236154166666666
 10
15.4675611111111
 20
4.236154166666666
 10
15.43357499999999
 20
4.236154166666666
 10
15.39175555555555
 20
4.236154166666666
 10
15.34469999999999
 20
4.236154166666666
 10
15.29242222222222
 20
4.236154166666666
 10
15.23492222222222
 20
4.236154166666666
 10
15.17479722222222
 20
4.236154166666666
 10
15.11467222222222
 20
4.236154166666666
 10
15.05454722222222
 20
4.236154166666666
 10
14.99442222222222
 20
4.236154166666666
 10
14.93953333333333
 20
4.236154166666666
 10
14.88464444444444
 20
4.236154166666666
 10
14.83758888888888
 20
4.236154166666666
 10
14.79576944444444
 20
4.236154166666666
 10
14.76178333333333
 20
4.236154166666666
 10
14.73564444444444
 20
4.236154166666666
 10
14.71735277777777
 20
4.236154166666666
 10
14.70951944444444
 20
4.236154166666666
 10
14.70689444444444
 20
4.236154166666666
 10
14.70689444444444
 20
2.991904166666666
 10
14.70951944444444
 20
2.986681944444444
 10
14.70951944444444
 20
2.981459722222221
 10
14.71211666666666
 20
2.976223611111111
 10
14.71735277777777
 20
2.971001388888888
 10
14.71996388888888
 20
2.968376388888889
 10
14.72518611111111
 20
2.965765277777776
 10
14.73040833333333
 20
2.963168055555555
 10
14.73826944444444
 20
2.963168055555555
 10
14.74086666666666
 20
2.963168055555555
 10
14.75656111111111
 20
2.963168055555555
 10
14.77746388888888
 20
2.963168055555555
 10
14.80883888888888
 20
2.963168055555555
 10
14.84804722222222
 20
2.963168055555555
 10
14.89247777777777
 20
2.963168055555555
 10
14.94476944444444
 20
2.963168055555555
 10
14.99965833333333
 20
2.963168055555555
 10
15.05717222222222
 20
2.963168055555555
 10
15.11467222222222
 20
2.963168055555555
 10
15.17479722222222
 20
2.963168055555555
 10
15.23229722222222
 20
2.963168055555555
 10
15.2871861111111
 20
2.963168055555555
 10
15.33685277777777
 20
2.963168055555555
 10
15.38129722222222
 20
2.963168055555555
 10
15.42050555555555
 20
2.963168055555555
 10
15.45188055555555
 20
2.963168055555555
 10
15.47539444444444
 20
2.963168055555555
 10
15.48846388888888
 20
2.963168055555555
 10
15.4936861111111
 20
2.963168055555555
 10
15.49892222222221
 20
2.963168055555555
 10
15.50414444444444
 20
2.965765277777776
 10
15.50938055555555
 20
2.968376388888889
 10
15.51460277777777
 20
2.971001388888888
 10
15.51722777777777
 20
2.976223611111111
 10
15.51983888888888
 20
2.981459722222221
 10
15.52244999999999
 20
2.986681944444444
  0
LWPOLYLINE
  5
E8
330
2
100
AcDbEntity
  8
PDF_Layer 1
 62
     7
420
 16777215
370
   100
100
AcDbPolyline
 90
       49
 70
     0
 43
0.0
 10
14.70689444444444
 20
3.98259861111111
 10
14.69121388888888
 20
3.972140277777777
 10
14.62847777777777
 20
3.922487499999999
 10
14.56835277777777
 20
3.86497361111111
 10
14.51607499999999
 20
3.802237499999998
 10
14.47164444444444
 20
3.734279166666666
 10
14.43504722222222
 20
3.661084722222221
 10
14.40628333333333
 20
3.585279166666666
 10
14.38538055555555
 20
3.504251388888888
 10
14.37492222222221
 20
3.423223611111109
 10
14.37229722222222
 20
3.342181944444444
 10
14.38015833333333
 20
3.261154166666666
 10
14.39583888888888
 20
3.180126388888887
 10
14.41935277777777
 20
3.101695833333333
 10
14.45333888888888
 20
3.028515277777777
 10
14.49254722222222
 20
2.955306944444443
 10
14.54221388888888
 20
2.88995972222222
 10
14.59711666666666
 20
2.82984861111111
 10
14.65983888888888
 20
2.777556944444444
 10
14.72518611111111
 20
2.730515277777777
 10
14.79838055555555
 20
2.691293055555554
 10
14.87418611111111
 20
2.659931944444442
 10
14.95260277777777
 20
2.639029166666665
 10
15.03363055555555
 20
2.623348611111111
 10
15.11467222222222
 20
2.62072361111111
 10
15.19569999999999
 20
2.623348611111111
 10
15.27672777777777
 20
2.639029166666665
 10
15.35515833333333
 20
2.659931944444442
 10
15.43096388888888
 20
2.691293055555554
 10
15.50414444444444
 20
2.730515277777777
 10
15.57211666666666
 20
2.777556944444444
 10
15.63224166666666
 20
2.82984861111111
 10
15.68975555555555
 20
2.88995972222222
 10
15.73679722222222
 20
2.955306944444443
 10
15.77861666666666
 20
3.028515277777777
 10
15.80999166666666
 20
3.101695833333333
 10
15.83613055555555
 20
3.180126388888887
 10
15.85181111111111
 20
3.261154166666666
 10
15.85704722222222
 20
3.342181944444444
 10
15.85442222222222
 20
3.423223611111109
 10
15.84396388888888
 20
3.504251388888888
 10
15.82304722222222
 20
3.585279166666666
 10
15.79429722222221
 20
3.661084722222221
 10
15.75769999999999
 20
3.734279166666666
 10
15.71326944444444
 20
3.802237499999998
 10
15.66099166666666
 20
3.86497361111111
 10
15.60349166666666
 20
3.922487499999999
 10
15.53814444444444
 20
3.972140277777777
 10
15.52244999999999
 20
3.98259861111111
  0
LWPOLYLINE
  5
EF
330
2
100
AcDbEntity
  8
PDF_Layer 1
 62
     7
420
 16777215
370
   100
100
AcDbPolyline
 90
        2
 70
     0
 43
0.0
 10
14.81929722222222
 20
6.980820833333332
 10
14.81929722222222
 20
4.236154166666666
  0
LWPOLYLINE
  5
F0
330
2
100
AcDbEntity
  8
PDF_Layer 1
 62
     7
420
 16777215
370
   100
100
AcDbPolyline
 90
        2
 70
     0
 43
0.0
 10
15.41265833333333
 20
4.236154166666666
 10
15.41265833333333
 20
6.980820833333332
  0
LWPOLYLINE
  5
F1
330
2
100
AcDbEntity
  8
PDF_Layer 1
 62
     7
420
 16777215
370
   100
100
AcDbPolyline
 90
       29
 70
     0
 43
0.0
 10
15.39958888888888
 20
6.978209722222221
 10
15.39175555555555
 20
6.978209722222221
 10
15.34469999999999
 20
6.970362499999999
 10
15.29242222222222
 20
6.965140277777776
 10
15.23492222222222
 20
6.962529166666666
 10
15.17479722222222
 20
6.959904166666666
 10
15.11467222222222
 20
6.959904166666666
 10
15.05454722222222
 20
6.959904166666666
 10
14.99442222222222
 20
6.962529166666666
 10
14.94736666666666
 20
6.965140277777776
 10
14.93953333333333
 20
6.965140277777776
 10
14.88464444444444
 20
6.970362499999999
 10
14.83758888888888
 20
6.978209722222221
 10
14.79576944444444
 20
6.986043055555554
 10
14.76178333333333
 20
6.993890277777777
 10
14.73564444444444
 20
7.00434861111111
 10
14.71735277777777
 20
7.014793055555554
 10
14.70951944444444
 20
7.025251388888888
 10
14.70951944444444
 20
7.035709722222221
 10
14.71735277777777
 20
7.046168055555554
 10
14.73564444444444
 20
7.056626388888887
 10
14.76178333333333
 20
7.064459722222221
 10
14.79576944444444
 20
7.074918055555555
 10
14.83758888888888
 20
7.082765277777776
 10
14.88464444444444
 20
7.087987499999999
 10
14.93953333333333
 20
7.09322361111111
 10
14.99442222222222
 20
7.098445833333332
 10
15.05454722222222
 20
7.098445833333332
 10
15.11467222222222
 20
7.101056944444443
  0
LWPOLYLINE
  5
F2
330
2
100
AcDbEntity
  8
PDF_Layer 1
 62
     7
420
 16777215
370
   100
100
AcDbPolyline
 90
       19
 70
     0
 43
0.0
 10
15.51722777777777
 20
7.137654166666665
 10
15.4936861111111
 20
7.148112499999998
 10
15.45971388888888
 20
7.155945833333333
 10
15.42050555555555
 20
7.166404166666666
 10
15.376075
 20
7.171640277777776
 10
15.32378333333333
 20
7.179473611111109
 10
15.26628333333333
 20
7.18209861111111
 10
15.20878333333333
 20
7.184709722222221
 10
15.14603333333333
 20
7.187320833333332
 10
15.0833111111111
 20
7.187320833333332
 10
15.02318611111111
 20
7.184709722222221
 10
14.96306111111111
 20
7.18209861111111
 10
14.90817222222221
 20
7.179473611111109
 10
14.85589444444444
 20
7.171640277777776
 10
14.80883888888888
 20
7.166404166666666
 10
14.76963055555555
 20
7.155945833333333
 10
14.73826944444444
 20
7.148112499999998
 10
14.71211666666666
 20
7.137654166666665
 10
14.70951944444444
 20
7.135043055555554
  0
LWPOLYLINE
  5
F3
330
2
100
AcDbEntity
  8
PDF_Layer 1
 62
     7
420
 16777215
370
   100
100
AcDbPolyline
 90
       37
 70
     1
 43
0.0
 10
15.11467222222222
 20
6.97297361111111
 10
15.169575
 20
6.97559861111111
 10
15.22183888888888
 20
6.97559861111111
 10
15.27150555555555
 20
6.980820833333332
 10
15.31856111111111
 20
6.986043055555554
 10
15.35776944444444
 20
6.993890277777777
 10
15.38913055555555
 20
6.999112499999998
 10
15.41528333333333
 20
7.009570833333332
 10
15.43096388888888
 20
7.017418055555554
 10
15.43879722222222
 20
7.027876388888888
 10
15.4361861111111
 20
7.035709722222221
 10
15.42311666666666
 20
7.046168055555554
 10
15.40482499999999
 20
7.054015277777777
 10
15.376075
 20
7.06184861111111
 10
15.33947777777777
 20
7.069695833333332
 10
15.29503333333333
 20
7.074918055555555
 10
15.24797777777777
 20
7.080154166666665
 10
15.19569999999999
 20
7.082765277777776
 10
15.14343611111111
 20
7.085376388888888
 10
15.08853333333333
 20
7.085376388888888
 10
15.03363055555555
 20
7.082765277777776
 10
14.98136666666666
 20
7.080154166666665
 10
14.9343111111111
 20
7.074918055555555
 10
14.89247777777777
 20
7.069695833333332
 10
14.85589444444444
 20
7.06184861111111
 10
14.82713055555555
 20
7.054015277777777
 10
14.80621388888888
 20
7.046168055555554
 10
14.79576944444444
 20
7.035709722222221
 10
14.79315833333333
 20
7.027876388888888
 10
14.79838055555555
 20
7.017418055555554
 10
14.81667222222221
 20
7.009570833333332
 10
14.84021388888888
 20
6.999112499999998
 10
14.87156111111111
 20
6.993890277777777
 10
14.91339444444444
 20
6.986043055555554
 10
14.95782499999999
 20
6.980820833333332
 10
15.00750555555555
 20
6.97559861111111
 10
15.05976944444444
 20
6.97559861111111
  0
LWPOLYLINE
  5
F9
330
2
100
AcDbEntity
  8
PDF_Layer 1
 62
     7
420
 16777215
370
   100
100
AcDbPolyline
 90
       43
 70
     0
 43
0.0
 10
14.70689444444444
 20
3.838834722222221
 10
14.6990611111111
 20
3.830987499999999
 10
14.64676944444444
 20
3.778709722222221
 10
14.59971388888888
 20
3.718584722222221
 10
14.56050555555555
 20
3.653237499999999
 10
14.52914444444444
 20
3.585279166666666
 10
14.50822777777777
 20
3.512084722222222
 10
14.49254722222222
 20
3.438890277777777
 10
14.4899361111111
 20
3.363084722222222
 10
14.49254722222222
 20
3.287279166666666
 10
14.50822777777777
 20
3.21409861111111
 10
14.52914444444444
 20
3.140904166666666
 10
14.56050555555555
 20
3.072945833333332
 10
14.59971388888888
 20
3.00759861111111
 10
14.64676944444444
 20
2.947473611111111
 10
14.6990611111111
 20
2.895195833333332
 10
14.75917222222222
 20
2.848140277777777
 10
14.82451944444444
 20
2.808931944444443
 10
14.89247777777777
 20
2.777556944444444
 10
14.96567222222221
 20
2.754043055555555
 10
15.03886666666666
 20
2.740959722222221
 10
15.11467222222222
 20
2.735737499999999
 10
15.19047777777777
 20
2.740959722222221
 10
15.26367222222221
 20
2.754043055555555
 10
15.33685277777777
 20
2.777556944444444
 10
15.40482499999999
 20
2.808931944444443
 10
15.47017222222222
 20
2.848140277777777
 10
15.53028333333333
 20
2.895195833333332
 10
15.58257499999999
 20
2.947473611111111
 10
15.62963055555555
 20
3.00759861111111
 10
15.66883888888888
 20
3.072945833333332
 10
15.70019999999999
 20
3.140904166666666
 10
15.72372777777777
 20
3.21409861111111
 10
15.73679722222222
 20
3.287279166666666
 10
15.74201944444444
 20
3.363084722222222
 10
15.73679722222222
 20
3.438890277777777
 10
15.72372777777777
 20
3.512084722222222
 10
15.70019999999999
 20
3.585279166666666
 10
15.66883888888888
 20
3.653237499999999
 10
15.62963055555555
 20
3.718584722222221
 10
15.58257499999999
 20
3.778709722222221
 10
15.53028333333333
 20
3.830987499999999
 10
15.52244999999999
 20
3.838834722222221
  0
ELLIPSE
  5
102
330
2
100
AcDbEntity
  8
PDF_Layer 1
 62
     7
420
 16777215
370
   100
100
AcDbEllipse
 10
15.04670474512451
 20
7.024801688599165
 30
0.0
 11
0.4758211632747747
 21
0.0062329509609398
 31
0.0
210
0.0
220
0.0
230
1.0
 40
0.1600478711661369
 41
5.545765017356317
 42
7.708555911942653
  0
LWPOLYLINE
  5
106
330
2
100
AcDbEntity
  8
PDF_Layer 1
 62
     7
420
 16777215
370
   100
100
AcDbPolyline
 90
       22
 70
     0
 43
0.0
 10
14.70689444444444
 20
2.991904166666666
 10
14.70951944444444
 20
2.991904166666666
 10
14.71735277777777
 20
2.991904166666666
 10
14.73564444444444
 20
2.991904166666666
 10
14.76178333333333
 20
2.991904166666666
 10
14.79576944444444
 20
2.991904166666666
 10
14.83758888888888
 20
2.991904166666666
 10
14.88464444444444
 20
2.991904166666666
 10
14.93953333333333
 20
2.991904166666666
 10
14.99442222222222
 20
2.991904166666666
 10
15.05454722222222
 20
2.991904166666666
 10
15.11467222222222
 20
2.991904166666666
 10
15.17479722222222
 20
2.991904166666666
 10
15.23492222222222
 20
2.991904166666666
 10
15.29242222222222
 20
2.991904166666666
 10
15.34469999999999
 20
2.991904166666666
 10
15.39175555555555
 20
2.991904166666666
 10
15.43357499999999
 20
2.991904166666666
 10
15.4675611111111
 20
2.991904166666666
 10
15.4936861111111
 20
2.991904166666666
 10
15.51199166666666
 20
2.991904166666666
 10
15.52244999999999
 20
2.991904166666666
  0
LWPOLYLINE
  5
10C
330
2
100
AcDbEntity
  8
PDF_Layer 1
 62
     7
420
 16777215
370
   100
100
AcDbPolyline
 90
       47
 70
     0
 43
0.0
 10
14.70689444444444
 20
3.935543055555555
 10
14.70165833333333
 20
3.930320833333332
 10
14.63892222222222
 20
3.880654166666666
 10
14.58403333333333
 20
3.823140277777777
 10
14.53436666666666
 20
3.760418055555554
 10
14.49254722222222
 20
3.689834722222221
 10
14.46118611111111
 20
3.616640277777777
 10
14.43504722222222
 20
3.540834722222221
 10
14.41935277777777
 20
3.462431944444443
 10
14.41150555555555
 20
3.384001388888889
 10
14.41413055555555
 20
3.302959722222222
 10
14.42719999999999
 20
3.221931944444443
 10
14.44550555555555
 20
3.146126388888888
 10
14.47686666666666
 20
3.070320833333333
 10
14.51344999999999
 20
2.999751388888888
 10
14.55790833333333
 20
2.934404166666665
 10
14.61017222222222
 20
2.871668055555554
 10
14.67029722222221
 20
2.819390277777777
 10
14.73564444444444
 20
2.772334722222222
 10
14.80621388888888
 20
2.733126388888888
 10
14.87942222222222
 20
2.701751388888888
 10
14.95522777777777
 20
2.678237499999999
 10
15.03625555555555
 20
2.665154166666666
 10
15.11467222222222
 20
2.659931944444442
 10
15.19569999999999
 20
2.665154166666666
 10
15.27413055555555
 20
2.678237499999999
 10
15.35253333333333
 20
2.701751388888888
 10
15.42574166666666
 20
2.733126388888888
 10
15.49631111111111
 20
2.772334722222222
 10
15.55904722222221
 20
2.819390277777777
 10
15.61917222222222
 20
2.871668055555554
 10
15.67145
 20
2.934404166666665
 10
15.71849166666666
 20
2.999751388888888
 10
15.75510277777777
 20
3.070320833333333
 10
15.78385277777777
 20
3.146126388888888
 10
15.80475555555555
 20
3.221931944444443
 10
15.81521388888888
 20
3.302959722222222
 10
15.81782499999999
 20
3.384001388888889
 10
15.80999166666666
 20
3.462431944444443
 10
15.79429722222221
 20
3.540834722222221
 10
15.77078333333333
 20
3.616640277777777
 10
15.73679722222222
 20
3.689834722222221
 10
15.69497777777777
 20
3.760418055555554
 10
15.64529722222222
 20
3.823140277777777
 10
15.59040833333333
 20
3.880654166666666
 10
15.5276861111111
 20
3.930320833333332
 10
15.52244999999999
 20
3.935543055555555
  0
LWPOLYLINE
  5
10E
330
2
100
AcDbEntity
  8
PDF_Layer 1
 62
     7
420
 16777215
370
   100
100
AcDbPolyline
 90
       47
 70
     0
 43
0.0
 10
14.70689444444444
 20
3.938168055555554
 10
14.70165833333333
 20
3.932945833333332
 10
14.63892222222222
 20
3.880654166666666
 10
14.58403333333333
 20
3.823140277777777
 10
14.53436666666666
 20
3.760418055555554
 10
14.49254722222222
 20
3.692445833333333
 10
14.45856111111111
 20
3.619265277777777
 10
14.43504722222222
 20
3.540834722222221
 10
14.41674166666666
 20
3.462431944444443
 10
14.41150555555555
 20
3.384001388888889
 10
14.41413055555555
 20
3.302959722222222
 10
14.42458888888888
 20
3.221931944444443
 10
14.44550555555555
 20
3.146126388888888
 10
14.47425555555555
 20
3.070320833333333
 10
14.51085277777777
 20
2.999751388888888
 10
14.55790833333333
 20
2.931793055555555
 10
14.61017222222222
 20
2.871668055555554
 10
14.67029722222221
 20
2.816765277777776
 10
14.73303333333333
 20
2.76972361111111
 10
14.80361666666666
 20
2.730515277777777
 10
14.87942222222222
 20
2.699154166666666
 10
14.95522777777777
 20
2.675612499999999
 10
15.03363055555555
 20
2.662543055555556
 10
15.11467222222222
 20
2.657320833333333
 10
15.19569999999999
 20
2.662543055555556
 10
15.27413055555555
 20
2.675612499999999
 10
15.35253333333333
 20
2.699154166666666
 10
15.42574166666666
 20
2.730515277777777
 10
15.49631111111111
 20
2.76972361111111
 10
15.56165833333333
 20
2.816765277777776
 10
15.61917222222222
 20
2.871668055555554
 10
15.6740611111111
 20
2.931793055555555
 10
15.71849166666666
 20
2.999751388888888
 10
15.75510277777777
 20
3.070320833333333
 10
15.78646388888888
 20
3.146126388888888
 10
15.80475555555555
 20
3.221931944444443
 10
15.81782499999999
 20
3.302959722222222
 10
15.82044999999999
 20
3.384001388888889
 10
15.81260277777777
 20
3.462431944444443
 10
15.79690833333333
 20
3.540834722222221
 10
15.77078333333333
 20
3.619265277777777
 10
15.73940833333333
 20
3.692445833333333
 10
15.69758888888888
 20
3.760418055555554
 10
15.64792222222222
 20
3.823140277777777
 10
15.59040833333333
 20
3.880654166666666
 10
15.53028333333333
 20
3.932945833333332
 10
15.52244999999999
 20
3.938168055555554
  0
ARC
  5
110
330
2
100
AcDbEntity
  8
PDF_Layer 1
 62
     7
420
 16777215
370
   100
100
AcDbCircle
 10
15.11597777777777
 20
7.387334355191899
 30
0.0
 40
0.8862451878393041
100
AcDbArc
 50
70.44197906668031
 51
109.5580209333192
  0
LWPOLYLINE
  5
111
330
2
100
AcDbEntity
  8
PDF_Layer 1
 62
     7
420
 16777215
370
    35
100
AcDbPolyline
 90
        2
 70
     0
 43
0.0
 10
14.37230138888889
 20
3.363091666666666
 10
14.37230138888889
 20
1.522855555555555
  0
LWPOLYLINE
  5
112
330
2
100
AcDbEntity
  8
PDF_Layer 1
 62
     7
420
 16777215
370
    35
100
AcDbPolyline
 90
        2
 70
     0
 43
0.0
 10
15.85704166666667
 20
3.363091666666666
 10
15.85704166666667
 20
1.522855555555555
  0
LWPOLYLINE
  5
113
330
2
100
AcDbEntity
  8
PDF_Layer 1
 62
     7
420
 16777215
370
    35
100
AcDbPolyline
 90
        2
 70
     0
 43
0.0
 10
14.37230138888889
 20
1.576836111111111
 10
15.8570375
 20
1.576836111111111
  0
LWPOLYLINE
  5
114
330
2
100
AcDbEntity
  8
PDF_Layer 1
 62
     7
420
 16777215
370
    35
100
AcDbPolyline
 90
        2
 70
     0
 43
0.0
 10
14.28721805555555
 20
1.576836111111111
 10
13.9017875
 20
1.576836111111111
  0
LWPOLYLINE
  5
115
330
2
100
AcDbEntity
  8
PDF_Layer 1
 62
     7
420
 16777215
370
    35
100
AcDbPolyline
 90
        2
 70
     0
 43
0.0
 10
15.942125
 20
1.576836111111111
 10
16.32755555555555
 20
1.576836111111111
  0
LWPOLYLINE
  5
117
330
2
100
AcDbEntity
  8
PDF_Layer 1
 62
     7
420
 16777215
370
    35
100
AcDbPolyline
 90
       10
 70
     0
 43
0.0
 10
12.06510416666666
 20
6.262091666666666
 10
12.08079861111111
 20
6.30391111111111
 10
12.09385416666666
 20
6.350966666666666
 10
12.1069375
 20
6.395397222222221
 10
12.11739583333333
 20
6.439841666666666
 10
12.12522916666666
 20
6.486897222222221
 10
12.13307638888889
 20
6.531327777777777
 10
12.1383125
 20
6.578369444444444
 10
12.14090972222222
 20
6.625424999999999
 10
12.14142361111111
 20
6.634577777777777
  0
LWPOLYLINE
  5
118
330
2
100
AcDbEntity
  8
PDF_Layer 1
 62
     7
420
 16777215
370
    35
100
AcDbPolyline
 90
        2
 70
     0
 43
0.0
 10
4.153869444444444
 20
3.053181944444444
 10
2.37553611111111
 20
3.053181944444444
  0
LWPOLYLINE
  5
119
330
2
100
AcDbEntity
  8
PDF_Layer 1
 62
     7
420
 16777215
370
    35
100
AcDbPolyline
 90
        4
 70
     0
 43
0.0
 10
4.687363888888888
 20
3.720051388888888
 10
4.687363888888888
 20
7.397634722222221
 42
-0.916331475667329
 10
10.57006805555555
 20
7.912298611111111
 10
10.65677638888889
 20
7.420618055555555
  0
LWPOLYLINE
  5
11B
330
2
100
AcDbEntity
  8
PDF_Layer 1
 62
     7
420
 16777215
370
    35
100
AcDbPolyline
 90
        2
 70
     0
 43
0.0
 10
11.18158611111111
 20
6.790106944444444
 10
12.26900277777777
 20
6.980926388888888
  0
LWPOLYLINE
  5
11C
330
2
100
AcDbEntity
  8
PDF_Layer 1
 62
     7
420
 16777215
370
    35
100
AcDbPolyline
 90
        2
 70
     0
 43
0.0
 10
10.69395555555555
 20
5.805134722222221
 10
4.770969444444443
 20
5.805134722222221
  0
LWPOLYLINE
  5
11D
330
2
100
AcDbEntity
  8
PDF_Layer 1
 62
     7
420
 16777215
370
    35
100
AcDbPolyline
 90
        2
 70
     0
 43
0.0
 10
0.8947208333333334
 20
10.58675833333333
 10
0.8947208333333334
 20
3.137230555555556
  0
LWPOLYLINE
  5
11E
330
2
100
AcDbEntity
  8
PDF_Layer 1
 62
     7
420
 16777215
370
   100
100
AcDbPolyline
 90
       89
 70
     1
 43
0.0
 10
10.569925
 20
7.911501388888888
 10
10.51764722222222
 20
7.901043055555555
 10
10.46798055555555
 20
7.893195833333333
 10
10.42353611111111
 20
7.885362499999999
 10
10.38171666666666
 20
7.877515277777777
 10
10.34511944444444
 20
7.872293055555555
 10
10.31636944444444
 20
7.867070833333333
 10
10.29545277777777
 20
7.861834722222222
 10
10.28238333333333
 20
7.859223611111111
 10
10.27714722222222
 20
7.859223611111111
 10
10.33728611111111
 20
7.514181944444444
 10
10.35034166666666
 20
7.422695833333333
 10
10.35818888888888
 20
7.331195833333333
 10
10.36603611111111
 20
7.237098611111111
 10
10.37125833333333
 20
7.1456125
 10
10.37649444444444
 20
7.0541125
 10
10.37649444444444
 20
6.960015277777777
 10
10.37649444444444
 20
6.868529166666666
 10
10.37386944444444
 20
6.777043055555555
 10
10.37125833333333
 20
6.769195833333333
 10
10.37125833333333
 20
6.76134861111111
 10
10.36863333333333
 20
6.756126388888889
 10
10.36603611111111
 20
6.748279166666666
 10
10.3608
 20
6.743056944444444
 10
10.35557777777778
 20
6.737820833333333
 10
10.35034166666666
 20
6.732598611111111
 10
10.34511944444444
 20
6.7299875
 10
10.33466111111111
 20
6.719529166666666
 10
10.32682777777777
 20
6.706459722222222
 10
10.32420277777777
 20
6.690779166666666
 10
10.32943888888889
 20
6.675098611111111
 10
10.33728611111111
 20
6.662029166666666
 10
10.34773055555555
 20
6.654181944444444
 10
10.36341111111111
 20
6.648959722222222
 10
10.37649444444444
 20
6.648959722222222
 10
10.38171666666666
 20
6.648959722222222
 10
10.39478611111111
 20
6.651570833333333
 10
10.41831388888889
 20
6.654181944444444
 10
10.44706388888889
 20
6.659404166666666
 10
10.48366111111111
 20
6.667251388888889
 10
10.52810555555555
 20
6.675098611111111
 10
10.57775833333333
 20
6.682931944444444
 10
10.63266111111111
 20
6.693390277777777
 10
10.69016111111111
 20
6.70384861111111
 10
10.74766111111111
 20
6.714306944444444
 10
10.8078
 20
6.724765277777778
 10
10.867925
 20
6.735209722222221
 10
10.92541111111111
 20
6.745668055555555
 10
10.98031388888888
 20
6.753515277777777
 10
11.02998055555555
 20
6.763973611111111
 10
11.074425
 20
6.771806944444444
 10
11.11102222222222
 20
6.777043055555555
 10
11.13977222222222
 20
6.782265277777777
 10
11.16328611111111
 20
6.787501388888888
 10
11.17636944444444
 20
6.787501388888888
 10
11.18159166666666
 20
6.7901125
 10
11.19466111111111
 20
6.795334722222222
 10
11.20771666666666
 20
6.803181944444444
 10
11.21557777777777
 20
6.816251388888888
 10
11.218175
 20
6.831931944444444
 10
11.21557777777777
 20
6.8476125
 10
11.20771666666666
 20
6.860681944444444
 10
11.19727222222222
 20
6.871140277777778
 10
11.18159166666666
 20
6.876376388888888
 10
11.17636944444444
 20
6.8789875
 10
11.16852222222222
 20
6.881598611111111
 10
11.16328611111111
 20
6.884209722222221
 10
11.15806388888888
 20
6.889431944444444
 10
11.15282777777777
 20
6.894668055555555
 10
11.14760555555555
 20
6.899890277777777
 10
11.14499444444444
 20
6.905126388888889
 10
11.13977222222222
 20
6.912959722222222
 10
11.10578611111111
 20
6.9966125
 10
11.074425
 20
7.082876388888888
 10
11.04305
 20
7.171751388888888
 10
11.0143
 20
7.258015277777777
 10
10.98816111111111
 20
7.346890277777777
 10
10.96461944444444
 20
7.435751388888888
 10
10.94110555555555
 20
7.527251388888888
 10
10.92281388888888
 20
7.616126388888888
 10
10.86006388888888
 20
7.961168055555555
 10
10.85746666666666
 20
7.961168055555555
 10
10.84177222222222
 20
7.958556944444444
 10
10.82085555555555
 20
7.955945833333332
 10
10.79211944444444
 20
7.950709722222222
 10
10.75550833333333
 20
7.942876388888889
 10
10.71368888888889
 20
7.937640277777777
 10
10.66925833333333
 20
7.929793055555554
 10
10.61959166666666
 20
7.919348611111111
  0
LWPOLYLINE
  5
125
330
2
100
AcDbEntity
  8
PDF_Layer 1
 62
     7
420
 16777215
370
   100
100
AcDbPolyline
 90
       26
 70
     0
 43
0.0
 10
4.003647222222221
 20
2.756765277777777
 10
4.278105555555554
 20
2.756765277777777
 10
4.278105555555554
 20
2.680959722222223
 10
4.278105555555554
 20
2.675723611111111
 10
4.280716666666664
 20
2.670501388888889
 10
4.283341666666665
 20
2.665265277777777
 10
4.285952777777776
 20
2.660043055555556
 10
4.291174999999998
 20
2.657431944444445
 10
4.296411111111109
 20
2.654806944444445
 10
4.301633333333332
 20
2.652209722222222
 10
4.306869444444442
 20
2.652209722222222
 10
4.312091666666665
 20
2.652209722222222
 10
4.32777222222222
 20
2.652209722222222
 10
4.348688888888887
 20
2.652209722222222
 10
4.380049999999998
 20
2.652209722222222
 10
4.41925833333333
 20
2.652209722222222
 10
4.463702777777776
 20
2.652209722222222
 10
4.513369444444442
 20
2.652209722222222
 10
4.568258333333331
 20
2.652209722222222
 10
4.625772222222221
 20
2.652209722222222
 10
4.685883333333332
 20
2.652209722222222
 10
4.746008333333332
 20
2.652209722222222
 10
4.803508333333332
 20
2.652209722222222
 10
4.858411111111109
 20
2.652209722222222
 10
4.908077777777775
 20
2.652209722222222
 10
5.083355555555553
 20
2.652209722222222
  0
LWPOLYLINE
  5
127
330
2
100
AcDbEntity
  8
PDF_Layer 1
 62
     7
420
 16777215
370
   100
100
AcDbPolyline
 90
       17
 70
     0
 43
0.0
 10
5.083355555555553
 20
3.925195833333333
 10
4.834883333333332
 20
3.925195833333333
 10
4.777383333333331
 20
3.925195833333333
 10
4.717244444444443
 20
3.925195833333333
 10
4.654522222222221
 20
3.925195833333333
 10
4.59439722222222
 20
3.925195833333333
 10
4.53689722222222
 20
3.925195833333333
 10
4.481994444444442
 20
3.925195833333333
 10
4.432327777777777
 20
3.925195833333333
 10
4.38789722222222
 20
3.925195833333333
 10
4.348688888888887
 20
3.925195833333333
 10
4.319938888888887
 20
3.925195833333333
 10
4.296411111111109
 20
3.925195833333333
 10
4.283341666666665
 20
3.925195833333333
 10
4.278105555555554
 20
3.925195833333333
 10
4.278105555555554
 20
3.347515277777777
 10
4.003647222222221
 20
3.347515277777777
  0
LWPOLYLINE
  5
12A
330
2
100
AcDbEntity
  8
PDF_Layer 1
 62
     7
420
 16777215
370
   100
100
AcDbPolyline
 90
       47
 70
     0
 43
0.0
 10
3.512216666666665
 20
2.628681944444444
 10
3.635063888888886
 20
2.641751388888889
 10
3.789299999999998
 20
2.652209722222222
 10
3.94352222222222
 20
2.652209722222222
 10
3.956591666666665
 20
2.654806944444445
 10
3.967049999999999
 20
2.657431944444445
 10
3.977508333333332
 20
2.662668055555554
 10
3.987952777777777
 20
2.670501388888889
 10
3.993188888888887
 20
2.678348611111111
 10
4.001036111111109
 20
2.688806944444444
 10
4.003647222222221
 20
2.7018625
 10
4.003647222222221
 20
2.712320833333333
 10
4.003647222222221
 20
2.717556944444444
 10
4.003647222222221
 20
2.7306125
 10
4.003647222222221
 20
2.741070833333333
 10
4.003647222222221
 20
2.746306944444445
 10
4.003647222222221
 20
2.759376388888888
 10
4.003647222222221
 20
2.782904166666666
 10
4.003647222222221
 20
2.814265277777778
 10
4.003647222222221
 20
2.85087638888889
 10
4.003647222222221
 20
2.895306944444445
 10
4.003647222222221
 20
2.944973611111111
 10
4.003647222222221
 20
2.997251388888889
 10
4.003647222222221
 20
3.052140277777777
 10
4.003647222222221
 20
3.107029166666666
 10
4.003647222222221
 20
3.159320833333334
 10
4.003647222222221
 20
3.2063625
 10
4.003647222222221
 20
3.250806944444444
 10
4.003647222222221
 20
3.290015277777778
 10
4.003647222222221
 20
3.321390277777778
 10
4.003647222222221
 20
3.344904166666666
 10
4.003647222222221
 20
3.357973611111111
 10
4.003647222222221
 20
3.363195833333333
 10
4.003647222222221
 20
3.373654166666666
 10
4.003647222222221
 20
3.3867375
 10
4.003647222222221
 20
3.391959722222221
 10
4.003647222222221
 20
3.402418055555555
 10
4.001036111111109
 20
3.4128625
 10
3.993188888888887
 20
3.423320833333333
 10
3.987952777777777
 20
3.433779166666666
 10
3.977508333333332
 20
3.441626388888888
 10
3.967049999999999
 20
3.446848611111111
 10
3.956591666666665
 20
3.449459722222222
 10
3.94352222222222
 20
3.449459722222222
 10
3.789299999999998
 20
3.452084722222222
 10
3.635063888888886
 20
3.462543055555555
 10
3.512216666666665
 20
3.475598611111111
  0
LWPOLYLINE
  5
12E
330
2
100
AcDbEntity
  8
PDF_Layer 1
 62
     7
420
 16777215
370
   100
100
AcDbPolyline
 90
       21
 70
     0
 43
0.0
 10
4.981258333333332
 20
3.925195833333333
 10
4.981258333333332
 20
7.396556944444444
 10
4.97864722222222
 20
7.396556944444444
 10
4.965577777777776
 20
7.396556944444444
 10
4.942049999999999
 20
7.396556944444444
 10
4.913299999999998
 20
7.396556944444444
 10
4.876702777777777
 20
7.396556944444444
 10
4.834883333333332
 20
7.396556944444444
 10
4.787827777777776
 20
7.396556944444444
 10
4.73816111111111
 20
7.396556944444444
 10
4.685883333333332
 20
7.396556944444444
 10
4.633605555555553
 20
7.396556944444444
 10
4.583938888888886
 20
7.396556944444444
 10
4.53689722222222
 20
7.396556944444444
 10
4.495063888888886
 20
7.396556944444444
 10
4.458466666666665
 20
7.396556944444444
 10
4.429716666666664
 20
7.396556944444444
 10
4.408799999999998
 20
7.396556944444444
 10
4.393119444444442
 20
7.396556944444444
 10
4.390508333333332
 20
7.396556944444444
 10
4.390508333333332
 20
3.925195833333333
  0
ARC
  5
130
330
2
100
AcDbEntity
  8
PDF_Layer 1
 62
     7
420
 16777215
370
   100
100
AcDbCircle
 10
7.649423260876745
 20
7.396437615446782
 30
0.0
 40
2.668164930211803
100
AcDbArc
 50
9.98831305373743
 51
179.9974375467332
  0
ARC
  5
131
330
2
100
AcDbEntity
  8
PDF_Layer 1
 62
     7
420
 16777215
370
   100
100
AcDbCircle
 10
7.649962759593817
 20
7.396106909218896
 30
0.0
 40
3.259454457328829
100
AcDbArc
 50
9.983272221630109
 51
179.9920891304125
  0
LWPOLYLINE
  5
134
330
2
100
AcDbEntity
  8
PDF_Layer 1
 62
     7
420
 16777215
370
   100
100
AcDbPolyline
 90
       86
 70
     1
 43
0.0
 10
2.633924999999997
 20
2.273181944444444
 10
2.633924999999997
 20
2.275793055555555
 10
2.633924999999997
 20
2.283640277777777
 10
2.633924999999997
 20
2.301931944444445
 10
2.633924999999997
 20
2.328070833333334
 10
2.633924999999997
 20
2.364668055555555
 10
2.633924999999997
 20
2.40909861111111
 10
2.633924999999997
 20
2.458765277777778
 10
2.633924999999997
 20
2.516279166666667
 10
2.633924999999997
 20
2.581626388888889
 10
2.633924999999997
 20
2.649584722222222
 10
2.633924999999997
 20
2.725390277777778
 10
2.633924999999997
 20
2.803820833333332
 10
2.633924999999997
 20
2.88484861111111
 10
2.633924999999997
 20
2.9684875
 10
2.633924999999997
 20
3.052140277777777
 10
2.633924999999997
 20
3.135779166666667
 10
2.633924999999997
 20
3.219431944444444
 10
2.633924999999997
 20
3.300473611111111
 10
2.633924999999997
 20
3.378876388888889
 10
2.633924999999997
 20
3.452084722222222
 10
2.633924999999997
 20
3.522654166666666
 10
2.633924999999997
 20
3.588001388888889
 10
2.633924999999997
 20
3.645501388888888
 10
2.633924999999997
 20
3.695181944444444
 10
2.633924999999997
 20
3.739612499999999
 10
2.633924999999997
 20
3.773598611111111
 10
2.633924999999997
 20
3.802348611111111
 10
2.633924999999997
 20
3.820654166666666
 10
2.633924999999997
 20
3.828487499999999
 10
2.633924999999997
 20
3.831098611111111
 10
2.633924999999997
 20
3.833709722222222
 10
2.633924999999997
 20
3.836334722222222
 10
2.631313888888887
 20
3.838945833333333
 10
2.631313888888887
 20
3.841556944444444
 10
2.628688888888886
 20
3.841556944444444
 10
2.615633333333331
 20
3.849390277777778
 10
2.605174999999997
 20
3.854626388888888
 10
2.592105555555554
 20
3.859848611111111
 10
2.579036111111109
 20
3.865084722222222
 10
2.563341666666663
 20
3.867709722222222
 10
2.550272222222219
 20
3.867709722222222
 10
2.537202777777775
 20
3.867709722222222
 10
2.521522222222219
 20
3.867709722222222
 10
2.521522222222219
 20
3.865084722222222
 10
2.521522222222219
 20
3.852015277777778
 10
2.521522222222219
 20
3.831098611111111
 10
2.521522222222219
 20
3.802348611111111
 10
2.521522222222219
 20
3.765751388888888
 10
2.521522222222219
 20
3.718695833333333
 10
2.521522222222219
 20
3.666418055555555
 10
2.521522222222219
 20
3.603695833333333
 10
2.521522222222219
 20
3.538348611111111
 10
2.521522222222219
 20
3.465140277777777
 10
2.521522222222219
 20
3.389334722222222
 10
2.521522222222219
 20
3.308306944444444
 10
2.521522222222219
 20
3.224668055555555
 10
2.521522222222219
 20
3.138404166666667
 10
2.521522222222219
 20
3.052140277777777
 10
2.521522222222219
 20
2.965876388888889
 10
2.521522222222219
 20
2.8796125
 10
2.521522222222219
 20
2.795959722222222
 10
2.521522222222219
 20
2.714945833333334
 10
2.521522222222219
 20
2.639126388888888
 10
2.521522222222219
 20
2.565945833333334
 10
2.521522222222219
 20
2.497973611111111
 10
2.521522222222219
 20
2.437848611111111
 10
2.521522222222219
 20
2.385584722222223
 10
2.521522222222219
 20
2.338529166666666
 10
2.521522222222219
 20
2.301931944444445
 10
2.521522222222219
 20
2.270556944444444
 10
2.521522222222219
 20
2.249654166666666
 10
2.521522222222219
 20
2.239209722222223
 10
2.521522222222219
 20
2.236584722222223
 10
2.537202777777775
 20
2.236584722222223
 10
2.550272222222219
 20
2.236584722222223
 10
2.563341666666663
 20
2.236584722222223
 10
2.579036111111109
 20
2.239209722222223
 10
2.592105555555554
 20
2.241806944444443
 10
2.605174999999997
 20
2.247043055555556
 10
2.615633333333331
 20
2.254876388888889
 10
2.628688888888886
 20
2.262723611111111
 10
2.631313888888887
 20
2.262723611111111
 10
2.631313888888887
 20
2.265334722222222
 10
2.633924999999997
 20
2.267945833333333
 10
2.633924999999997
 20
2.270556944444444
  0
LWPOLYLINE
  5
138
330
2
100
AcDbEntity
  8
PDF_Layer 1
 62
     7
420
 16777215
370
   100
100
AcDbPolyline
 90
       71
 70
     0
 43
0.0
 10
2.633924999999997
 20
2.275793055555555
 10
2.636536111111109
 20
2.278404166666667
 10
2.636536111111109
 20
2.281015277777778
 10
2.636536111111109
 20
2.283640277777777
 10
2.639147222222221
 20
2.283640277777777
 10
2.641758333333332
 20
2.286251388888889
 10
2.644383333333331
 20
2.2888625
 10
2.646994444444443
 20
2.2888625
 10
2.649605555555553
 20
2.2888625
 10
2.660063888888887
 20
2.291473611111111
 10
2.67052222222222
 20
2.291473611111111
 10
2.680980555555554
 20
2.296695833333333
 10
2.688813888888887
 20
2.299320833333333
 10
2.69927222222222
 20
2.301931944444445
 10
2.709730555555553
 20
2.307154166666666
 10
2.717563888888886
 20
2.312390277777778
 10
2.728022222222222
 20
2.3202375
 10
2.73063333333333
 20
2.32284861111111
 10
2.73063333333333
 20
2.325459722222222
 10
2.733258333333331
 20
2.325459722222222
 10
2.733258333333331
 20
2.328070833333334
 10
2.733258333333331
 20
2.330681944444444
 10
2.733258333333331
 20
2.335904166666666
 10
2.733258333333331
 20
2.3489875
 10
2.733258333333331
 20
2.372501388888889
 10
2.733258333333331
 20
2.401265277777778
 10
2.733258333333331
 20
2.44047361111111
 10
2.733258333333331
 20
2.487515277777778
 10
2.733258333333331
 20
2.542418055555556
 10
2.733258333333331
 20
2.602543055555555
 10
2.733258333333331
 20
2.667890277777778
 10
2.733258333333331
 20
2.73847361111111
 10
2.733258333333331
 20
2.814265277777778
 10
2.733258333333331
 20
2.892681944444445
 10
2.733258333333331
 20
2.9711125
 10
2.733258333333331
 20
3.052140277777777
 10
2.733258333333331
 20
3.133181944444444
 10
2.733258333333331
 20
3.211584722222222
 10
2.733258333333331
 20
3.290015277777778
 10
2.733258333333331
 20
3.365820833333333
 10
2.733258333333331
 20
3.436390277777778
 10
2.733258333333331
 20
3.5017375
 10
2.733258333333331
 20
3.5618625
 10
2.733258333333331
 20
3.614140277777778
 10
2.733258333333331
 20
3.661181944444444
 10
2.733258333333331
 20
3.700404166666666
 10
2.733258333333331
 20
3.731765277777777
 10
2.733258333333331
 20
3.755293055555555
 10
2.733258333333331
 20
3.7683625
 10
2.733258333333331
 20
3.773598611111111
 10
2.733258333333331
 20
3.776209722222222
 10
2.733258333333331
 20
3.778820833333333
 10
2.73063333333333
 20
3.778820833333333
 10
2.73063333333333
 20
3.781445833333333
 10
2.728022222222222
 20
3.784043055555555
 10
2.717563888888886
 20
3.789279166666666
 10
2.709730555555553
 20
3.7971125
 10
2.69927222222222
 20
3.799737499999999
 10
2.688813888888887
 20
3.804959722222222
 10
2.680980555555554
 20
3.807570833333333
 10
2.67052222222222
 20
3.810195833333333
 10
2.660063888888887
 20
3.812793055555555
 10
2.649605555555553
 20
3.815418055555555
 10
2.646994444444443
 20
3.815418055555555
 10
2.644383333333331
 20
3.815418055555555
 10
2.641758333333332
 20
3.818029166666666
 10
2.639147222222221
 20
3.818029166666666
 10
2.636536111111109
 20
3.820654166666666
 10
2.636536111111109
 20
3.823251388888889
 10
2.636536111111109
 20
3.825876388888889
 10
2.633924999999997
 20
3.828487499999999
  0
LWPOLYLINE
  5
13E
330
2
100
AcDbEntity
  8
PDF_Layer 1
 62
     7
420
 16777215
370
   100
100
AcDbPolyline
 90
       24
 70
     0
 43
0.0
 10
2.733258333333331
 20
2.338529166666666
 10
2.733258333333331
 20
2.341140277777778
 10
2.733258333333331
 20
2.343751388888888
 10
2.735869444444444
 20
2.3463625
 10
2.735869444444444
 20
2.3489875
 10
2.738480555555552
 20
2.3489875
 10
2.738480555555552
 20
2.351598611111111
 10
2.741091666666664
 20
2.351598611111111
 10
2.882244444444444
 20
2.422168055555555
 10
3.02602222222222
 20
2.484904166666666
 10
3.17500833333333
 20
2.539806944444444
 10
3.326619444444443
 20
2.5842375
 10
3.478230555555555
 20
2.620834722222221
 10
3.635063888888886
 20
2.649584722222222
 10
3.789299999999998
 20
2.670501388888889
 10
3.948744444444443
 20
2.680959722222223
 10
3.959202777777776
 20
2.683570833333332
 10
3.969661111111109
 20
2.686181944444443
 10
3.980119444444443
 20
2.691404166666667
 10
3.987952777777777
 20
2.699265277777778
 10
3.995799999999998
 20
2.709723611111111
 10
4.001036111111109
 20
2.717556944444444
 10
4.003647222222221
 20
2.7306125
 10
4.003647222222221
 20
2.741070833333333
  0
LWPOLYLINE
  5
13F
330
2
100
AcDbEntity
  8
PDF_Layer 1
 62
     7
420
 16777215
370
   100
100
AcDbPolyline
 90
       24
 70
     0
 43
0.0
 10
4.003647222222221
 20
3.363195833333333
 10
4.003647222222221
 20
3.373654166666666
 10
4.001036111111109
 20
3.3841125
 10
3.995799999999998
 20
3.394570833333333
 10
3.987952777777777
 20
3.405029166666666
 10
3.980119444444443
 20
3.410251388888888
 10
3.969661111111109
 20
3.418084722222221
 10
3.959202777777776
 20
3.420709722222222
 10
3.948744444444443
 20
3.423320833333333
 10
3.789299999999998
 20
3.433779166666666
 10
3.635063888888886
 20
3.452084722222222
 10
3.478230555555555
 20
3.480834722222222
 10
3.326619444444443
 20
3.520029166666667
 10
3.17500833333333
 20
3.564473611111111
 10
3.02602222222222
 20
3.619376388888889
 10
2.882244444444444
 20
3.682098611111111
 10
2.741091666666664
 20
3.752681944444444
 10
2.738480555555552
 20
3.752681944444444
 10
2.735869444444444
 20
3.755293055555555
 10
2.735869444444444
 20
3.757904166666666
 10
2.733258333333331
 20
3.757904166666666
 10
2.733258333333331
 20
3.760529166666666
 10
2.733258333333331
 20
3.763140277777778
 10
2.733258333333331
 20
3.765751388888888
  0
LWPOLYLINE
  5
144
330
2
100
AcDbEntity
  8
PDF_Layer 1
 62
     7
420
 16777215
370
   100
100
AcDbPolyline
 90
       38
 70
     1
 43
0.0
 10
1.84189722222222
 20
2.769834722222222
 10
1.938605555555554
 20
2.769834722222222
 10
1.938605555555554
 20
2.775070833333333
 10
1.938605555555554
 20
2.788126388888888
 10
1.938605555555554
 20
2.809043055555555
 10
1.938605555555554
 20
2.840418055555555
 10
1.938605555555554
 20
2.877001388888889
 10
1.938605555555554
 20
2.918820833333333
 10
1.938605555555554
 20
2.965876388888889
 10
1.938605555555554
 20
3.012931944444444
 10
1.938605555555554
 20
3.065209722222221
 10
1.938605555555554
 20
3.114876388888889
 10
1.938605555555554
 20
3.161931944444444
 10
1.938605555555554
 20
3.2063625
 10
1.938605555555554
 20
3.245584722222222
 10
1.938605555555554
 20
3.279556944444444
 10
1.938605555555554
 20
3.305695833333333
 10
1.938605555555554
 20
3.3239875
 10
1.938605555555554
 20
3.331834722222222
 10
1.938605555555554
 20
3.334445833333333
 10
1.84189722222222
 20
3.334445833333333
 10
1.84189722222222
 20
3.331834722222222
 10
1.84189722222222
 20
3.3239875
 10
1.84189722222222
 20
3.305695833333333
 10
1.84189722222222
 20
3.279556944444444
 10
1.84189722222222
 20
3.245584722222222
 10
1.84189722222222
 20
3.2063625
 10
1.84189722222222
 20
3.161931944444444
 10
1.84189722222222
 20
3.114876388888889
 10
1.84189722222222
 20
3.065209722222221
 10
1.84189722222222
 20
3.012931944444444
 10
1.84189722222222
 20
2.965876388888889
 10
1.84189722222222
 20
2.918820833333333
 10
1.84189722222222
 20
2.877001388888889
 10
1.84189722222222
 20
2.840418055555555
 10
1.84189722222222
 20
2.809043055555555
 10
1.84189722222222
 20
2.788126388888888
 10
1.84189722222222
 20
2.775070833333333
  0
LWPOLYLINE
  5
146
330
2
100
AcDbEntity
  8
PDF_Layer 1
 62
     7
420
 16777215
370
   100
100
AcDbPolyline
 90
       35
 70
     0
 43
0.0
 10
1.938605555555554
 20
2.775070833333333
 10
2.024869444444442
 20
2.775070833333333
 10
2.030091666666665
 20
2.777668055555555
 10
2.035327777777776
 20
2.777668055555555
 10
2.040549999999999
 20
2.780293055555556
 10
2.045786111111111
 20
2.785529166666667
 10
2.048397222222222
 20
2.788126388888888
 10
2.051008333333331
 20
2.7933625
 10
2.053619444444441
 20
2.801195833333333
 10
2.053619444444441
 20
2.806418055555556
 10
2.053619444444441
 20
2.811654166666667
 10
2.053619444444441
 20
2.82472361111111
 10
2.053619444444441
 20
2.848251388888889
 10
2.053619444444441
 20
2.877001388888889
 10
2.053619444444441
 20
2.916223611111112
 10
2.053619444444441
 20
2.958029166666667
 10
2.053619444444441
 20
3.005084722222222
 10
2.053619444444441
 20
3.052140277777777
 10
2.053619444444441
 20
3.099195833333333
 10
2.053619444444441
 20
3.1462375
 10
2.053619444444441
 20
3.188070833333333
 10
2.053619444444441
 20
3.224668055555555
 10
2.053619444444441
 20
3.256029166666666
 10
2.053619444444441
 20
3.279556944444444
 10
2.053619444444441
 20
3.292626388888888
 10
2.053619444444441
 20
3.297848611111111
 10
2.053619444444441
 20
3.303084722222222
 10
2.051008333333331
 20
3.308306944444444
 10
2.048397222222222
 20
3.313529166666666
 10
2.045786111111111
 20
3.318765277777778
 10
2.040549999999999
 20
3.321390277777778
 10
2.035327777777776
 20
3.3239875
 10
2.030091666666665
 20
3.3266125
 10
2.024869444444442
 20
3.3266125
 10
1.938605555555554
 20
3.3266125
  0
LWPOLYLINE
  5
14A
330
2
100
AcDbEntity
  8
PDF_Layer 1
 62
     7
420
 16777215
370
   100
100
AcDbPolyline
 90
       13
 70
     0
 43
0.0
 10
1.84189722222222
 20
3.1462375
 10
1.820980555555554
 20
3.1462375
 10
1.732105555555554
 20
3.093973611111112
 10
1.732105555555554
 20
3.091348611111111
 10
1.732105555555554
 20
3.080890277777778
 10
1.732105555555554
 20
3.067834722222222
 10
1.732105555555554
 20
3.052140277777777
 10
1.732105555555554
 20
3.036459722222222
 10
1.732105555555554
 20
3.023390277777778
 10
1.732105555555554
 20
3.012931944444444
 10
1.732105555555554
 20
3.010320833333334
 10
1.820980555555554
 20
2.958029166666667
 10
1.84189722222222
 20
2.958029166666667
  0
LWPOLYLINE
  5
14E
330
2
100
AcDbEntity
  8
PDF_Layer 1
 62
     7
420
 16777215
370
   100
100
AcDbPolyline
 90
        2
 70
     0
 43
0.0
 10
2.053619444444441
 20
2.837793055555556
 10
2.270577777777777
 20
2.837793055555556
  0
LWPOLYLINE
  5
14F
330
2
100
AcDbEntity
  8
PDF_Layer 1
 62
     7
420
 16777215
370
   100
100
AcDbPolyline
 90
        2
 70
     0
 43
0.0
 10
2.270577777777777
 20
3.266473611111111
 10
2.053619444444441
 20
3.266473611111111
  0
LWPOLYLINE
  5
150
330
2
100
AcDbEntity
  8
PDF_Layer 1
 62
     7
420
 16777215
370
   100
100
AcDbPolyline
 90
       19
 70
     0
 43
0.0
 10
2.330702777777776
 20
3.360584722222222
 10
2.333313888888888
 20
3.357973611111111
 10
2.333313888888888
 20
3.337056944444444
 10
2.335924999999999
 20
3.295237499999999
 10
2.338549999999997
 20
3.242959722222222
 10
2.341161111111109
 20
3.1776125
 10
2.34377222222222
 20
3.104418055555555
 10
2.34377222222222
 20
3.0286125
 10
2.346383333333331
 20
2.955418055555555
 10
2.349008333333331
 20
2.887459722222221
 10
2.351619444444444
 20
2.827334722222223
 10
2.354230555555554
 20
2.782904166666666
 10
2.354230555555554
 20
2.751529166666666
 10
2.356841666666666
 20
2.741070833333333
 10
2.364688888888887
 20
2.741070833333333
 10
2.369911111111108
 20
2.741070833333333
 10
2.380369444444444
 20
2.725390277777778
 10
2.388216666666665
 20
2.712320833333333
 10
2.393438888888887
 20
2.712320833333333
  0
LWPOLYLINE
  5
151
330
2
100
AcDbEntity
  8
PDF_Layer 1
 62
     7
420
 16777215
370
   100
100
AcDbPolyline
 90
       19
 70
     0
 43
0.0
 10
2.39866111111111
 20
3.363195833333333
 10
2.401272222222222
 20
3.3553625
 10
2.401272222222222
 20
3.32922361111111
 10
2.403897222222219
 20
3.287390277777777
 10
2.406508333333331
 20
3.229890277777777
 10
2.409119444444443
 20
3.164543055555555
 10
2.411730555555553
 20
3.091348611111111
 10
2.411730555555553
 20
3.015543055555555
 10
2.414355555555554
 20
2.9423625
 10
2.416966666666667
 20
2.874390277777777
 10
2.419577777777775
 20
2.816876388888888
 10
2.419577777777775
 20
2.775070833333333
 10
2.422188888888888
 20
2.748918055555555
 10
2.424799999999997
 20
2.741070833333333
 10
2.432647222222219
 20
2.725390277777778
 10
2.440494444444442
 20
2.712320833333333
 10
2.448327777777777
 20
2.712320833333333
 10
2.456174999999998
 20
2.725390277777778
 10
2.466633333333332
 20
2.741070833333333
  0
LWPOLYLINE
  5
152
330
2
100
AcDbEntity
  8
PDF_Layer 1
 62
     7
420
 16777215
370
   100
100
AcDbPolyline
 90
        6
 70
     0
 43
0.0
 10
2.477077777777775
 20
2.741070833333333
 10
2.48753611111111
 20
2.725390277777778
 10
2.495383333333331
 20
2.712320833333333
 10
2.503230555555553
 20
2.712320833333333
 10
2.511063888888888
 20
2.725390277777778
 10
2.518911111111109
 20
2.741070833333333
  0
LWPOLYLINE
  5
154
330
2
100
AcDbEntity
  8
PDF_Layer 1
 62
     7
420
 16777215
370
   100
100
AcDbPolyline
 90
       26
 70
     0
 43
0.0
 10
2.477077777777775
 20
2.743695833333333
 10
2.477077777777775
 20
2.746306944444445
 10
2.474466666666664
 20
2.767209722222222
 10
2.471855555555554
 20
2.809043055555555
 10
2.471855555555554
 20
2.861320833333333
 10
2.469244444444442
 20
2.926681944444445
 10
2.466633333333332
 20
2.999862499999999
 10
2.464022222222221
 20
3.075668055555556
 10
2.46141111111111
 20
3.148862499999999
 10
2.46141111111111
 20
3.219431944444444
 10
2.45878611111111
 20
3.276931944444444
 10
2.456174999999998
 20
3.321390277777778
 10
2.453563888888886
 20
3.352737499999999
 10
2.450952777777776
 20
3.363195833333333
 10
2.445716666666665
 20
3.363195833333333
 10
2.437883333333332
 20
3.363195833333333
 10
2.430036111111109
 20
3.378876388888889
 10
2.422188888888888
 20
3.391959722222221
 10
2.414355555555554
 20
3.391959722222221
 10
2.406508333333331
 20
3.378876388888889
 10
2.39866111111111
 20
3.363195833333333
 10
2.390827777777775
 20
3.363195833333333
 10
2.385605555555553
 20
3.363195833333333
 10
2.377758333333332
 20
3.378876388888889
 10
2.367299999999998
 20
3.391959722222221
 10
2.362077777777774
 20
3.391959722222221
  0
LWPOLYLINE
  5
155
330
2
100
AcDbEntity
  8
PDF_Layer 1
 62
     7
420
 16777215
370
   100
100
AcDbPolyline
 90
       18
 70
     0
 43
0.0
 10
2.518911111111109
 20
2.743695833333333
 10
2.516299999999997
 20
2.7619875
 10
2.513688888888887
 20
2.798584722222222
 10
2.511063888888888
 20
2.85087638888889
 10
2.508452777777776
 20
2.913598611111111
 10
2.508452777777776
 20
2.986793055555555
 10
2.505841666666665
 20
3.059973611111111
 10
2.503230555555553
 20
3.135779166666667
 10
2.500605555555554
 20
3.2063625
 10
2.497994444444442
 20
3.266473611111111
 10
2.497994444444442
 20
3.313529166666666
 10
2.495383333333331
 20
3.347515277777777
 10
2.492772222222221
 20
3.363195833333333
 10
2.484924999999998
 20
3.378876388888889
 10
2.474466666666664
 20
3.391959722222221
 10
2.469244444444442
 20
3.391959722222221
 10
2.45878611111111
 20
3.378876388888889
 10
2.450952777777776
 20
3.363195833333333
  0
LWPOLYLINE
  5
156
330
2
100
AcDbEntity
  8
PDF_Layer 1
 62
     7
420
 16777215
370
   100
100
AcDbPolyline
 90
        5
 70
     0
 43
0.0
 10
2.521522222222219
 20
3.391959722222221
 10
2.513688888888887
 20
3.378876388888889
 10
2.505841666666665
 20
3.363195833333333
 10
2.497994444444442
 20
3.363195833333333
 10
2.492772222222221
 20
3.363195833333333
  0
LWPOLYLINE
  5
158
330
2
100
AcDbEntity
  8
PDF_Layer 1
 62
     7
420
 16777215
370
   100
100
AcDbPolyline
 90
       41
 70
     0
 43
0.0
 10
2.359452777777776
 20
3.391959722222221
 10
2.351619444444444
 20
3.378876388888889
 10
2.34377222222222
 20
3.363195833333333
 10
2.338549999999997
 20
3.363195833333333
 10
2.330702777777776
 20
3.363195833333333
 10
2.322855555555552
 20
3.378876388888889
 10
2.315022222222221
 20
3.391959722222221
 10
2.307174999999999
 20
3.391959722222221
 10
2.299341666666665
 20
3.378876388888889
 10
2.291494444444444
 20
3.363195833333333
 10
2.283647222222221
 20
3.363195833333333
 10
2.275813888888887
 20
3.363195833333333
 10
2.270577777777777
 20
3.357973611111111
 10
2.270577777777777
 20
3.352737499999999
 10
2.270577777777777
 20
3.339681944444444
 10
2.270577777777777
 20
3.316154166666667
 10
2.270577777777777
 20
3.284779166666666
 10
2.270577777777777
 20
3.248181944444444
 10
2.270577777777777
 20
3.203751388888889
 10
2.270577777777777
 20
3.156695833333333
 10
2.270577777777777
 20
3.104418055555555
 10
2.270577777777777
 20
3.052140277777777
 10
2.270577777777777
 20
2.999862499999999
 10
2.270577777777777
 20
2.947584722222222
 10
2.270577777777777
 20
2.900529166666667
 10
2.270577777777777
 20
2.856098611111111
 10
2.270577777777777
 20
2.816876388888888
 10
2.270577777777777
 20
2.788126388888888
 10
2.270577777777777
 20
2.7646125
 10
2.270577777777777
 20
2.751529166666666
 10
2.270577777777777
 20
2.746306944444445
 10
2.294105555555551
 20
2.722779166666667
 10
2.296730555555553
 20
2.725390277777778
 10
2.304563888888887
 20
2.741070833333333
 10
2.309799999999999
 20
2.741070833333333
 10
2.317633333333331
 20
2.741070833333333
 10
2.325480555555554
 20
2.725390277777778
 10
2.333313888888888
 20
2.712320833333333
 10
2.341161111111109
 20
2.712320833333333
 10
2.349008333333331
 20
2.725390277777778
 10
2.356841666666666
 20
2.741070833333333
  0
LWPOLYLINE
  5
15F
330
2
100
AcDbEntity
  8
PDF_Layer 1
 62
     7
420
 16777215
370
   100
100
AcDbPolyline
 90
        5
 70
     0
 43
0.0
 10
2.396049999999998
 20
2.712320833333333
 10
2.403897222222219
 20
2.725390277777778
 10
2.411730555555553
 20
2.741070833333333
 10
2.416966666666667
 20
2.741070833333333
 10
2.424799999999997
 20
2.741070833333333
  0
LWPOLYLINE
  5
166
330
2
100
AcDbEntity
  8
PDF_Layer 1
 62
     7
420
 16777215
370
   100
100
AcDbPolyline
 90
        2
 70
     0
 43
0.0
 10
2.521522222222219
 20
3.391959722222221
 10
2.521522222222219
 20
3.391959722222221
  0
LWPOLYLINE
  5
16F
330
2
100
AcDbEntity
  8
PDF_Layer 1
 62
     7
420
 16777215
370
   100
100
AcDbPolyline
 90
       16
 70
     0
 43
0.0
 10
2.437883333333332
 20
3.363195833333333
 10
2.440494444444442
 20
3.352737499999999
 10
2.443105555555554
 20
3.321390277777778
 10
2.445716666666665
 20
3.276931944444444
 10
2.445716666666665
 20
3.219431944444444
 10
2.448327777777777
 20
3.148862499999999
 10
2.450952777777776
 20
3.075668055555556
 10
2.453563888888886
 20
2.999862499999999
 10
2.456174999999998
 20
2.926681944444445
 10
2.456174999999998
 20
2.861320833333333
 10
2.45878611111111
 20
2.809043055555555
 10
2.46141111111111
 20
2.767209722222222
 10
2.464022222222221
 20
2.746306944444445
 10
2.464022222222221
 20
2.741070833333333
 10
2.471855555555554
 20
2.741070833333333
 10
2.479702777777776
 20
2.741070833333333
  0
LWPOLYLINE
  5
176
330
2
100
AcDbEntity
  8
PDF_Layer 1
 62
     7
420
 16777215
370
   100
100
AcDbPolyline
 90
       36
 70
     1
 43
0.0
 10
10.63005
 20
7.566459722222222
 10
10.57775833333333
 20
7.556001388888889
 10
10.53070277777777
 20
7.548154166666666
 10
10.48366111111111
 20
7.540320833333333
 10
10.44184166666666
 20
7.532473611111111
 10
10.40524444444444
 20
7.524626388888888
 10
10.37649444444444
 20
7.519404166666666
 10
10.35557777777778
 20
7.516793055555555
 10
10.34250833333333
 20
7.514181944444444
 10
10.33728611111111
 20
7.514181944444444
 10
10.34250833333333
 20
7.514181944444444
 10
10.35557777777778
 20
7.516793055555555
 10
10.37649444444444
 20
7.519404166666666
 10
10.40524444444444
 20
7.524626388888888
 10
10.44184166666666
 20
7.532473611111111
 10
10.48366111111111
 20
7.540320833333333
 10
10.53070277777777
 20
7.548154166666666
 10
10.57775833333333
 20
7.556001388888889
 10
10.63005
 20
7.566459722222222
 10
10.67971666666666
 20
7.574306944444444
 10
10.72936944444444
 20
7.582140277777777
 10
10.776425
 20
7.58997361111111
 10
10.81824444444444
 20
7.597820833333333
 10
10.85223055555555
 20
7.605668055555555
 10
10.88360555555555
 20
7.610890277777778
 10
10.90450833333333
 20
7.613501388888888
 10
10.91757777777777
 20
7.616126388888888
 10
10.92281388888888
 20
7.616126388888888
 10
10.91757777777777
 20
7.616126388888888
 10
10.90450833333333
 20
7.613501388888888
 10
10.88360555555555
 20
7.610890277777778
 10
10.85223055555555
 20
7.605668055555555
 10
10.81824444444444
 20
7.597820833333333
 10
10.776425
 20
7.58997361111111
 10
10.72936944444444
 20
7.582140277777777
 10
10.67971666666666
 20
7.574306944444444
  0
LWPOLYLINE
  5
189
330
2
100
AcDbEntity
  8
PDF_Layer 1
 62
     7
420
 16777215
370
   100
100
AcDbPolyline
 90
       11
 70
     0
 43
0.0
 10
1.820980555555554
 20
3.1462375
 10
1.820980555555554
 20
3.141015277777778
 10
1.820980555555554
 20
3.127945833333332
 10
1.820980555555554
 20
3.107029166666666
 10
1.820980555555554
 20
3.080890277777778
 10
1.820980555555554
 20
3.052140277777777
 10
1.820980555555554
 20
3.023390277777778
 10
1.820980555555554
 20
2.997251388888889
 10
1.820980555555554
 20
2.976334722222222
 10
1.820980555555554
 20
2.963265277777777
 10
1.820980555555554
 20
2.958029166666667
  0
ARC
  5
18D
330
2
100
AcDbEntity
  8
PDF_Layer 1
 62
     7
420
 16777215
370
   100
100
AcDbCircle
 10
229.6591486342776
 20
11.82817556083801
 30
0.0
 40
227.5085359939287
100
AcDbArc
 50
182.1257264183992
 51
182.296352778969
  0
ARC
  5
18E
330
2
100
AcDbEntity
  8
PDF_Layer 1
 62
     7
420
 16777215
370
   100
100
AcDbCircle
 10
229.7140514136409
 20
11.82817556089982
 30
0.0
 40
227.5085359955154
100
AcDbArc
 50
182.1257264184
 51
182.2963527789685
  0
LWPOLYLINE
  5
18F
330
2
100
AcDbEntity
  8
PDF_Layer 1
 62
     7
420
 16777215
370
   100
100
AcDbPolyline
 90
       14
 70
     0
 43
0.0
 10
2.414355555555554
 20
3.389334722222222
 10
2.416966666666667
 20
3.389334722222222
 10
2.416966666666667
 20
3.368431944444444
 10
2.419577777777775
 20
3.32922361111111
 10
2.422188888888888
 20
3.271709722222222
 10
2.424799999999997
 20
3.203751388888889
 10
2.427424999999997
 20
3.125320833333334
 10
2.427424999999997
 20
3.044293055555555
 10
2.430036111111109
 20
2.960654166666667
 10
2.432647222222219
 20
2.88484861111111
 10
2.435258333333331
 20
2.819501388888888
 10
2.437883333333332
 20
2.7646125
 10
2.437883333333332
 20
2.7306125
 10
2.440494444444442
 20
2.712320833333333
  0
ARC
  5
190
330
2
100
AcDbEntity
  8
PDF_Layer 1
 62
     7
420
 16777215
370
   100
100
AcDbCircle
 10
229.8212180807308
 20
11.82817556091527
 30
0.0
 40
227.5085359959389
100
AcDbArc
 50
182.1257264183999
 51
182.2963527789681
  0
LWPOLYLINE
  5
191
330
2
100
AcDbEntity
  8
PDF_Layer 1
 62
     7
420
 16777215
370
   100
100
AcDbPolyline
 90
       13
 70
     0
 43
0.0
 10
2.291494444444444
 20
3.360584722222222
 10
2.294105555555551
 20
3.342279166666667
 10
2.296730555555553
 20
3.305695833333333
 10
2.296730555555553
 20
3.253418055555556
 10
2.299341666666665
 20
3.190668055555555
 10
2.301952777777774
 20
3.120098611111111
 10
2.304563888888887
 20
3.044293055555555
 10
2.307174999999999
 20
2.9684875
 10
2.307174999999999
 20
2.897918055555555
 10
2.309799999999999
 20
2.837793055555556
 10
2.31241111111111
 20
2.790751388888889
 10
2.315022222222221
 20
2.756765277777777
 10
2.317633333333331
 20
2.741070833333333
  0
LWPOLYLINE
  5
192
330
2
100
AcDbEntity
  8
PDF_Layer 1
 62
     7
420
 16777215
370
   100
100
AcDbPolyline
 90
       14
 70
     0
 43
0.0
 10
2.34377222222222
 20
3.360584722222222
 10
2.346383333333331
 20
3.357973611111111
 10
2.349008333333331
 20
3.337056944444444
 10
2.349008333333331
 20
3.295237499999999
 10
2.351619444444444
 20
3.242959722222222
 10
2.354230555555554
 20
3.1776125
 10
2.356841666666666
 20
3.104418055555555
 10
2.359452777777776
 20
3.0286125
 10
2.359452777777776
 20
2.955418055555555
 10
2.362077777777774
 20
2.887459722222221
 10
2.364688888888887
 20
2.827334722222223
 10
2.367299999999998
 20
2.782904166666666
 10
2.369911111111108
 20
2.751529166666666
 10
2.369911111111108
 20
2.741070833333333
  0
LWPOLYLINE
  5
195
330
2
100
AcDbEntity
  8
PDF_Layer 1
 62
     7
420
 16777215
370
   100
100
AcDbPolyline
 90
       10
 70
     0
 43
0.0
 10
2.505841666666665
 20
3.360584722222222
 10
2.505841666666665
 20
3.363195833333333
 10
2.508452777777776
 20
3.347515277777777
 10
2.511063888888888
 20
3.313529166666666
 10
2.513688888888887
 20
3.266473611111111
 10
2.513688888888887
 20
3.2063625
 10
2.516299999999997
 20
3.135779166666667
 10
2.518911111111109
 20
3.059973611111111
 10
2.521522222222219
 20
2.986793055555555
 10
2.521522222222219
 20
2.931904166666667
  0
LWPOLYLINE
  5
196
330
2
100
AcDbEntity
  8
PDF_Layer 1
 62
     7
420
 16777215
370
   100
100
AcDbPolyline
 90
       34
 70
     0
 43
0.0
 10
2.294105555555551
 20
2.722779166666667
 10
2.294105555555551
 20
2.7306125
 10
2.291494444444444
 20
2.746306944444445
 10
2.291494444444444
 20
2.769834722222222
 10
2.291494444444444
 20
2.803820833333332
 10
2.288883333333332
 20
2.843015277777777
 10
2.288883333333332
 20
2.890070833333333
 10
2.286272222222221
 20
2.937126388888889
 10
2.286272222222221
 20
2.992029166666667
 10
2.286272222222221
 20
3.044293055555555
 10
2.283647222222221
 20
3.099195833333333
 10
2.283647222222221
 20
3.151473611111111
 10
2.283647222222221
 20
3.201126388888889
 10
2.281036111111109
 20
3.245584722222222
 10
2.281036111111109
 20
3.284779166666666
 10
2.281036111111109
 20
3.316154166666667
 10
2.278425
 20
3.339681944444444
 10
2.278425
 20
3.3553625
 10
2.278425
 20
3.363195833333333
 10
2.275813888888887
 20
3.363195833333333
 10
2.278425
 20
3.360584722222222
 10
2.281036111111109
 20
3.342279166666667
 10
2.283647222222221
 20
3.305695833333333
 10
2.283647222222221
 20
3.253418055555556
 10
2.286272222222221
 20
3.190668055555555
 10
2.288883333333332
 20
3.120098611111111
 10
2.291494444444444
 20
3.044293055555555
 10
2.291494444444444
 20
2.9684875
 10
2.294105555555551
 20
2.897918055555555
 10
2.296730555555553
 20
2.837793055555556
 10
2.299341666666665
 20
2.790751388888889
 10
2.301952777777774
 20
2.756765277777777
 10
2.301952777777774
 20
2.741070833333333
 10
2.304563888888887
 20
2.741070833333333
  0
LWPOLYLINE
  5
199
330
2
100
AcDbEntity
  8
PDF_Layer 1
 62
     7
420
 16777215
370
   100
100
AcDbPolyline
 90
       14
 70
     0
 43
0.0
 10
2.385605555555553
 20
3.360584722222222
 10
2.385605555555553
 20
3.3553625
 10
2.388216666666665
 20
3.32922361111111
 10
2.390827777777775
 20
3.287390277777777
 10
2.393438888888887
 20
3.229890277777777
 10
2.396049999999998
 20
3.164543055555555
 10
2.396049999999998
 20
3.091348611111111
 10
2.39866111111111
 20
3.015543055555555
 10
2.401272222222222
 20
2.9423625
 10
2.403897222222219
 20
2.874390277777777
 10
2.406508333333331
 20
2.816876388888888
 10
2.406508333333331
 20
2.775070833333333
 10
2.409119444444443
 20
2.748918055555555
 10
2.411730555555553
 20
2.741070833333333
  0
LWPOLYLINE
  5
19C
330
2
100
AcDbEntity
  8
PDF_Layer 1
 62
     7
420
 16777215
370
   100
100
AcDbPolyline
 90
       14
 70
     0
 43
0.0
 10
2.315022222222221
 20
3.389334722222222
 10
2.315022222222221
 20
3.3867375
 10
2.317633333333331
 20
3.363195833333333
 10
2.320244444444442
 20
3.318765277777778
 10
2.322855555555552
 20
3.261251388888889
 10
2.322855555555552
 20
3.190668055555555
 10
2.325480555555554
 20
3.109640277777777
 10
2.328091666666665
 20
3.0286125
 10
2.330702777777776
 20
2.944973611111111
 10
2.333313888888888
 20
2.871765277777778
 10
2.333313888888888
 20
2.806418055555556
 10
2.335924999999999
 20
2.756765277777777
 10
2.338549999999997
 20
2.725390277777778
 10
2.341161111111109
 20
2.712320833333333
  0
LWPOLYLINE
  5
19D
330
2
100
AcDbEntity
  8
PDF_Layer 1
 62
     7
420
 16777215
370
   100
100
AcDbPolyline
 90
       15
 70
     0
 43
0.0
 10
2.367299999999998
 20
3.389334722222222
 10
2.369911111111108
 20
3.3867375
 10
2.372536111111109
 20
3.363195833333333
 10
2.372536111111109
 20
3.318765277777778
 10
2.375147222222221
 20
3.261251388888889
 10
2.377758333333332
 20
3.190668055555555
 10
2.380369444444444
 20
3.109640277777777
 10
2.382980555555552
 20
3.0286125
 10
2.382980555555552
 20
2.944973611111111
 10
2.385605555555553
 20
2.871765277777778
 10
2.388216666666665
 20
2.806418055555556
 10
2.390827777777775
 20
2.756765277777777
 10
2.393438888888887
 20
2.725390277777778
 10
2.393438888888887
 20
2.712320833333333
 10
2.396049999999998
 20
2.714945833333334
  0
LWPOLYLINE
  5
19E
330
2
100
AcDbEntity
  8
PDF_Layer 1
 62
     7
420
 16777215
370
   100
100
AcDbPolyline
 90
       15
 70
     0
 43
0.0
 10
2.422188888888888
 20
3.389334722222222
 10
2.422188888888888
 20
3.3867375
 10
2.424799999999997
 20
3.363195833333333
 10
2.427424999999997
 20
3.318765277777778
 10
2.430036111111109
 20
3.261251388888889
 10
2.432647222222219
 20
3.190668055555555
 10
2.432647222222219
 20
3.109640277777777
 10
2.435258333333331
 20
3.0286125
 10
2.437883333333332
 20
2.944973611111111
 10
2.440494444444442
 20
2.871765277777778
 10
2.443105555555554
 20
2.806418055555556
 10
2.443105555555554
 20
2.756765277777777
 10
2.445716666666665
 20
2.725390277777778
 10
2.448327777777777
 20
2.712320833333333
 10
2.448327777777777
 20
2.714945833333334
  0
LWPOLYLINE
  5
19F
330
2
100
AcDbEntity
  8
PDF_Layer 1
 62
     7
420
 16777215
370
   100
100
AcDbPolyline
 90
       15
 70
     0
 43
0.0
 10
2.474466666666664
 20
3.389334722222222
 10
2.477077777777775
 20
3.3867375
 10
2.479702777777776
 20
3.363195833333333
 10
2.482313888888888
 20
3.318765277777778
 10
2.482313888888888
 20
3.261251388888889
 10
2.484924999999998
 20
3.190668055555555
 10
2.48753611111111
 20
3.109640277777777
 10
2.490161111111111
 20
3.0286125
 10
2.492772222222221
 20
2.944973611111111
 10
2.492772222222221
 20
2.871765277777778
 10
2.495383333333331
 20
2.806418055555556
 10
2.497994444444442
 20
2.756765277777777
 10
2.500605555555554
 20
2.725390277777778
 10
2.500605555555554
 20
2.712320833333333
 10
2.503230555555553
 20
2.712320833333333
  0
LWPOLYLINE
  5
1A1
330
2
100
AcDbEntity
  8
PDF_Layer 1
 62
     7
420
 16777215
370
   100
100
AcDbPolyline
 90
       22
 70
     0
 43
0.0
 10
11.18159166666666
 20
6.876376388888888
 10
11.17374444444444
 20
6.873765277777778
 10
11.15545277777777
 20
6.871140277777778
 10
11.12931388888888
 20
6.868529166666666
 10
11.09532777777777
 20
6.860681944444444
 10
11.05350833333333
 20
6.855459722222222
 10
11.00645277777777
 20
6.845001388888888
 10
10.95417499999999
 20
6.837154166666667
 10
10.89927222222222
 20
6.826709722222222
 10
10.83916111111111
 20
6.816251388888888
 10
10.77903611111111
 20
6.805793055555555
 10
10.71891111111111
 20
6.795334722222222
 10
10.65879999999999
 20
6.784876388888888
 10
10.60128611111111
 20
6.774431944444444
 10
10.54639722222222
 20
6.763973611111111
 10
10.49673055555555
 20
6.756126388888889
 10
10.4523
 20
6.748279166666666
 10
10.41568888888888
 20
6.740445833333333
 10
10.38432777777777
 20
6.735209722222221
 10
10.36341111111111
 20
6.732598611111111
 10
10.35034166666666
 20
6.7299875
 10
10.34511944444444
 20
6.7299875
  0
LWPOLYLINE
  5
1A2
330
2
100
AcDbEntity
  8
PDF_Layer 1
 62
     7
420
 16777215
370
   100
100
AcDbPolyline
 90
       21
 70
     0
 43
0.0
 10
10.37386944444444
 20
6.777043055555555
 10
10.38432777777777
 20
6.779654166666666
 10
10.40000833333333
 20
6.782265277777777
 10
10.42614722222222
 20
6.784876388888888
 10
10.46013333333333
 20
6.79272361111111
 10
10.50195277777777
 20
6.797959722222222
 10
10.54900833333333
 20
6.808404166666666
 10
10.598675
 20
6.816251388888888
 10
10.656175
 20
6.826709722222222
 10
10.71368888888889
 20
6.837154166666667
 10
10.77120277777777
 20
6.8476125
 10
10.82870277777777
 20
6.858070833333333
 10
10.88621666666666
 20
6.865918055555555
 10
10.94110555555555
 20
6.876376388888888
 10
10.99075833333333
 20
6.884209722222221
 10
11.03259166666666
 20
6.892056944444444
 10
11.0718
 20
6.899890277777777
 10
11.10056388888889
 20
6.905126388888889
 10
11.12146666666666
 20
6.907737499999999
 10
11.13714722222222
 20
6.91034861111111
 10
11.13977222222222
 20
6.912959722222222
  0
LWPOLYLINE
  5
1A3
330
2
100
AcDbEntity
  8
PDF_Layer 1
 62
     7
420
 16777215
370
   100
100
AcDbPolyline
 90
        4
 70
     0
 43
0.0
 10
3.94352222222222
 20
2.652209722222222
 10
3.94352222222222
 20
2.654806944444445
 10
3.94352222222222
 20
2.662668055555554
 10
3.94352222222222
 20
2.680959722222223
  0
LWPOLYLINE
  5
1A4
330
2
100
AcDbEntity
  8
PDF_Layer 1
 62
     7
420
 16777215
370
   100
100
AcDbPolyline
 90
        4
 70
     0
 43
0.0
 10
3.94352222222222
 20
3.423320833333333
 10
3.94352222222222
 20
3.431168055555556
 10
3.94352222222222
 20
3.446848611111111
 10
3.94352222222222
 20
3.449459722222222
  0
LWPOLYLINE
  5
1A9
330
2
100
AcDbEntity
  8
PDF_Layer 1
 62
     7
420
 16777215
370
   100
100
AcDbPolyline
 90
       30
 70
     0
 43
0.0
 10
2.628688888888886
 20
2.262723611111111
 10
2.628688888888886
 20
2.267945833333333
 10
2.628688888888886
 20
2.283640277777777
 10
2.628688888888886
 20
2.309779166666666
 10
2.628688888888886
 20
2.341140277777778
 10
2.628688888888886
 20
2.382959722222222
 10
2.628688888888886
 20
2.430015277777778
 10
2.628688888888886
 20
2.484904166666666
 10
2.628688888888886
 20
2.547654166666666
 10
2.628688888888886
 20
2.615612500000001
 10
2.628688888888886
 20
2.688806944444444
 10
2.628688888888886
 20
2.7646125
 10
2.628688888888886
 20
2.843015277777777
 10
2.628688888888886
 20
2.926681944444445
 10
2.628688888888886
 20
3.010320833333334
 10
2.628688888888886
 20
3.093973611111112
 10
2.628688888888886
 20
3.1776125
 10
2.628688888888886
 20
3.258640277777777
 10
2.628688888888886
 20
3.339681944444444
 10
2.628688888888886
 20
3.4154875
 10
2.628688888888886
 20
3.488668055555555
 10
2.628688888888886
 20
3.556640277777777
 10
2.628688888888886
 20
3.616751388888889
 10
2.628688888888886
 20
3.674265277777777
 10
2.628688888888886
 20
3.721306944444444
 10
2.628688888888886
 20
3.763140277777778
 10
2.628688888888886
 20
3.794501388888888
 10
2.628688888888886
 20
3.820654166666666
 10
2.628688888888886
 20
3.833709722222222
 10
2.628688888888886
 20
3.841556944444444
  0
LWPOLYLINE
  5
1AA
330
2
100
AcDbEntity
  8
PDF_Layer 1
 62
     7
420
 16777215
370
   100
100
AcDbPolyline
 90
       30
 70
     0
 43
0.0
 10
2.649605555555553
 20
3.815418055555555
 10
2.649605555555553
 20
3.812793055555555
 10
2.649605555555553
 20
3.799737499999999
 10
2.649605555555553
 20
3.778820833333333
 10
2.649605555555553
 20
3.750070833333333
 10
2.649605555555553
 20
3.713473611111111
 10
2.649605555555553
 20
3.666418055555555
 10
2.649605555555553
 20
3.614140277777778
 10
2.649605555555553
 20
3.551404166666666
 10
2.649605555555553
 20
3.486056944444444
 10
2.649605555555553
 20
3.4154875
 10
2.649605555555553
 20
3.339681944444444
 10
2.649605555555553
 20
3.258640277777777
 10
2.649605555555553
 20
3.1776125
 10
2.649605555555553
 20
3.093973611111112
 10
2.649605555555553
 20
3.010320833333334
 10
2.649605555555553
 20
2.926681944444445
 10
2.649605555555553
 20
2.845640277777778
 10
2.649605555555553
 20
2.7646125
 10
2.649605555555553
 20
2.688806944444444
 10
2.649605555555553
 20
2.61822361111111
 10
2.649605555555553
 20
2.550251388888889
 10
2.649605555555553
 20
2.490140277777777
 10
2.649605555555553
 20
2.437848611111111
 10
2.649605555555553
 20
2.390806944444445
 10
2.649605555555553
 20
2.354209722222222
 10
2.649605555555553
 20
2.32284861111111
 10
2.649605555555553
 20
2.304556944444445
 10
2.649605555555553
 20
2.291473611111111
 10
2.649605555555553
 20
2.2888625
  0
LWPOLYLINE
  5
1AB
330
2
100
AcDbEntity
  8
PDF_Layer 1
 62
     7
420
 16777215
370
   100
100
AcDbPolyline
 90
       29
 70
     0
 43
0.0
 10
2.728022222222222
 20
2.3202375
 10
2.728022222222222
 20
2.32284861111111
 10
2.728022222222222
 20
2.338529166666666
 10
2.728022222222222
 20
2.359445833333333
 10
2.728022222222222
 20
2.390806944444445
 10
2.728022222222222
 20
2.432626388888889
 10
2.728022222222222
 20
2.479681944444444
 10
2.728022222222222
 20
2.534570833333333
 10
2.728022222222222
 20
2.594695833333333
 10
2.728022222222222
 20
2.662668055555554
 10
2.728022222222222
 20
2.7332375
 10
2.728022222222222
 20
2.809043055555555
 10
2.728022222222222
 20
2.890070833333333
 10
2.728022222222222
 20
2.9711125
 10
2.728022222222222
 20
3.052140277777777
 10
2.728022222222222
 20
3.133181944444444
 10
2.728022222222222
 20
3.214209722222222
 10
2.728022222222222
 20
3.292626388888888
 10
2.728022222222222
 20
3.371043055555555
 10
2.728022222222222
 20
3.441626388888888
 10
2.728022222222222
 20
3.509584722222222
 10
2.728022222222222
 20
3.569695833333333
 10
2.728022222222222
 20
3.62459861111111
 10
2.728022222222222
 20
3.671640277777778
 10
2.728022222222222
 20
3.7108625
 10
2.728022222222222
 20
3.742223611111111
 10
2.728022222222222
 20
3.765751388888888
 10
2.728022222222222
 20
3.778820833333333
 10
2.728022222222222
 20
3.784043055555555
  0
LWPOLYLINE
  5
1AC
330
2
100
AcDbEntity
  8
PDF_Layer 1
 62
     7
420
 16777215
370
   100
100
AcDbPolyline
 90
       29
 70
     0
 43
0.0
 10
2.741091666666664
 20
3.752681944444444
 10
2.741091666666664
 20
3.750070833333333
 10
2.741091666666664
 20
3.7369875
 10
2.741091666666664
 20
3.716098611111111
 10
2.741091666666664
 20
3.687334722222222
 10
2.741091666666664
 20
3.6507375
 10
2.741091666666664
 20
3.606293055555555
 10
2.741091666666664
 20
3.554029166666667
 10
2.741091666666664
 20
3.493890277777778
 10
2.741091666666664
 20
3.431168055555556
 10
2.741091666666664
 20
3.360584722222222
 10
2.741091666666664
 20
3.287390277777777
 10
2.741091666666664
 20
3.211584722222222
 10
2.741091666666664
 20
3.130556944444443
 10
2.741091666666664
 20
3.052140277777777
 10
2.741091666666664
 20
2.9711125
 10
2.741091666666664
 20
2.892681944444445
 10
2.741091666666664
 20
2.816876388888888
 10
2.741091666666664
 20
2.743695833333333
 10
2.741091666666664
 20
2.6731125
 10
2.741091666666664
 20
2.607765277777778
 10
2.741091666666664
 20
2.550251388888889
 10
2.741091666666664
 20
2.497973611111111
 10
2.741091666666664
 20
2.453543055555555
 10
2.741091666666664
 20
2.414334722222222
 10
2.741091666666664
 20
2.385584722222223
 10
2.741091666666664
 20
2.367279166666667
 10
2.741091666666664
 20
2.354209722222222
 10
2.741091666666664
 20
2.351598611111111
  0
LWPOLYLINE
  5
1AE
330
2
100
AcDbEntity
  8
PDF_Layer 1
 62
     7
420
 16777215
370
   100
100
AcDbPolyline
 90
       21
 70
     0
 43
0.0
 10
3.948744444444443
 20
2.680959722222223
 10
3.948744444444443
 20
2.686181944444443
 10
3.948744444444443
 20
2.699265277777778
 10
3.948744444444443
 20
2.722779166666667
 10
3.948744444444443
 20
2.751529166666666
 10
3.948744444444443
 20
2.790751388888889
 10
3.948744444444443
 20
2.835181944444445
 10
3.948744444444443
 20
2.88484861111111
 10
3.948744444444443
 20
2.937126388888889
 10
3.948744444444443
 20
2.994626388888889
 10
3.948744444444443
 20
3.052140277777777
 10
3.948744444444443
 20
3.109640277777777
 10
3.948744444444443
 20
3.167154166666666
 10
3.948744444444443
 20
3.219431944444444
 10
3.948744444444443
 20
3.269098611111111
 10
3.948744444444443
 20
3.313529166666666
 10
3.948744444444443
 20
3.350140277777778
 10
3.948744444444443
 20
3.381501388888889
 10
3.948744444444443
 20
3.405029166666666
 10
3.948744444444443
 20
3.418084722222221
 10
3.948744444444443
 20
3.423320833333333
  0
LWPOLYLINE
  5
1B0
330
2
100
AcDbEntity
  8
PDF_Layer 1
 62
     7
420
 16777215
370
   100
100
AcDbPolyline
 90
       18
 70
     0
 43
0.0
 10
2.024869444444442
 20
2.775070833333333
 10
2.024869444444442
 20
2.777668055555555
 10
2.024869444444442
 20
2.785529166666667
 10
2.024869444444442
 20
2.806418055555556
 10
2.024869444444442
 20
2.832556944444444
 10
2.024869444444442
 20
2.866556944444443
 10
2.024869444444442
 20
2.905765277777777
 10
2.024869444444442
 20
2.952806944444444
 10
2.024869444444442
 20
3.002473611111111
 10
2.024869444444442
 20
3.052140277777777
 10
2.024869444444442
 20
3.101806944444444
 10
2.024869444444442
 20
3.151473611111111
 10
2.024869444444442
 20
3.195904166666666
 10
2.024869444444442
 20
3.237723611111111
 10
2.024869444444442
 20
3.271709722222222
 10
2.024869444444442
 20
3.297848611111111
 10
2.024869444444442
 20
3.316154166666667
 10
2.024869444444442
 20
3.3266125
  0
LWPOLYLINE
  5
1B2
330
2
100
AcDbEntity
  8
PDF_Layer 1
 62
     7
420
 16777215
370
    35
100
AcDbPolyline
 90
        2
 70
     0
 43
0.0
 10
7.952609722222221
 20
10.67184722222222
 10
0.8407486111111106
 20
10.67184722222222
  0
LWPOLYLINE
  5
1B3
330
2
100
AcDbEntity
  8
PDF_Layer 1
 62
     7
420
 16777215
370
    35
100
AcDbPolyline
 90
        2
 70
     0
 43
0.0
 10
2.375143055555555
 20
3.052137499999999
 10
0.8407402777777775
 20
3.052137499999999
  0
LWPOLYLINE
  5
1B4
330
2
100
AcDbEntity
  8
PDF_Layer 1
 62
     7
420
 16777215
370
    35
100
AcDbPolyline
 90
        2
 70
     0
 43
0.0
 10
4.152641666666665
 20
3.052137499999999
 10
11.88212777777778
 20
3.052137499999999
  0
LWPOLYLINE
  5
1B5
330
2
100
AcDbEntity
  8
PDF_Layer 1
 62
     7
420
 16777215
370
    35
100
AcDbPolyline
 90
        2
 70
     0
 43
0.0
 10
11.73314027777778
 20
6.634440277777777
 10
11.73314027777778
 20
3.137231944444444
  0
LWPOLYLINE
  5
1B6
330
2
100
AcDbEntity
  8
PDF_Layer 1
 62
     7
420
 16777215
370
    35
100
AcDbPolyline
 90
        3
 70
     0
 43
0.0
 10
10.77903888888889
 20
5.770447222222221
 10
10.77903888888889
 20
6.719530555555555
 10
12.292525
 20
6.719530555555555
  0
LWPOLYLINE
  5
1B8
330
2
100
AcDbEntity
  8
PDF_Layer 1
 62
     7
420
 16777215
370
    35
100
AcDbPolyline
 90
        9
 70
     0
 43
0.0
 10
12.14614583333333
 20
6.719530555555555
 10
12.14353472222222
 20
6.748280555555554
 10
12.14353472222222
 20
6.779655555555555
 10
12.14090972222222
 20
6.808405555555554
 10
12.14090972222222
 20
6.837155555555555
 10
12.1356875
 20
6.868530555555555
 10
12.13307638888889
 20
6.897280555555554
 10
12.13045138888889
 20
6.926044444444444
 10
12.12522916666666
 20
6.954780555555554
  0
LWPOLYLINE
  5
1B9
330
2
100
AcDbEntity
  8
PDF_Layer 1
 62
     7
420
 16777215
370
    35
100
AcDbPolyline
 90
       15
 70
     0
 43
0.0
 10
12.10677083333333
 20
7.037855555555554
 10
12.1043125
 20
7.048883333333332
 10
12.09385416666666
 20
7.093327777777776
 10
12.07817361111111
 20
7.137772222222221
 10
12.06249305555555
 20
7.182202777777777
 10
12.0468125
 20
7.226647222222221
 10
12.02850694444444
 20
7.271077777777777
 10
12.00759027777777
 20
7.312897222222221
 10
11.9866875
 20
7.354716666666665
 10
11.96578472222222
 20
7.396549999999999
 10
11.93964583333333
 20
7.438369444444443
 10
11.91610416666666
 20
7.477577777777777
 10
11.88735416666666
 20
7.51678611111111
 10
11.86121527777777
 20
7.553383333333332
 10
11.82985416666666
 20
7.589980555555555
  0
LWPOLYLINE
  5
1BA
330
2
100
AcDbEntity
  8
PDF_Layer 1
 62
     7
420
 16777215
370
    35
100
AcDbPolyline
 90
        2
 70
     0
 43
0.0
 10
4.305419444444443
 20
5.028293055555554
 10
3.920002777777776
 20
5.028293055555554
  0
LWPOLYLINE
  5
1BB
330
2
100
AcDbEntity
  8
PDF_Layer 1
 62
     7
420
 16777215
370
    35
100
AcDbPolyline
 90
        2
 70
     0
 43
0.0
 10
4.390509722222221
 20
5.028293055555554
 10
4.981259722222221
 20
5.028293055555554
  0
LWPOLYLINE
  5
1BC
330
2
100
AcDbEntity
  8
PDF_Layer 1
 62
     7
420
 16777215
370
    35
100
AcDbPolyline
 90
        2
 70
     0
 43
0.0
 10
5.066351388888888
 20
5.028293055555554
 10
6.271893055555555
 20
5.028293055555554
  0
LWPOLYLINE
  5
1BD
330
2
100
AcDbEntity
  8
PDF_Layer 1
 62
     7
420
 16777215
370
   100
100
AcDbPolyline
 90
        3
 70
     0
 43
0.0
 10
5.083354166666666
 20
3.92377361111111
 10
5.083354166666666
 20
3.89239861111111
 10
5.083354166666666
 20
2.652204166666666
  0
MTEXT
  5
1BE
330
2
100
AcDbEntity
  8
PDF_Text
 62
     7
420
 16777215
100
AcDbMText
 10
7.22644722222222
 20
5.856029834722221
 30
0.0
 40
0.4081179918077257
 41
0.0
 46
0.0
 71
     7
 72
     5
  1
206
  7
PDF Arial
 73
     1
 44
1.0
  0
MTEXT
  5
1BF
330
2
100
AcDbEntity
  8
PDF_Text
 62
     7
420
 16777215
100
AcDbMText
 10
5.172072222222221
 20
5.089929834722221
 30
0.0
 40
0.4081179918077257
 41
0.0
 46
0.0
 71
     7
 72
     5
  1
Ø20
  7
PDF Arial
 73
     1
 44
1.0
  0
MTEXT
  5
1C0
330
2
100
AcDbEntity
  8
PDF_Text
 62
     7
420
 16777215
100
AcDbMText
 10
14.570625
 20
1.631338168055555
 30
0.0
 40
0.4081179918077257
 41
0.0
 46
0.0
 71
     7
 72
     5
  1
Ø50
  7
PDF Arial
 73
     1
 44
1.0
  0
MTEXT
  5
1C1
330
2
100
AcDbEntity
  8
PDF_Text
 62
     7
420
 16777215
100
AcDbMText
 10
0.8325632208333333
 20
6.490830555555555
 30
0.0
 40
0.4081179918077257
 41
0.0
 46
0.0
 71
     7
 72
     5
  1
257
  7
PDF Arial
 11
0.0000000000000001
 21
1.0
 31
0.0
 73
     1
 44
1.0
  0
MTEXT
  5
1C2
330
2
100
AcDbEntity
  8
PDF_Text
 62
     7
420
 16777215
100
AcDbMText
 10
11.67542433194444
 20
4.41324861111111
 30
0.0
 40
0.4081179918077257
 41
0.0
 46
0.0
 71
     7
 72
     5
  1
125
  7
PDF Arial
 11
0.0000000000000001
 21
1.0
 31
0.0
 73
     1
 44
1.0
  0
MTEXT
  5
1C3
330
2
100
AcDbEntity
  8
PDF_Text
 62
     7
420
 16777215
100
AcDbMText
 10
12.30618573194444
 20
7.202307133333331
 30
0.0
 40
0.4081179918077257
 41
0.0
 46
0.0
 71
     7
 72
     5
  1
10°
  7
PDF Arial
 11
0.0834496910734857
 21
-0.9965119914279705
 31
0.0
 73
     1
 44
1.0
  0
LWPOLYLINE
  5
1C4
330
2
100
AcDbEntity
  8
PDF_Layer 1
 62
     7
420
 16777215
370
   100
100
AcDbPolyline
 90
        3
 70
     0
 43
0.0
 10
14.70689444444444
 20
3.854515277777777
 42
0.6996229545960908
 10
15.11467222222222
 20
2.725293055555555
 42
0.7057264682765679
 10
15.52244999999999
 20
3.854515277777773
  0
LWPOLYLINE
  5
1C5
330
2
100
AcDbEntity
  8
PDF_Layer 1
 62
     7
420
 16777215
370
   100
100
AcDbPolyline
 90
        3
 70
     0
 43
0.0
 10
14.70689444444444
 20
3.86497361111111
 42
0.7040019729298299
 10
15.11467222222222
 20
2.717445833333333
 42
0.7060272407158941
 10
15.52245
 20
3.864973611111112
  0
LWPOLYLINE
  5
1C6
330
2
100
AcDbEntity
  8
PDF_Layer 1
 62
     7
420
 16777215
370
   100
100
AcDbPolyline
 90
        3
 70
     0
 43
0.0
 10
14.70689444444444
 20
3.95384861111111
 42
0.7346975940333814
 10
15.11467222222222
 20
2.644251388888888
 42
0.7360547582342893
 10
15.52245
 20
3.953848611111115
  0
LWPOLYLINE
  5
1C7
330
2
100
AcDbEntity
  8
PDF_Layer 1
 62
     7
420
 16777215
370
   100
100
AcDbPolyline
 90
        3
 70
     0
 43
0.0
 10
15.50414444444444
 20
7.158570833333328
 42
0.1253203322356001
 10
15.11467222222222
 20
7.223918055555555
 42
0.1671813336946672
 10
14.72518611111111
 20
7.158570833333332
  0
LWPOLYLINE
  5
1C8
330
2
100
AcDbEntity
  8
PDF_Layer 1
 62
     7
420
 16777215
370
   100
100
AcDbPolyline
 90
        3
 70
     0
 43
0.0
 10
14.70689444444444
 20
3.880654166666666
 42
0.7118826692208046
 10
15.11467222222222
 20
2.704376388888888
 42
0.7139257209717542
 10
15.52245
 20
3.880654166666671
  0
LWPOLYLINE
  5
1C9
330
2
100
AcDbEntity
  8
PDF_Layer 1
 62
     7
420
 16777215
370
   100
100
AcDbPolyline
 90
        3
 70
     0
 43
0.0
 10
14.70689444444444
 20
3.917251388888887
 42
0.7245098676163251
 10
15.11467222222221
 20
2.675612499999999
 42
0.727909838861129
 10
15.52244999999999
 20
3.917251388888889
  0
VIEWPORT
  5
4A
330
C
100
AcDbEntity
 67
     1
  8
0
100
AcDbViewport
 10
17.24759499286355
 20
11.49745669559334
 30
0.0
 40
36.33732196730226
 41
27.12504315869042
 68
     1
 69
     1
 12
17.24759499286355
 22
11.49745669559334
 13
0.0
 23
0.0
 14
0.5
 24
0.5
 15
0.5
 25
0.5
 16
0.0
 26
0.0
 36
1.0
 17
0.0
 27
0.0
 37
0.0
 42
50.0
 43
0.0
 44
0.0
 45
27.12504315869042
 50
0.0
 51
0.0
 72
  1000
 90
    32864
  1

281
     0
 71
     1
 74
     0
110
0.0
120
0.0
130
0.0
111
1.0
121
0.0
131
0.0
112
0.0
122
1.0
132
0.0
 79
     0
146
0.0
170
     0
 61
     5
348
88
292
     1
282
     1
141
0.0
142
0.0
 63
   250
421
  3355443
  0
ENDSEC
  0
SECTION
  2
OBJECTS
  0
DICTIONARY
  5
7
330
0
100
AcDbDictionary
281
     1
  3
ACAD_CIP_PREVIOUS_PRODUCT_INFO
350
CD
  3
ACAD_COLOR
350
55
  3
ACAD_DETAILVIEWSTYLE
350
C5
  3
ACAD_GROUP
350
1F
  3
ACAD_LAYOUT
350
B
  3
ACAD_MATERIAL
350
54
  3
ACAD_MLEADERSTYLE
350
C1
  3
ACAD_MLINESTYLE
350
20
  3
ACAD_PLOTSETTINGS
350
21
  3
ACAD_PLOTSTYLENAME
350
6
  3
ACAD_SCALELIST
350
AF
  3
ACAD_SECTIONVIEWSTYLE
350
C3
  3
ACAD_TABLESTYLE
350
93
  3
ACAD_VISUALSTYLE
350
82
  3
ACDB_RECOMPOSE_DATA
350
1EF
  3
AcDbVariableDictionary
350
9B
  0
DICTIONARY
  5
1CB
330
4
100
AcDbDictionary
280
     1
281
     1
  3
ADSK_XREC_LAYER_RECONCILED
360
1CC
  0
DICTIONARY
  5
1CD
330
25
100
AcDbDictionary
280
     1
281
     1
  3
ADSK_XREC_LAYER_RECONCILED
360
1CE
  0
DICTIONARY
  5
1CF
330
CE
100
AcDbDictionary
280
     1
281
     1
  3
ADSK_XREC_LAYER_RECONCILED
360
1D0
  0
DICTIONARY
  5
1D1
330
DD
100
AcDbDictionary
280
     1
281
     1
  3
ADSK_XREC_LAYER_RECONCILED
360
1D2
  0
XRECORD
  5
CD
102
{ACAD_REACTORS
330
7
102
}
330
7
100
AcDbXrecord
280
     1
300
ACD
300
2017
300
ACD_F_S
  0
DICTIONARY
  5
55
102
{ACAD_REACTORS
330
7
102
}
330
7
100
AcDbDictionary
281
     1
  0
DICTIONARY
  5
C5
102
{ACAD_REACTORS
330
7
102
}
330
7
100
AcDbDictionary
281
     1
  3
Imperial24
350
C6
  0
DICTIONARY
  5
1F
102
{ACAD_REACTORS
330
7
102
}
330
7
100
AcDbDictionary
281
     1
  0
DICTIONARY
  5
B
102
{ACAD_REACTORS
330
7
102
}
330
7
100
AcDbDictionary
281
     1
  3
Generic 24in x 36in Title Block
350
F
  3
Model
350
A
  0
DICTIONARY
  5
54
102
{ACAD_REACTORS
330
7
102
}
330
7
100
AcDbDictionary
281
     1
  3
ByBlock
350
80
  3
ByLayer
350
7F
  3
Global
350
81
  0
DICTIONARY
  5
C1
102
{ACAD_REACTORS
330
7
102
}
330
7
100
AcDbDictionary
281
     1
  3
Standard
350
C2
  0
DICTIONARY
  5
20
102
{ACAD_REACTORS
330
7
102
}
330
7
100
AcDbDictionary
281
     1
  3
Standard
350
22
  0
DICTIONARY
  5
21
102
{ACAD_REACTORS
330
7
102
}
330
7
100
AcDbDictionary
281
     1
  0
ACDBDICTIONARYWDFLT
  5
6
102
{ACAD_REACTORS
330
7
102
}
330
7
100
AcDbDictionary
281
     1
  3
Normal
350
5
100
AcDbDictionaryWithDefault
340
5
  0
DICTIONARY
  5
AF
102
{ACAD_REACTORS
330
7
102
}
330
7
100
AcDbDictionary
281
     1
  3
A0
350
B0
  3
A1
350
B1
  3
A2
350
B2
  3
A3
350
B3
  3
A4
350
B4
  3
A5
350
B5
  3
A6
350
B6
  3
A7
350
B7
  3
A8
350
B8
  3
A9
350
B9
  3
B0
350
BA
  3
B1
350
BB
  3
B2
350
BC
  3
B3
350
BD
  3
B4
350
BE
  3
B5
350
BF
  3
B6
350
C0
  0
DICTIONARY
  5
C3
102
{ACAD_REACTORS
330
7
102
}
330
7
100
AcDbDictionary
281
     1
  3
Imperial24
350
C4
  0
DICTIONARY
  5
93
102
{ACAD_REACTORS
330
7
102
}
330
7
100
AcDbDictionary
281
     1
  3
Standard
350
94
  0
DICTIONARY
  5
82
102
{ACAD_REACTORS
330
7
102
}
330
7
100
AcDbDictionary
281
     1
  3
2dWireframe
350
88
  3
3D Hidden
350
8A
  3
3dWireframe
350
89
  3
Basic
350
87
  3
Brighten
350
8E
  3
ColorChange
350
92
  3
Conceptual
350
8B
  3
Dim
350
8D
  3
EdgeColorOff
350
AE
  3
Facepattern
350
91
  3
Flat
350
83
  3
FlatWithEdges
350
84
  3
Gouraud
350
85
  3
GouraudWithEdges
350
86
  3
Hidden
350
A6
  3
JitterOff
350
AC
  3
Linepattern
350
90
  3
OverhangOff
350
AD
  3
Realistic
350
8C
  3
Shaded
350
AB
  3
Shaded with edges
350
AA
  3
Shades of Gray
350
A7
  3
Sketchy
350
A8
  3
Thicken
350
8F
  3
Wireframe
350
A5
  3
X-Ray
350
A9
  0
XRECORD
  5
1EF
102
{ACAD_REACTORS
330
7
102
}
330
7
100
AcDbXrecord
280
     1
 90
        1
330
94
330
C4
330
C6
  0
DICTIONARY
  5
9B
102
{ACAD_REACTORS
330
7
102
}
330
7
100
AcDbDictionary
281
     1
  3
CANNOSCALE
350
1E5
  3
CMLEADERSTYLE
350
1E1
  3
CTABLESTYLE
350
9C
  3
CVIEWDETAILSTYLE
350
1E2
  3
CVIEWSECTIONSTYLE
350
1E3
  3
LAYEREVAL
350
1E7
  3
LAYERNOTIFY
350
1E8
  3
LIGHTINGUNITS
350
1E6
  3
MSLTSCALE
350
1E4
  0
XRECORD
  5
1CC
102
{ACAD_REACTORS
330
1CB
102
}
330
1CB
100
AcDbXrecord
280
     1
290
     1
  0
XRECORD
  5
1CE
102
{ACAD_REACTORS
330
1CD
102
}
330
1CD
100
AcDbXrecord
280
     1
290
     1
  0
XRECORD
  5
1D0
102
{ACAD_REACTORS
330
1CF
102
}
330
1CF
100
AcDbXrecord
280
     1
290
     1
  0
XRECORD
  5
1D2
102
{ACAD_REACTORS
330
1D1
102
}
330
1D1
100
AcDbXrecord
280
     1
290
     1
  0
ACDBDETAILVIEWSTYLE
  5
C6
102
{ACAD_XDICTIONARY
360
1ED
102
}
102
{ACAD_REACTORS
330
C5
102
}
330
C5
100
AcDbModelDocViewStyle
 70
     0
  3
Imperial24
290
     0
100
AcDbDetailViewStyle
 70
     0
 71
     0
 90
        3
 71
     1
340
12
 62
   256
 40
0.24
340
0
 62
   256
 40
0.24
300

 40
0.36
280
     3
 71
     2
340
8
 90
       25
 62
   256
 71
     3
340
12
 62
   256
 40
0.24
 90
        1
 40
0.75
 90
        1
300
%<\AcVar ViewType \f "%tc1">% %<\AcVar ViewDetailId>%\PSCALE %<\AcVar ViewScale \f "%sn">%
 71
     4
340
8
 90
       25
 62
   256
340
8
 90
       25
 62
   256
280
     0
  0
LAYOUT
  5
F
102
{ACAD_REACTORS
330
B
102
}
330
B
100
AcDbPlotSettings
  1

  2
none_device
  4
ARCH_D_(24.00_x_36.00_Inches)
  6

 40
6.4
 41
19.1
 42
6.4
 43
19.1
 44
609.5999755859375
 45
914.4000244140626
 46
6.095999999999999
 47
-0.254
 48
0.0
 49
0.0
140
0.0
141
0.0
142
1.0
143
1.0
 70
   692
 72
     0
 73
     1
 74
     1
  7

 75
    16
147
1.0
 76
     0
 77
     2
 78
   300
148
0.2650993882970653
149
0.268587724897764
100
AcDbLayout
  1
Generic 24in x 36in Title Block
 70
     1
 71
     1
 10
-0.7524054877282309
 20
-0.5025428238148726
 11
35.24759547345533
 21
23.49745621500156
 12
0.0
 22
0.0
 32
0.0
 14
1.000000000000000E+20
 24
1.000000000000000E+20
 34
1.000000000000000E+20
 15
-1.000000000000000E+20
 25
-1.000000000000000E+20
 35
-1.000000000000000E+20
146
0.0
 13
0.0
 23
0.0
 33
0.0
 16
1.0
 26
0.0
 36
0.0
 17
0.0
 27
1.0
 37
0.0
 76
     0
330
C
331
4A
  0
LAYOUT
  5
A
102
{ACAD_REACTORS
330
B
102
}
330
B
100
AcDbPlotSettings
  1

  2
none_device
  4
Letter_(8.50_x_11.00_Inches)
  6

 40
6.349999904632568
 41
6.349999904632568
 42
6.350006103515625
 43
6.350006103515625
 44
215.8999938964844
 45
279.3999938964844
 46
20.37045378159827
 47
10.87052656611426
 48
0.0
 49
0.0
140
0.0
141
0.0
142
1.0
143
3.59932905303845
 70
 11956
 72
     0
 73
     1
 74
     1
  7

 75
     0
147
0.2778295580271631
 76
     0
 77
     2
 78
   300
148
5.106903281790129
149
0.2718425107115592
100
AcDbLayout
  1
Model
 70
     1
 71
     0
 10
0.0
 20
0.0
 11
12.0
 21
9.0
 12
0.0
 22
0.0
 32
0.0
 14
0.0
 24
0.0
 34
0.0
 15
0.0
 25
0.0
 35
0.0
146
0.0
 13
0.0
 23
0.0
 33
0.0
 16
1.0
 26
0.0
 36
0.0
 17
0.0
 27
1.0
 37
0.0
 76
     0
330
2
331
7D
  0
MATERIAL
  5
80
102
{ACAD_REACTORS
330
54
102
}
330
54
100
AcDbMaterial
  1
ByBlock
 73
     1
 78
     1
172
     1
176
     1
270
     1
274
     1
 94
       63
  0
MATERIAL
  5
7F
102
{ACAD_REACTORS
330
54
102
}
330
54
100
AcDbMaterial
  1
ByLayer
 73
     1
 78
     1
172
     1
176
     1
270
     1
274
     1
 94
       63
  0
MATERIAL
  5
81
102
{ACAD_REACTORS
330
54
102
}
330
54
100
AcDbMaterial
  1
Global
 73
     1
 78
     1
172
     1
176
     1
270
     1
274
     1
 94
       63
  0
MLEADERSTYLE
  5
C2
102
{ACAD_REACTORS
330
C1
102
}
330
C1
100
AcDbMLeaderStyle
179
     2
170
     2
171
     1
172
     0
 90
        2
 40
0.0
 41
0.0
173
     1
 91
-1056964608
340
15
 92
       -2
290
     1
 42
0.09
291
     1
 43
0.36
  3
Standard
 44
0.18
300

342
12
174
     1
178
     6
175
     1
176
     0
 93
-1056964608
 45
0.18
292
     0
297
     0
 46
0.18
 94
-1056964608
 47
1.0
 49
1.0
140
1.0
293
     1
141
0.0
294
     1
177
     0
142
1.0
295
     1
296
     0
143
0.125
271
     0
272
     9
273
     9
298
     1
  0
MLINESTYLE
  5
22
102
{ACAD_REACTORS
330
20
102
}
330
20
100
AcDbMlineStyle
  2
STANDARD
 70
     0
  3

 62
   256
 51
90.0
 52
90.0
 71
     2
 49
0.5
 62
   256
  6
BYLAYER
 49
-0.5
 62
   256
  6
BYLAYER
  0
ACDBPLACEHOLDER
  5
5
102
{ACAD_REACTORS
330
6
102
}
330
6
  0
SCALE
  5
B0
102
{ACAD_REACTORS
330
AF
102
}
330
AF
100
AcDbScale
 70
     0
300
1:1
140
1.0
141
1.0
290
     1
  0
SCALE
  5
B1
102
{ACAD_REACTORS
330
AF
102
}
330
AF
100
AcDbScale
 70
     0
300
1/128" = 1'-0"
140
0.0078125
141
12.0
290
     0
  0
SCALE
  5
B2
102
{ACAD_REACTORS
330
AF
102
}
330
AF
100
AcDbScale
 70
     0
300
1/64" = 1'-0"
140
0.015625
141
12.0
290
     0
  0
SCALE
  5
B3
102
{ACAD_REACTORS
330
AF
102
}
330
AF
100
AcDbScale
 70
     0
300
1/32" = 1'-0"
140
0.03125
141
12.0
290
     0
  0
SCALE
  5
B4
102
{ACAD_REACTORS
330
AF
102
}
330
AF
100
AcDbScale
 70
     0
300
1/16" = 1'-0"
140
0.0625
141
12.0
290
     0
  0
SCALE
  5
B5
102
{ACAD_REACTORS
330
AF
102
}
330
AF
100
AcDbScale
 70
     0
300
3/32" = 1'-0"
140
0.09375
141
12.0
290
     0
  0
SCALE
  5
B6
102
{ACAD_REACTORS
330
AF
102
}
330
AF
100
AcDbScale
 70
     0
300
1/8" = 1'-0"
140
0.125
141
12.0
290
     0
  0
SCALE
  5
B7
102
{ACAD_REACTORS
330
AF
102
}
330
AF
100
AcDbScale
 70
     0
300
3/16" = 1'-0"
140
0.1875
141
12.0
290
     0
  0
SCALE
  5
B8
102
{ACAD_REACTORS
330
AF
102
}
330
AF
100
AcDbScale
 70
     0
300
1/4" = 1'-0"
140
0.25
141
12.0
290
     0
  0
SCALE
  5
B9
102
{ACAD_REACTORS
330
AF
102
}
330
AF
100
AcDbScale
 70
     0
300
3/8" = 1'-0"
140
0.375
141
12.0
290
     0
  0
SCALE
  5
BA
102
{ACAD_REACTORS
330
AF
102
}
330
AF
100
AcDbScale
 70
     0
300
1/2" = 1'-0"
140
0.5
141
12.0
290
     0
  0
SCALE
  5
BB
102
{ACAD_REACTORS
330
AF
102
}
330
AF
100
AcDbScale
 70
     0
300
3/4" = 1'-0"
140
0.75
141
12.0
290
     0
  0
SCALE
  5
BC
102
{ACAD_REACTORS
330
AF
102
}
330
AF
100
AcDbScale
 70
     0
300
1" = 1'-0"
140
1.0
141
12.0
290
     0
  0
SCALE
  5
BD
102
{ACAD_REACTORS
330
AF
102
}
330
AF
100
AcDbScale
 70
     0
300
1-1/2" = 1'-0"
140
1.5
141
12.0
290
     0
  0
SCALE
  5
BE
102
{ACAD_REACTORS
330
AF
102
}
330
AF
100
AcDbScale
 70
     0
300
3" = 1'-0"
140
3.0
141
12.0
290
     0
  0
SCALE
  5
BF
102
{ACAD_REACTORS
330
AF
102
}
330
AF
100
AcDbScale
 70
     0
300
6" = 1'-0"
140
6.0
141
12.0
290
     0
  0
SCALE
  5
C0
102
{ACAD_REACTORS
330
AF
102
}
330
AF
100
AcDbScale
 70
     0
300
1'-0" = 1'-0"
140
12.0
141
12.0
290
     0
  0
ACDBSECTIONVIEWSTYLE
  5
C4
102
{ACAD_XDICTIONARY
360
1EB
102
}
102
{ACAD_REACTORS
330
C3
102
}
330
C3
100
AcDbModelDocViewStyle
 70
     0
  3
Imperial24
290
     0
100
AcDbSectionViewStyle
 70
     0
 71
     0
 90
       78
 71
     1
340
12
 62
   256
 40
0.24
340
0
340
0
 62
   256
 40
0.24
300
I, O, Q, S, X, Z
 40
0.48
 90
        3
 40
0.18
 90
        1
 71
     2
340
8
 90
       25
 62
   256
340
8
 90
       50
 62
   256
 40
0.24
 40
0.0
 40
0.24
 71
     3
340
12
 62
   256
 40
0.24
 90
        1
 40
0.75
 90
        1
300
%<\AcVar ViewType \f "%tc1">% %<\AcVar ViewSectionStartId>%-%<\AcVar ViewSectionEndId>%\PSCALE %<\AcVar ViewScale \f "%sn">%
 71
     4
 62
   256
 62
   257
300
ANSI31
 40
1.0
 90
        0
290
     0
290
     0
 90
        6
 40
0.0
 40
1.570796326794896
 40
0.2617993877991494
 40
1.308996938995747
 40
-0.2617993877991494
 40
1.832595714594046
  0
TABLESTYLE
  5
94
102
{ACAD_XDICTIONARY
360
1E9
102
}
102
{ACAD_REACTORS
330
93
102
}
330
93
100
AcDbTableStyle
280
     0
  3
Standard
 70
     0
 71
     0
 40
0.06
 41
0.06
280
     0
281
     0
  7
Standard
140
0.18
170
     2
 62
     0
 63
     7
283
     0
 90
      512
 91
        0
  1

274
    -2
284
     1
 64
     0
275
    -2
285
     1
 65
     0
276
    -2
286
     1
 66
     0
277
    -2
287
     1
 67
     0
278
    -2
288
     1
 68
     0
279
    -2
289
     1
 69
     0
  7
Standard
140
0.25
170
     5
 62
     0
 63
     7
283
     0
 90
      512
 91
        0
  1

274
    -2
284
     1
 64
     0
275
    -2
285
     1
 65
     0
276
    -2
286
     1
 66
     0
277
    -2
287
     1
 67
     0
278
    -2
288
     1
 68
     0
279
    -2
289
     1
 69
     0
  7
Standard
140
0.18
170
     5
 62
     0
 63
     7
283
     0
 90
      512
 91
        0
  1

274
    -2
284
     1
 64
     0
275
    -2
285
     1
 65
     0
276
    -2
286
     1
 66
     0
277
    -2
287
     1
 67
     0
278
    -2
288
     1
 68
     0
279
    -2
289
     1
 69
     0
  0
VISUALSTYLE
  5
88
102
{ACAD_REACTORS
330
82
102
}
330
82
100
AcDbVisualStyle
  2
2dWireframe
 70
     4
177
     3
291
     0
 70
    58
 90
        0
176
     1
 90
        2
176
     1
 90
        1
176
     1
 90
        0
176
     1
 40
0.6
176
     1
 40
30.0
176
     1
 62
     7
420
 16777215
176
     1
 90
        1
176
     1
 90
        4
176
     1
 62
     7
176
     1
 62
   257
176
     1
 90
        1
176
     1
 90
        1
176
     1
 40
1.0
176
     1
 90
        0
176
     1
 62
   257
176
     1
 40
1.0
176
     1
 90
        1
176
     1
 90
        6
176
     1
 90
        2
176
     1
 62
     7
176
     1
 90
        5
176
     1
 90
        0
176
     1
 90
        0
176
     1
290
     0
176
     1
 90
        1
176
     1
 40
0.0
176
     1
 90
        0
176
     1
290
     1
176
     1
290
     1
176
     1
290
     0
176
     1
290
     0
176
     1
290
     0
176
     1
290
     0
176
     1
290
     0
176
     1
290
     0
176
     1
290
     0
176
     1
 90
       50
176
     1
 40
0.0
176
     1
 40
1.0
176
     1
 90
        0
176
     1
 62
    18
420
        0
176
     1
 90
       50
176
     1
 90
        3
176
     1
 62
     5
420
      255
176
     1
290
     0
176
     1
 90
       50
176
     1
 90
       50
176
     1
 90
       50
176
     1
290
     0
176
     1
 90
       50
176
     1
 62
   256
176
     0
 40
1.0
176
     0
 90
        2
176
     1
  1
strokes_ogs.tif
176
     1
290
     0
176
     1
 40
1.0
176
     1
 40
1.0
176
     1
  0
VISUALSTYLE
  5
8A
102
{ACAD_REACTORS
330
82
102
}
330
82
100
AcDbVisualStyle
  2
3D Hidden
 70
     6
177
     3
291
     0
 70
    58
 90
        1
176
     1
 90
        2
176
     1
 90
        2
176
     1
 90
        0
176
     1
 40
0.6
176
     1
 40
30.0
176
     1
 62
     7
420
 16777215
176
     1
 90
        2
176
     1
 90
       10
176
     1
 62
     7
176
     1
 62
   257
176
     1
 90
        2
176
     1
 90
        2
176
     1
 40
40.0
176
     1
 90
        0
176
     1
 62
   257
176
     1
 40
1.0
176
     1
 90
        1
176
     1
 90
        6
176
     1
 90
        2
176
     1
 62
     7
176
     1
 90
        3
176
     1
 90
        0
176
     1
 90
        0
176
     1
290
     0
176
     1
 90
        1
176
     1
 40
0.0
176
     1
 90
        0
176
     1
290
     0
176
     1
290
     1
176
     1
290
     1
176
     1
290
     0
176
     1
290
     0
176
     1
290
     0
176
     1
290
     0
176
     1
290
     0
176
     1
290
     0
176
     1
 90
       50
176
     1
 40
0.0
176
     1
 40
1.0
176
     1
 90
        0
176
     1
 62
    18
420
        0
176
     1
 90
       50
176
     1
 90
        3
176
     1
 62
     5
420
      255
176
     1
290
     0
176
     1
 90
       50
176
     1
 90
       50
176
     1
 90
       50
176
     1
290
     0
176
     1
 90
       50
176
     1
 62
   256
176
     0
 40
1.0
176
     0
 90
        2
176
     1
  1
strokes_ogs.tif
176
     1
290
     0
176
     1
 40
1.0
176
     1
 40
1.0
176
     1
  0
VISUALSTYLE
  5
89
102
{ACAD_REACTORS
330
82
102
}
330
82
100
AcDbVisualStyle
  2
3dWireframe
 70
     5
177
     3
291
     0
 70
    58
 90
        0
176
     1
 90
        2
176
     1
 90
        1
176
     1
 90
        0
176
     1
 40
0.6
176
     1
 40
30.0
176
     1
 62
     7
420
 16777215
176
     1
 90
        1
176
     1
 90
        4
176
     1
 62
     7
176
     1
 62
   257
176
     1
 90
        1
176
     1
 90
        1
176
     1
 40
1.0
176
     1
 90
        0
176
     1
 62
   257
176
     1
 40
1.0
176
     1
 90
        1
176
     1
 90
        6
176
     1
 90
        2
176
     1
 62
     7
176
     1
 90
        5
176
     1
 90
        0
176
     1
 90
        0
176
     1
290
     0
176
     1
 90
        1
176
     1
 40
0.0
176
     1
 90
        0
176
     1
290
     0
176
     1
290
     1
176
     1
290
     1
176
     1
290
     0
176
     1
290
     0
176
     1
290
     0
176
     1
290
     0
176
     1
290
     0
176
     1
290
     0
176
     1
 90
       50
176
     1
 40
0.0
176
     1
 40
1.0
176
     1
 90
        0
176
     1
 62
    18
420
        0
176
     1
 90
       50
176
     1
 90
        3
176
     1
 62
     5
420
      255
176
     1
290
     0
176
     1
 90
       50
176
     1
 90
       50
176
     1
 90
       50
176
     1
290
     0
176
     1
 90
       50
176
     1
 62
   256
176
     0
 40
1.0
176
     0
 90
        2
176
     1
  1
strokes_ogs.tif
176
     1
290
     0
176
     1
 40
1.0
176
     1
 40
1.0
176
     1
  0
VISUALSTYLE
  5
87
102
{ACAD_REACTORS
330
82
102
}
330
82
100
AcDbVisualStyle
  2
Basic
 70
     7
177
     3
291
     1
 70
    58
 90
        1
176
     1
 90
        0
176
     1
 90
        1
176
     1
 90
        0
176
     1
 40
0.6
176
     1
 40
30.0
176
     1
 62
     7
420
 16777215
176
     1
 90
        0
176
     1
 90
        4
176
     1
 62
     7
176
     1
 62
   257
176
     1
 90
        1
176
     1
 90
        1
176
     1
 40
1.0
176
     1
 90
        8
176
     1
 62
     7
176
     1
 40
1.0
176
     1
 90
        1
176
     1
 90
        6
176
     1
 90
        2
176
     1
 62
     7
176
     1
 90
        5
176
     1
 90
        0
176
     1
 90
        0
176
     1
290
     0
176
     1
 90
        1
176
     1
 40
0.0
176
     1
 90
        0
176
     1
290
     0
176
     1
290
     1
176
     1
290
     1
176
     1
290
     0
176
     1
290
     0
176
     1
290
     0
176
     1
290
     0
176
     1
290
     0
176
     1
290
     0
176
     1
 90
       50
176
     1
 40
0.0
176
     1
 40
1.0
176
     1
 90
        0
176
     1
 62
    18
420
        0
176
     1
 90
       50
176
     1
 90
        3
176
     1
 62
     5
420
      255
176
     1
290
     0
176
     1
 90
       50
176
     1
 90
       50
176
     1
 90
       50
176
     1
290
     0
176
     1
 90
       50
176
     1
 62
   256
176
     0
 40
1.0
176
     0
 90
        2
176
     1
  1
strokes_ogs.tif
176
     1
290
     0
176
     1
 40
1.0
176
     1
 40
1.0
176
     1
  0
VISUALSTYLE
  5
8E
102
{ACAD_REACTORS
330
82
102
}
330
82
100
AcDbVisualStyle
  2
Brighten
 70
    12
177
     3
291
     1
 70
    58
 90
        2
176
     1
 90
        2
176
     1
 90
        1
176
     1
 90
        0
176
     1
 40
0.6
176
     1
 40
30.0
176
     1
 62
     7
420
 16777215
176
     1
 90
        1
176
     1
 90
        4
176
     1
 62
     7
176
     1
 62
   257
176
     1
 90
        1
176
     1
 90
        1
176
     1
 40
1.0
176
     1
 90
        8
176
     1
 62
     7
176
     1
 40
1.0
176
     1
 90
        1
176
     1
 90
        6
176
     1
 90
        2
176
     1
 62
     7
176
     1
 90
        5
176
     1
 90
        0
176
     1
 90
        0
176
     1
290
     0
176
     1
 90
        1
176
     1
 40
50.0
176
     1
 90
        0
176
     1
290
     0
176
     1
290
     1
176
     1
290
     1
176
     1
290
     0
176
     1
290
     0
176
     1
290
     0
176
     1
290
     0
176
     1
290
     0
176
     1
290
     0
176
     1
 90
       50
176
     1
 40
0.0
176
     1
 40
1.0
176
     1
 90
        0
176
     1
 62
    18
420
        0
176
     1
 90
       50
176
     1
 90
        3
176
     1
 62
     5
420
      255
176
     1
290
     0
176
     1
 90
       50
176
     1
 90
       50
176
     1
 90
       50
176
     1
290
     0
176
     1
 90
       50
176
     1
 62
   256
176
     0
 40
1.0
176
     0
 90
        2
176
     1
  1
strokes_ogs.tif
176
     1
290
     0
176
     1
 40
1.0
176
     1
 40
1.0
176
     1
  0
VISUALSTYLE
  5
92
102
{ACAD_REACTORS
330
82
102
}
330
82
100
AcDbVisualStyle
  2
ColorChange
 70
    16
177
     3
291
     1
 70
    58
 90
        2
176
     1
 90
        2
176
     1
 90
        3
176
     1
 90
        0
176
     1
 40
0.6
176
     1
 40
30.0
176
     1
 62
     8
420
  8421504
176
     1
 90
        1
176
     1
 90
        4
176
     1
 62
     7
176
     1
 62
   257
176
     1
 90
        1
176
     1
 90
        1
176
     1
 40
1.0
176
     1
 90
        8
176
     1
 62
     8
420
  8421504
176
     1
 40
1.0
176
     1
 90
        1
176
     1
 90
        6
176
     1
 90
        2
176
     1
 62
     7
176
     1
 90
        5
176
     1
 90
        0
176
     1
 90
        0
176
     1
290
     0
176
     1
 90
        1
176
     1
 40
0.0
176
     1
 90
        0
176
     1
290
     0
176
     1
290
     1
176
     1
290
     1
176
     1
290
     0
176
     1
290
     0
176
     1
290
     0
176
     1
290
     0
176
     1
290
     0
176
     1
290
     0
176
     1
 90
       50
176
     1
 40
0.0
176
     1
 40
1.0
176
     1
 90
        0
176
     1
 62
    18
420
        0
176
     1
 90
       50
176
     1
 90
        3
176
     1
 62
     5
420
      255
176
     1
290
     0
176
     1
 90
       50
176
     1
 90
       50
176
     1
 90
       50
176
     1
290
     0
176
     1
 90
       50
176
     1
 62
   256
176
     0
 40
1.0
176
     0
 90
        2
176
     1
  1
strokes_ogs.tif
176
     1
290
     0
176
     1
 40
1.0
176
     1
 40
1.0
176
     1
  0
VISUALSTYLE
  5
8B
102
{ACAD_REACTORS
330
82
102
}
330
82
100
AcDbVisualStyle
  2
Conceptual
 70
     9
177
     3
291
     0
 70
    58
 90
        3
176
     1
 90
        2
176
     1
 90
        1
176
     1
 90
        0
176
     1
 40
0.6
176
     1
 40
30.0
176
     1
 62
     7
420
 16777215
176
     1
 90
        2
176
     1
 90
        2
176
     1
 62
     7
176
     1
 62
   257
176
     1
 90
        1
176
     1
 90
        1
176
     1
 40
40.0
176
     1
 90
        8
176
     1
 62
     7
176
     1
 40
1.0
176
     1
 90
        1
176
     1
 90
        6
176
     1
 90
        2
176
     1
 62
     7
176
     1
 90
        5
176
     1
 90
        0
176
     1
 90
        0
176
     1
290
     0
176
     1
 90
        1
176
     1
 40
0.0
176
     1
 90
        0
176
     1
290
     0
176
     1
290
     1
176
     1
290
     1
176
     1
290
     0
176
     1
290
     0
176
     1
290
     0
176
     1
290
     0
176
     1
290
     0
176
     1
290
     0
176
     1
 90
       50
176
     1
 40
0.0
176
     1
 40
1.0
176
     1
 90
        0
176
     1
 62
    18
420
        0
176
     1
 90
       50
176
     1
 90
        3
176
     1
 62
     5
420
      255
176
     1
290
     0
176
     1
 90
       50
176
     1
 90
       50
176
     1
 90
       50
176
     1
290
     0
176
     1
 90
       50
176
     1
 62
   256
176
     0
 40
1.0
176
     0
 90
        2
176
     1
  1
strokes_ogs.tif
176
     1
290
     0
176
     1
 40
1.0
176
     1
 40
1.0
176
     1
  0
VISUALSTYLE
  5
8D
102
{ACAD_REACTORS
330
82
102
}
330
82
100
AcDbVisualStyle
  2
Dim
 70
    11
177
     3
291
     1
 70
    58
 90
        2
176
     1
 90
        2
176
     1
 90
        1
176
     1
 90
        0
176
     1
 40
0.6
176
     1
 40
30.0
176
     1
 62
     7
420
 16777215
176
     1
 90
        1
176
     1
 90
        4
176
     1
 62
     7
176
     1
 62
   257
176
     1
 90
        1
176
     1
 90
        1
176
     1
 40
1.0
176
     1
 90
        8
176
     1
 62
     7
176
     1
 40
1.0
176
     1
 90
        1
176
     1
 90
        6
176
     1
 90
        2
176
     1
 62
     7
176
     1
 90
        5
176
     1
 90
        0
176
     1
 90
        0
176
     1
290
     0
176
     1
 90
        1
176
     1
 40
-50.0
176
     1
 90
        0
176
     1
290
     0
176
     1
290
     1
176
     1
290
     1
176
     1
290
     0
176
     1
290
     0
176
     1
290
     0
176
     1
290
     0
176
     1
290
     0
176
     1
290
     0
176
     1
 90
       50
176
     1
 40
0.0
176
     1
 40
1.0
176
     1
 90
        0
176
     1
 62
    18
420
        0
176
     1
 90
       50
176
     1
 90
        3
176
     1
 62
     5
420
      255
176
     1
290
     0
176
     1
 90
       50
176
     1
 90
       50
176
     1
 90
       50
176
     1
290
     0
176
     1
 90
       50
176
     1
 62
   256
176
     0
 40
1.0
176
     0
 90
        2
176
     1
  1
strokes_ogs.tif
176
     1
290
     0
176
     1
 40
1.0
176
     1
 40
1.0
176
     1
  0
VISUALSTYLE
  5
AE
102
{ACAD_REACTORS
330
82
102
}
330
82
100
AcDbVisualStyle
  2
EdgeColorOff
 70
    22
177
     3
291
     1
 70
    58
 90
        2
176
     0
 90
        2
176
     0
 90
        0
176
     0
 90
        0
176
     0
 40
0.6
176
     0
 40
30.0
176
     0
 62
     7
420
 16777215
176
     0
 90
        1
176
     0
 90
        4
176
     0
 62
     7
176
     0
 62
   257
176
     0
 90
        1
176
     0
 90
        1
176
     0
 40
1.0
176
     0
 90
        8
176
     2
 62
     7
176
     0
 40
1.0
176
     0
 90
        1
176
     0
 90
        6
176
     0
 90
        2
176
     0
 62
     7
176
     0
 90
        5
176
     0
 90
        0
176
     0
 90
        0
176
     0
290
     0
176
     0
 90
        1
176
     0
 40
0.0
176
     0
 90
        0
176
     0
290
     0
176
     0
290
     1
176
     0
290
     1
176
     0
290
     0
176
     0
290
     0
176
     0
290
     0
176
     0
290
     0
176
     0
290
     0
176
     0
290
     0
176
     0
 90
       50
176
     0
 40
0.0
176
     0
 40
1.0
176
     0
 90
        0
176
     0
 62
    18
420
        0
176
     0
 90
       50
176
     0
 90
        3
176
     0
 62
     5
420
      255
176
     0
290
     0
176
     0
 90
       50
176
     0
 90
       50
176
     0
 90
       50
176
     0
290
     0
176
     0
 90
       50
176
     0
 62
   256
176
     0
 40
1.0
176
     0
 90
        2
176
     0
  1
strokes_ogs.tif
176
     0
290
     0
176
     0
 40
1.0
176
     0
 40
1.0
176
     0
  0
VISUALSTYLE
  5
91
102
{ACAD_REACTORS
330
82
102
}
330
82
100
AcDbVisualStyle
  2
Facepattern
 70
    15
177
     3
291
     1
 70
    58
 90
        2
176
     1
 90
        2
176
     1
 90
        1
176
     1
 90
        0
176
     1
 40
0.6
176
     1
 40
30.0
176
     1
 62
     7
420
 16777215
176
     1
 90
        1
176
     1
 90
        4
176
     1
 62
     7
176
     1
 62
   257
176
     1
 90
        1
176
     1
 90
        1
176
     1
 40
1.0
176
     1
 90
        8
176
     1
 62
     7
176
     1
 40
1.0
176
     1
 90
        1
176
     1
 90
        6
176
     1
 90
        2
176
     1
 62
     7
176
     1
 90
        5
176
     1
 90
        0
176
     1
 90
        0
176
     1
290
     0
176
     1
 90
        1
176
     1
 40
0.0
176
     1
 90
        0
176
     1
290
     0
176
     1
290
     1
176
     1
290
     1
176
     1
290
     0
176
     1
290
     0
176
     1
290
     0
176
     1
290
     0
176
     1
290
     0
176
     1
290
     0
176
     1
 90
       50
176
     1
 40
0.0
176
     1
 40
1.0
176
     1
 90
        0
176
     1
 62
    18
420
        0
176
     1
 90
       50
176
     1
 90
        3
176
     1
 62
     5
420
      255
176
     1
290
     0
176
     1
 90
       50
176
     1
 90
       50
176
     1
 90
       50
176
     1
290
     0
176
     1
 90
       50
176
     1
 62
   256
176
     0
 40
1.0
176
     0
 90
        2
176
     1
  1
strokes_ogs.tif
176
     1
290
     0
176
     1
 40
1.0
176
     1
 40
1.0
176
     1
  0
VISUALSTYLE
  5
83
102
{ACAD_REACTORS
330
82
102
}
330
82
100
AcDbVisualStyle
  2
Flat
 70
     0
177
     3
291
     1
 70
    58
 90
        2
176
     1
 90
        1
176
     1
 90
        1
176
     1
 90
        2
176
     1
 40
0.6
176
     1
 40
30.0
176
     1
 62
     7
420
 16777215
176
     1
 90
        0
176
     1
 90
        4
176
     1
 62
     7
176
     1
 62
   257
176
     1
 90
        1
176
     1
 90
        1
176
     1
 40
1.0
176
     1
 90
        8
176
     1
 62
     7
176
     1
 40
1.0
176
     1
 90
        1
176
     1
 90
        6
176
     1
 90
        2
176
     1
 62
     7
176
     1
 90
        5
176
     1
 90
        0
176
     1
 90
        0
176
     1
290
     0
176
     1
 90
        1
176
     1
 40
0.0
176
     1
 90
        0
176
     1
290
     0
176
     1
290
     1
176
     1
290
     1
176
     1
290
     0
176
     1
290
     0
176
     1
290
     0
176
     1
290
     0
176
     1
290
     0
176
     1
290
     0
176
     1
 90
       50
176
     1
 40
0.0
176
     1
 40
1.0
176
     1
 90
        0
176
     1
 62
    18
420
        0
176
     1
 90
       50
176
     1
 90
        3
176
     1
 62
     5
420
      255
176
     1
290
     0
176
     1
 90
       50
176
     1
 90
       50
176
     1
 90
       50
176
     1
290
     0
176
     1
 90
       50
176
     1
 62
   256
176
     0
 40
1.0
176
     0
 90
        2
176
     1
  1
strokes_ogs.tif
176
     1
290
     0
176
     1
 40
1.0
176
     1
 40
1.0
176
     1
  0
VISUALSTYLE
  5
84
102
{ACAD_REACTORS
330
82
102
}
330
82
100
AcDbVisualStyle
  2
FlatWithEdges
 70
     1
177
     3
291
     1
 70
    58
 90
        2
176
     1
 90
        1
176
     1
 90
        1
176
     1
 90
        2
176
     1
 40
0.6
176
     1
 40
30.0
176
     1
 62
     7
420
 16777215
176
     1
 90
        1
176
     1
 90
        4
176
     1
 62
     7
176
     1
 62
   257
176
     1
 90
        1
176
     1
 90
        1
176
     1
 40
1.0
176
     1
 90
        0
176
     1
 62
   257
176
     1
 40
1.0
176
     1
 90
        1
176
     1
 90
        6
176
     1
 90
        2
176
     1
 62
     7
176
     1
 90
        5
176
     1
 90
        0
176
     1
 90
        0
176
     1
290
     0
176
     1
 90
        1
176
     1
 40
0.0
176
     1
 90
        0
176
     1
290
     0
176
     1
290
     1
176
     1
290
     1
176
     1
290
     0
176
     1
290
     0
176
     1
290
     0
176
     1
290
     0
176
     1
290
     0
176
     1
290
     0
176
     1
 90
       50
176
     1
 40
0.0
176
     1
 40
1.0
176
     1
 90
        0
176
     1
 62
    18
420
        0
176
     1
 90
       50
176
     1
 90
        3
176
     1
 62
     5
420
      255
176
     1
290
     0
176
     1
 90
       50
176
     1
 90
       50
176
     1
 90
       50
176
     1
290
     0
176
     1
 90
       50
176
     1
 62
   256
176
     0
 40
1.0
176
     0
 90
        2
176
     1
  1
strokes_ogs.tif
176
     1
290
     0
176
     1
 40
1.0
176
     1
 40
1.0
176
     1
  0
VISUALSTYLE
  5
85
102
{ACAD_REACTORS
330
82
102
}
330
82
100
AcDbVisualStyle
  2
Gouraud
 70
     2
177
     3
291
     1
 70
    58
 90
        2
176
     1
 90
        2
176
     1
 90
        1
176
     1
 90
        2
176
     1
 40
0.6
176
     1
 40
30.0
176
     1
 62
     7
420
 16777215
176
     1
 90
        0
176
     1
 90
        4
176
     1
 62
     7
176
     1
 62
   257
176
     1
 90
        1
176
     1
 90
        1
176
     1
 40
1.0
176
     1
 90
        0
176
     1
 62
     7
176
     1
 40
1.0
176
     1
 90
        1
176
     1
 90
        6
176
     1
 90
        2
176
     1
 62
     7
176
     1
 90
        5
176
     1
 90
        0
176
     1
 90
        0
176
     1
290
     0
176
     1
 90
        1
176
     1
 40
0.0
176
     1
 90
        0
176
     1
290
     0
176
     1
290
     1
176
     1
290
     1
176
     1
290
     0
176
     1
290
     0
176
     1
290
     0
176
     1
290
     0
176
     1
290
     0
176
     1
290
     0
176
     1
 90
       50
176
     1
 40
0.0
176
     1
 40
1.0
176
     1
 90
        0
176
     1
 62
    18
420
        0
176
     1
 90
       50
176
     1
 90
        3
176
     1
 62
     5
420
      255
176
     1
290
     0
176
     1
 90
       50
176
     1
 90
       50
176
     1
 90
       50
176
     1
290
     0
176
     1
 90
       50
176
     1
 62
   256
176
     0
 40
1.0
176
     0
 90
        2
176
     1
  1
strokes_ogs.tif
176
     1
290
     0
176
     1
 40
1.0
176
     1
 40
1.0
176
     1
  0
VISUALSTYLE
  5
86
102
{ACAD_REACTORS
330
82
102
}
330
82
100
AcDbVisualStyle
  2
GouraudWithEdges
 70
     3
177
     3
291
     1
 70
    58
 90
        2
176
     1
 90
        2
176
     1
 90
        1
176
     1
 90
        2
176
     1
 40
0.6
176
     1
 40
30.0
176
     1
 62
     7
420
 16777215
176
     1
 90
        1
176
     1
 90
        4
176
     1
 62
     7
176
     1
 62
   257
176
     1
 90
        1
176
     1
 90
        1
176
     1
 40
1.0
176
     1
 90
        0
176
     1
 62
   257
176
     1
 40
1.0
176
     1
 90
        1
176
     1
 90
        6
176
     1
 90
        2
176
     1
 62
     7
176
     1
 90
        5
176
     1
 90
        0
176
     1
 90
        0
176
     1
290
     0
176
     1
 90
        1
176
     1
 40
0.0
176
     1
 90
        0
176
     1
290
     0
176
     1
290
     1
176
     1
290
     1
176
     1
290
     0
176
     1
290
     0
176
     1
290
     0
176
     1
290
     0
176
     1
290
     0
176
     1
290
     0
176
     1
 90
       50
176
     1
 40
0.0
176
     1
 40
1.0
176
     1
 90
        0
176
     1
 62
    18
420
        0
176
     1
 90
       50
176
     1
 90
        3
176
     1
 62
     5
420
      255
176
     1
290
     0
176
     1
 90
       50
176
     1
 90
       50
176
     1
 90
       50
176
     1
290
     0
176
     1
 90
       50
176
     1
 62
   256
176
     0
 40
1.0
176
     0
 90
        2
176
     1
  1
strokes_ogs.tif
176
     1
290
     0
176
     1
 40
1.0
176
     1
 40
1.0
176
     1
  0
VISUALSTYLE
  5
A6
102
{ACAD_REACTORS
330
82
102
}
330
82
100
AcDbVisualStyle
  2
Hidden
 70
     6
177
     3
291
     0
 70
    58
 90
        1
176
     1
 90
        2
176
     1
 90
        2
176
     1
 90
        0
176
     1
 40
0.6
176
     1
 40
30.0
176
     1
 62
     7
420
 16777215
176
     1
 90
        2
176
     1
 90
        2
176
     1
 62
     7
176
     1
 62
   257
176
     1
 90
        2
176
     1
 90
        1
176
     1
 40
40.0
176
     1
 90
        0
176
     1
 62
   257
176
     1
 40
1.0
176
     1
 90
        1
176
     1
 90
        6
176
     1
 90
        2
176
     1
 62
     7
176
     1
 90
        3
176
     1
 90
        0
176
     1
 90
        0
176
     1
290
     0
176
     1
 90
        1
176
     1
 40
0.0
176
     1
 90
        0
176
     1
290
     0
176
     1
290
     1
176
     1
290
     1
176
     1
290
     0
176
     1
290
     0
176
     1
290
     0
176
     1
290
     0
176
     1
290
     0
176
     1
290
     0
176
     1
 90
       50
176
     1
 40
0.0
176
     1
 40
1.0
176
     1
 90
        0
176
     1
 62
    18
420
        0
176
     1
 90
       50
176
     1
 90
        3
176
     1
 62
     5
420
      255
176
     1
290
     0
176
     1
 90
       50
176
     1
 90
       50
176
     1
 90
       50
176
     1
290
     0
176
     1
 90
       50
176
     1
 62
   256
176
     0
 40
1.0
176
     0
 90
        2
176
     1
  1
strokes_ogs.tif
176
     1
290
     0
176
     1
 40
1.0
176
     1
 40
1.0
176
     1
  0
VISUALSTYLE
  5
AC
102
{ACAD_REACTORS
330
82
102
}
330
82
100
AcDbVisualStyle
  2
JitterOff
 70
    20
177
     3
291
     1
 70
    58
 90
        2
176
     0
 90
        2
176
     0
 90
        0
176
     0
 90
        0
176
     0
 40
0.6
176
     0
 40
30.0
176
     0
 62
     7
420
 16777215
176
     0
 90
        1
176
     0
 90
        4
176
     0
 62
     7
176
     0
 62
   257
176
     0
 90
        1
176
     0
 90
        1
176
     0
 40
1.0
176
     0
 90
       10
176
     2
 62
     7
176
     0
 40
1.0
176
     0
 90
        1
176
     0
 90
        6
176
     0
 90
        2
176
     0
 62
     7
176
     0
 90
        5
176
     0
 90
        0
176
     0
 90
        0
176
     0
290
     0
176
     0
 90
        1
176
     0
 40
0.0
176
     0
 90
        0
176
     0
290
     0
176
     0
290
     1
176
     0
290
     1
176
     0
290
     0
176
     0
290
     0
176
     0
290
     0
176
     0
290
     0
176
     0
290
     0
176
     0
290
     0
176
     0
 90
       50
176
     0
 40
0.0
176
     0
 40
1.0
176
     0
 90
        0
176
     0
 62
    18
420
        0
176
     0
 90
       50
176
     0
 90
        3
176
     0
 62
     5
420
      255
176
     0
290
     0
176
     0
 90
       50
176
     0
 90
       50
176
     0
 90
       50
176
     0
290
     0
176
     0
 90
       50
176
     0
 62
   256
176
     0
 40
1.0
176
     0
 90
        2
176
     0
  1
strokes_ogs.tif
176
     0
290
     0
176
     0
 40
1.0
176
     0
 40
1.0
176
     0
  0
VISUALSTYLE
  5
90
102
{ACAD_REACTORS
330
82
102
}
330
82
100
AcDbVisualStyle
  2
Linepattern
 70
    14
177
     3
291
     1
 70
    58
 90
        2
176
     1
 90
        2
176
     1
 90
        1
176
     1
 90
        0
176
     1
 40
0.6
176
     1
 40
30.0
176
     1
 62
     7
420
 16777215
176
     1
 90
        1
176
     1
 90
        4
176
     1
 62
     7
176
     1
 62
   257
176
     1
 90
        7
176
     1
 90
        7
176
     1
 40
1.0
176
     1
 90
        8
176
     1
 62
     7
176
     1
 40
1.0
176
     1
 90
        1
176
     1
 90
        6
176
     1
 90
        2
176
     1
 62
     7
176
     1
 90
        5
176
     1
 90
        0
176
     1
 90
        0
176
     1
290
     0
176
     1
 90
        1
176
     1
 40
0.0
176
     1
 90
        0
176
     1
290
     0
176
     1
290
     1
176
     1
290
     1
176
     1
290
     0
176
     1
290
     0
176
     1
290
     0
176
     1
290
     0
176
     1
290
     0
176
     1
290
     0
176
     1
 90
       50
176
     1
 40
0.0
176
     1
 40
1.0
176
     1
 90
        0
176
     1
 62
    18
420
        0
176
     1
 90
       50
176
     1
 90
        3
176
     1
 62
     5
420
      255
176
     1
290
     0
176
     1
 90
       50
176
     1
 90
       50
176
     1
 90
       50
176
     1
290
     0
176
     1
 90
       50
176
     1
 62
   256
176
     0
 40
1.0
176
     0
 90
        2
176
     1
  1
strokes_ogs.tif
176
     1
290
     0
176
     1
 40
1.0
176
     1
 40
1.0
176
     1
  0
VISUALSTYLE
  5
AD
102
{ACAD_REACTORS
330
82
102
}
330
82
100
AcDbVisualStyle
  2
OverhangOff
 70
    21
177
     3
291
     1
 70
    58
 90
        2
176
     0
 90
        2
176
     0
 90
        0
176
     0
 90
        0
176
     0
 40
0.6
176
     0
 40
30.0
176
     0
 62
     7
420
 16777215
176
     0
 90
        1
176
     0
 90
        4
176
     0
 62
     7
176
     0
 62
   257
176
     0
 90
        1
176
     0
 90
        1
176
     0
 40
1.0
176
     0
 90
        9
176
     2
 62
     7
176
     0
 40
1.0
176
     0
 90
        1
176
     0
 90
        6
176
     0
 90
        2
176
     0
 62
     7
176
     0
 90
        5
176
     0
 90
        0
176
     0
 90
        0
176
     0
290
     0
176
     0
 90
        1
176
     0
 40
0.0
176
     0
 90
        0
176
     0
290
     0
176
     0
290
     1
176
     0
290
     1
176
     0
290
     0
176
     0
290
     0
176
     0
290
     0
176
     0
290
     0
176
     0
290
     0
176
     0
290
     0
176
     0
 90
       50
176
     0
 40
0.0
176
     0
 40
1.0
176
     0
 90
        0
176
     0
 62
    18
420
        0
176
     0
 90
       50
176
     0
 90
        3
176
     0
 62
     5
420
      255
176
     0
290
     0
176
     0
 90
       50
176
     0
 90
       50
176
     0
 90
       50
176
     0
290
     0
176
     0
 90
       50
176
     0
 62
   256
176
     0
 40
1.0
176
     0
 90
        2
176
     0
  1
strokes_ogs.tif
176
     0
290
     0
176
     0
 40
1.0
176
     0
 40
1.0
176
     0
  0
VISUALSTYLE
  5
8C
102
{ACAD_REACTORS
330
82
102
}
330
82
100
AcDbVisualStyle
  2
Realistic
 70
     8
177
     3
291
     0
 70
    58
 90
        2
176
     1
 90
        2
176
     1
 90
        1
176
     1
 90
        0
176
     1
 40
0.6
176
     1
 40
30.0
176
     1
 62
     7
420
 16777215
176
     1
 90
        1
176
     1
 90
        0
176
     1
 62
     7
176
     1
 62
   257
176
     1
 90
        1
176
     1
 90
        1
176
     1
 40
1.0
176
     1
 90
        8
176
     1
 62
     7
176
     1
 40
1.0
176
     1
 90
        1
176
     1
 90
        6
176
     1
 90
        2
176
     1
 62
     7
176
     1
 90
        5
176
     1
 90
        0
176
     1
 90
        0
176
     1
290
     0
176
     1
 90
       13
176
     1
 40
0.0
176
     1
 90
        0
176
     1
290
     0
176
     1
290
     1
176
     1
290
     1
176
     1
290
     0
176
     1
290
     0
176
     1
290
     0
176
     1
290
     0
176
     1
290
     0
176
     1
290
     0
176
     1
 90
       50
176
     1
 40
0.0
176
     1
 40
1.0
176
     1
 90
        0
176
     1
 62
    18
420
        0
176
     1
 90
       50
176
     1
 90
        3
176
     1
 62
     5
420
      255
176
     1
290
     0
176
     1
 90
       50
176
     1
 90
       50
176
     1
 90
       50
176
     1
290
     0
176
     1
 90
       50
176
     1
 62
   256
176
     0
 40
1.0
176
     0
 90
        2
176
     1
  1
strokes_ogs.tif
176
     1
290
     0
176
     1
 40
1.0
176
     1
 40
1.0
176
     1
  0
VISUALSTYLE
  5
AB
102
{ACAD_REACTORS
330
82
102
}
330
82
100
AcDbVisualStyle
  2
Shaded
 70
    27
177
     3
291
     0
 70
    58
 90
        2
176
     1
 90
        2
176
     1
 90
        1
176
     1
 90
        2
176
     1
 40
0.6
176
     1
 40
30.0
176
     1
 62
     7
420
 16777215
176
     1
 90
        0
176
     1
 90
        4
176
     1
 62
     7
176
     1
 62
   257
176
     1
 90
        1
176
     1
 90
        1
176
     1
 40
1.0
176
     1
 90
        8
176
     1
 62
   257
176
     1
 40
1.0
176
     1
 90
        1
176
     1
 90
        6
176
     1
 90
        2
176
     1
 62
     8
420
  7895160
176
     1
 90
        3
176
     1
 90
        0
176
     1
 90
        0
176
     1
290
     0
176
     1
 90
        5
176
     1
 40
0.0
176
     1
 90
        0
176
     1
290
     0
176
     1
290
     1
176
     1
290
     1
176
     1
290
     0
176
     1
290
     0
176
     1
290
     0
176
     1
290
     0
176
     1
290
     0
176
     1
290
     0
176
     1
 90
       50
176
     1
 40
0.0
176
     1
 40
1.0
176
     1
 90
        0
176
     1
 62
    18
420
        0
176
     1
 90
       50
176
     1
 90
        3
176
     1
 62
     5
420
      255
176
     1
290
     0
176
     1
 90
       50
176
     1
 90
       50
176
     1
 90
       50
176
     1
290
     0
176
     1
 90
       50
176
     1
 62
   256
176
     0
 40
1.0
176
     0
 90
        2
176
     1
  1
strokes_ogs.tif
176
     1
290
     0
176
     1
 40
1.0
176
     1
 40
1.0
176
     1
  0
VISUALSTYLE
  5
AA
102
{ACAD_REACTORS
330
82
102
}
330
82
100
AcDbVisualStyle
  2
Shaded with edges
 70
    26
177
     3
291
     0
 70
    58
 90
        2
176
     1
 90
        2
176
     1
 90
        1
176
     1
 90
        2
176
     1
 40
0.6
176
     1
 40
30.0
176
     1
 62
     7
420
 16777215
176
     1
 90
        1
176
     1
 90
        2
176
     1
 62
     7
176
     1
 62
   257
176
     1
 90
        2
176
     1
 90
        1
176
     1
 40
1.0
176
     1
 90
        8
176
     1
 62
   257
176
     1
 40
1.0
176
     1
 90
        1
176
     1
 90
        6
176
     1
 90
        2
176
     1
 62
     7
176
     1
 90
        3
176
     1
 90
        0
176
     1
 90
        0
176
     1
290
     0
176
     1
 90
        5
176
     1
 40
0.0
176
     1
 90
        0
176
     1
290
     0
176
     1
290
     1
176
     1
290
     1
176
     1
290
     0
176
     1
290
     0
176
     1
290
     0
176
     1
290
     0
176
     1
290
     0
176
     1
290
     0
176
     1
 90
       50
176
     1
 40
0.0
176
     1
 40
1.0
176
     1
 90
        0
176
     1
 62
    18
420
        0
176
     1
 90
       50
176
     1
 90
        3
176
     1
 62
     5
420
      255
176
     1
290
     0
176
     1
 90
       50
176
     1
 90
       50
176
     1
 90
       50
176
     1
290
     0
176
     1
 90
       50
176
     1
 62
   256
176
     0
 40
1.0
176
     0
 90
        2
176
     1
  1
strokes_ogs.tif
176
     1
290
     0
176
     1
 40
1.0
176
     1
 40
1.0
176
     1
  0
VISUALSTYLE
  5
A7
102
{ACAD_REACTORS
330
82
102
}
330
82
100
AcDbVisualStyle
  2
Shades of Gray
 70
    23
177
     3
291
     0
 70
    58
 90
        2
176
     1
 90
        2
176
     1
 90
        3
176
     1
 90
        0
176
     1
 40
0.6
176
     1
 40
30.0
176
     1
 62
     7
420
 16777215
176
     1
 90
        2
176
     1
 90
        2
176
     1
 62
     7
176
     1
 62
     7
176
     1
 90
        1
176
     1
 90
        1
176
     1
 40
40.0
176
     1
 90
        8
176
     1
 62
     7
176
     1
 40
1.0
176
     1
 90
        1
176
     1
 90
        6
176
     1
 90
        2
176
     1
 62
     7
176
     1
 90
        3
176
     1
 90
        0
176
     1
 90
        0
176
     1
290
     0
176
     1
 90
        1
176
     1
 40
0.0
176
     1
 90
        0
176
     1
290
     0
176
     1
290
     1
176
     1
290
     1
176
     1
290
     0
176
     1
290
     0
176
     1
290
     0
176
     1
290
     0
176
     1
290
     0
176
     1
290
     0
176
     1
 90
       50
176
     1
 40
0.0
176
     1
 40
1.0
176
     1
 90
        0
176
     1
 62
    18
420
        0
176
     1
 90
       50
176
     1
 90
        3
176
     1
 62
     5
420
      255
176
     1
290
     0
176
     1
 90
       50
176
     1
 90
       50
176
     1
 90
       50
176
     1
290
     0
176
     1
 90
       50
176
     1
 62
   256
176
     0
 40
1.0
176
     0
 90
        2
176
     1
  1
strokes_ogs.tif
176
     1
290
     0
176
     1
 40
1.0
176
     1
 40
1.0
176
     1
  0
VISUALSTYLE
  5
A8
102
{ACAD_REACTORS
330
82
102
}
330
82
100
AcDbVisualStyle
  2
Sketchy
 70
    24
177
     3
291
     0
 70
    58
 90
        1
176
     1
 90
        2
176
     1
 90
        2
176
     1
 90
        0
176
     1
 40
0.6
176
     1
 40
30.0
176
     1
 62
     7
420
 16777215
176
     1
 90
        2
176
     1
 90
        2
176
     1
 62
     7
176
     1
 62
     7
176
     1
 90
        1
176
     1
 90
        1
176
     1
 40
40.0
176
     1
 90
       11
176
     1
 62
     7
176
     1
 40
1.0
176
     1
 90
        1
176
     1
 90
        6
176
     1
 90
        2
176
     1
 62
     7
176
     1
 90
        6
176
     1
 90
        0
176
     1
 90
        0
176
     1
290
     0
176
     1
 90
        1
176
     1
 40
0.0
176
     1
 90
        0
176
     1
290
     0
176
     1
290
     1
176
     1
290
     1
176
     1
290
     0
176
     1
290
     0
176
     1
290
     0
176
     1
290
     0
176
     1
290
     0
176
     1
290
     0
176
     1
 90
       50
176
     1
 40
0.0
176
     1
 40
1.0
176
     1
 90
        0
176
     1
 62
    18
420
        0
176
     1
 90
       50
176
     1
 90
        3
176
     1
 62
     5
420
      255
176
     1
290
     0
176
     1
 90
       50
176
     1
 90
       50
176
     1
 90
       50
176
     1
290
     0
176
     1
 90
       50
176
     1
 62
   256
176
     0
 40
1.0
176
     0
 90
        2
176
     1
  1
strokes_ogs.tif
176
     1
290
     0
176
     1
 40
1.0
176
     1
 40
1.0
176
     1
  0
VISUALSTYLE
  5
8F
102
{ACAD_REACTORS
330
82
102
}
330
82
100
AcDbVisualStyle
  2
Thicken
 70
    13
177
     3
291
     1
 70
    58
 90
        2
176
     1
 90
        2
176
     1
 90
        1
176
     1
 90
        0
176
     1
 40
0.6
176
     1
 40
30.0
176
     1
 62
     7
420
 16777215
176
     1
 90
        1
176
     1
 90
        4
176
     1
 62
     7
176
     1
 62
   257
176
     1
 90
        1
176
     1
 90
        1
176
     1
 40
1.0
176
     1
 90
       12
176
     1
 62
     7
176
     1
 40
1.0
176
     1
 90
        1
176
     1
 90
        6
176
     1
 90
        2
176
     1
 62
     7
176
     1
 90
        5
176
     1
 90
        0
176
     1
 90
        0
176
     1
290
     0
176
     1
 90
        1
176
     1
 40
0.0
176
     1
 90
        0
176
     1
290
     0
176
     1
290
     1
176
     1
290
     1
176
     1
290
     0
176
     1
290
     0
176
     1
290
     0
176
     1
290
     0
176
     1
290
     0
176
     1
290
     0
176
     1
 90
       50
176
     1
 40
0.0
176
     1
 40
1.0
176
     1
 90
        0
176
     1
 62
    18
420
        0
176
     1
 90
       50
176
     1
 90
        3
176
     1
 62
     5
420
      255
176
     1
290
     0
176
     1
 90
       50
176
     1
 90
       50
176
     1
 90
       50
176
     1
290
     0
176
     1
 90
       50
176
     1
 62
   256
176
     0
 40
1.0
176
     0
 90
        2
176
     1
  1
strokes_ogs.tif
176
     1
290
     0
176
     1
 40
1.0
176
     1
 40
1.0
176
     1
  0
VISUALSTYLE
  5
A5
102
{ACAD_REACTORS
330
82
102
}
330
82
100
AcDbVisualStyle
  2
Wireframe
 70
     5
177
     3
291
     0
 70
    58
 90
        0
176
     1
 90
        2
176
     1
 90
        0
176
     1
 90
        0
176
     1
 40
0.6
176
     1
 40
30.0
176
     1
 62
     7
420
 16777215
176
     1
 90
        1
176
     1
 90
        4
176
     1
 62
     7
176
     1
 62
   257
176
     1
 90
        1
176
     1
 90
        1
176
     1
 40
1.0
176
     1
 90
        0
176
     1
 62
   257
176
     1
 40
1.0
176
     1
 90
        1
176
     1
 90
        6
176
     1
 90
        2
176
     1
 62
     7
176
     1
 90
        3
176
     1
 90
        0
176
     1
 90
        0
176
     1
290
     0
176
     1
 90
        1
176
     1
 40
0.0
176
     1
 90
        0
176
     1
290
     0
176
     1
290
     1
176
     1
290
     1
176
     1
290
     0
176
     1
290
     0
176
     1
290
     0
176
     1
290
     0
176
     1
290
     0
176
     1
290
     0
176
     1
 90
       50
176
     1
 40
0.0
176
     1
 40
1.0
176
     1
 90
        0
176
     1
 62
    18
420
        0
176
     1
 90
       50
176
     1
 90
        3
176
     1
 62
     5
420
      255
176
     1
290
     0
176
     1
 90
       50
176
     1
 90
       50
176
     1
 90
       50
176
     1
290
     0
176
     1
 90
       50
176
     1
 62
   256
176
     0
 40
1.0
176
     0
 90
        2
176
     1
  1
strokes_ogs.tif
176
     1
290
     0
176
     1
 40
1.0
176
     1
 40
1.0
176
     1
  0
VISUALSTYLE
  5
A9
102
{ACAD_REACTORS
330
82
102
}
330
82
100
AcDbVisualStyle
  2
X-Ray
 70
    25
177
     3
291
     0
 70
    58
 90
        2
176
     1
 90
        2
176
     1
 90
        1
176
     1
 90
        1
176
     1
 40
0.5
176
     1
 40
30.0
176
     1
 62
     7
420
 16777215
176
     1
 90
        1
176
     1
 90
        0
176
     1
 62
     7
176
     1
 62
   257
176
     1
 90
        1
176
     1
 90
        1
176
     1
 40
1.0
176
     1
 90
        8
176
     1
 62
     7
176
     1
 40
1.0
176
     1
 90
        1
176
     1
 90
        6
176
     1
 90
        2
176
     1
 62
     7
176
     1
 90
        3
176
     1
 90
        0
176
     1
 90
        0
176
     1
290
     0
176
     1
 90
       13
176
     1
 40
0.0
176
     1
 90
        0
176
     1
290
     0
176
     1
290
     1
176
     1
290
     1
176
     1
290
     0
176
     1
290
     0
176
     1
290
     0
176
     1
290
     0
176
     1
290
     0
176
     1
290
     0
176
     1
 90
       50
176
     1
 40
0.0
176
     1
 40
1.0
176
     1
 90
        0
176
     1
 62
    18
420
        0
176
     1
 90
       50
176
     1
 90
        3
176
     1
 62
     5
420
      255
176
     1
290
     0
176
     1
 90
       50
176
     1
 90
       50
176
     1
 90
       50
176
     1
290
     0
176
     1
 90
       50
176
     1
 62
   256
176
     0
 40
1.0
176
     0
 90
        2
176
     1
  1
strokes_ogs.tif
176
     1
290
     0
176
     1
 40
1.0
176
     1
 40
1.0
176
     1
  0
DICTIONARYVAR
  5
1E5
102
{ACAD_REACTORS
330
9B
102
}
330
9B
100
DictionaryVariables
280
     0
  1
1:1
  0
DICTIONARYVAR
  5
1E1
102
{ACAD_REACTORS
330
9B
102
}
330
9B
100
DictionaryVariables
280
     0
  1
STANDARD
  0
DICTIONARYVAR
  5
9C
102
{ACAD_REACTORS
330
9B
102
}
330
9B
100
DictionaryVariables
280
     0
  1
STANDARD
  0
DICTIONARYVAR
  5
1E2
102
{ACAD_REACTORS
330
9B
102
}
330
9B
100
DictionaryVariables
280
     0
  1
Imperial24
  0
DICTIONARYVAR
  5
1E3
102
{ACAD_REACTORS
330
9B
102
}
330
9B
100
DictionaryVariables
280
     0
  1
Imperial24
  0
DICTIONARYVAR
  5
1E7
102
{ACAD_REACTORS
330
9B
102
}
330
9B
100
DictionaryVariables
280
     0
  1
1
  0
DICTIONARYVAR
  5
1E8
102
{ACAD_REACTORS
330
9B
102
}
330
9B
100
DictionaryVariables
280
     0
  1
15
  0
DICTIONARYVAR
  5
1E6
102
{ACAD_REACTORS
330
9B
102
}
330
9B
100
DictionaryVariables
280
     0
  1
0
  0
DICTIONARYVAR
  5
1E4
102
{ACAD_REACTORS
330
9B
102
}
330
9B
100
DictionaryVariables
280
     0
  1
0
  0
DICTIONARY
  5
1ED
330
C6
100
AcDbDictionary
280
     1
281
     1
  3
ACAD_XREC_ROUNDTRIP
360
1EE
  0
DICTIONARY
  5
1EB
330
C4
100
AcDbDictionary
280
     1
281
     1
  3
ACAD_XREC_ROUNDTRIP
360
1EC
  0
DICTIONARY
  5
1E9
330
94
100
AcDbDictionary
280
     1
281
     1
  3
ACAD_ROUNDTRIP_2008_TABLESTYLE_CELLSTYLEMAP
360
1EA
  0
XRECORD
  5
1EE
102
{ACAD_REACTORS
330
1ED
102
}
330
1ED
100
AcDbXrecord
280
     1
102
DISPLAYNAME
  1
Imperial24
102
FLAGS
 90
        0
  0
XRECORD
  5
1EC
102
{ACAD_REACTORS
330
1EB
102
}
330
1EB
100
AcDbXrecord
280
     1
102
DISPLAYNAME
  1
Imperial24
102
FLAGS
 90
        0
  0
CELLSTYLEMAP
  5
1EA
102
{ACAD_REACTORS
330
1E9
102
}
330
1E9
100
AcDbCellStyleMap
 90
        3
300
CELLSTYLE
  1
TABLEFORMAT_BEGIN
 90
        5
170
     1
 91
        0
 92
    32768
 62
   257
 93
        1
300
CONTENTFORMAT
  1
CONTENTFORMAT_BEGIN
 90
        0
 91
        0
 92
      512
 93
        0
300

 40
0.0
140
1.0
 94
        5
 62
     0
340
12
144
0.25
309
CONTENTFORMAT_END
171
     0
 94
        6
 95
        1
302
GRIDFORMAT
  1
GRIDFORMAT_BEGIN
 90
        0
 91
        1
 62
     0
 92
       -2
340
0
 93
        0
 40
0.045
309
GRIDFORMAT_END
 95
        2
302
GRIDFORMAT
  1
GRIDFORMAT_BEGIN
 90
        0
 91
        1
 62
     0
 92
       -2
340
0
 93
        0
 40
0.045
309
GRIDFORMAT_END
 95
        4
302
GRIDFORMAT
  1
GRIDFORMAT_BEGIN
 90
        0
 91
        1
 62
     0
 92
       -2
340
0
 93
        0
 40
0.045
309
GRIDFORMAT_END
 95
        8
302
GRIDFORMAT
  1
GRIDFORMAT_BEGIN
 90
        0
 91
        1
 62
     0
 92
       -2
340
0
 93
        0
 40
0.045
309
GRIDFORMAT_END
 95
       16
302
GRIDFORMAT
  1
GRIDFORMAT_BEGIN
 90
        0
 91
        1
 62
     0
 92
       -2
340
0
 93
        0
 40
0.045
309
GRIDFORMAT_END
 95
       32
302
GRIDFORMAT
  1
GRIDFORMAT_BEGIN
 90
        0
 91
        1
 62
     0
 92
       -2
340
0
 93
        0
 40
0.045
309
GRIDFORMAT_END
309
TABLEFORMAT_END
  1
CELLSTYLE_BEGIN
 90
        1
 91
        1
300
_TITLE
309
CELLSTYLE_END
300
CELLSTYLE
  1
TABLEFORMAT_BEGIN
 90
        5
170
     1
 91
        0
 92
        0
 62
   257
 93
        1
300
CONTENTFORMAT
  1
CONTENTFORMAT_BEGIN
 90
        0
 91
        0
 92
      512
 93
        0
300

 40
0.0
140
1.0
 94
        5
 62
     0
340
12
144
0.18
309
CONTENTFORMAT_END
171
     0
 94
        6
 95
        1
302
GRIDFORMAT
  1
GRIDFORMAT_BEGIN
 90
        0
 91
        1
 62
     0
 92
       -2
340
0
 93
        0
 40
0.045
309
GRIDFORMAT_END
 95
        2
302
GRIDFORMAT
  1
GRIDFORMAT_BEGIN
 90
        0
 91
        1
 62
     0
 92
       -2
340
0
 93
        0
 40
0.045
309
GRIDFORMAT_END
 95
        4
302
GRIDFORMAT
  1
GRIDFORMAT_BEGIN
 90
        0
 91
        1
 62
     0
 92
       -2
340
0
 93
        0
 40
0.045
309
GRIDFORMAT_END
 95
        8
302
GRIDFORMAT
  1
GRIDFORMAT_BEGIN
 90
        0
 91
        1
 62
     0
 92
       -2
340
0
 93
        0
 40
0.045
309
GRIDFORMAT_END
 95
       16
302
GRIDFORMAT
  1
GRIDFORMAT_BEGIN
 90
        0
 91
        1
 62
     0
 92
       -2
340
0
 93
        0
 40
0.045
309
GRIDFORMAT_END
 95
       32
302
GRIDFORMAT
  1
GRIDFORMAT_BEGIN
 90
        0
 91
        1
 62
     0
 92
       -2
340
0
 93
        0
 40
0.045
309
GRIDFORMAT_END
309
TABLEFORMAT_END
  1
CELLSTYLE_BEGIN
 90
        2
 91
        1
300
_HEADER
309
CELLSTYLE_END
300
CELLSTYLE
  1
TABLEFORMAT_BEGIN
 90
        5
170
     1
 91
        0
 92
        0
 62
   257
 93
        1
300
CONTENTFORMAT
  1
CONTENTFORMAT_BEGIN
 90
        0
 91
        0
 92
      512
 93
        0
300

 40
0.0
140
1.0
 94
        2
 62
     0
340
12
144
0.18
309
CONTENTFORMAT_END
171
     0
 94
        6
 95
        1
302
GRIDFORMAT
  1
GRIDFORMAT_BEGIN
 90
        0
 91
        1
 62
     0
 92
       -2
340
0
 93
        0
 40
0.045
309
GRIDFORMAT_END
 95
        2
302
GRIDFORMAT
  1
GRIDFORMAT_BEGIN
 90
        0
 91
        1
 62
     0
 92
       -2
340
0
 93
        0
 40
0.045
309
GRIDFORMAT_END
 95
        4
302
GRIDFORMAT
  1
GRIDFORMAT_BEGIN
 90
        0
 91
        1
 62
     0
 92
       -2
340
0
 93
        0
 40
0.045
309
GRIDFORMAT_END
 95
        8
302
GRIDFORMAT
  1
GRIDFORMAT_BEGIN
 90
        0
 91
        1
 62
     0
 92
       -2
340
0
 93
        0
 40
0.045
309
GRIDFORMAT_END
 95
       16
302
GRIDFORMAT
  1
GRIDFORMAT_BEGIN
 90
        0
 91
        1
 62
     0
 92
       -2
340
0
 93
        0
 40
0.045
309
GRIDFORMAT_END
 95
       32
302
GRIDFORMAT
  1
GRIDFORMAT_BEGIN
 90
        0
 91
        1
 62
     0
 92
       -2
340
0
 93
        0
 40
0.045
309
GRIDFORMAT_END
309
TABLEFORMAT_END
  1
CELLSTYLE_BEGIN
 90
        3
 91
        2
300
_DATA
309
CELLSTYLE_END
  0
ENDSEC
  0
EOF
