  0
SECTION
  2
HEADER
  9
$ACADVER
  1
AC1027
  9
$ACADMAINTVER
 70
   125
  9
$DWGCODEPAGE
  3
ANSI_1252
  9
$LASTSAVEDBY
  1
fleminab
  9
$REQUIREDVERSIONS
160
                 0
  9
$INSBASE
 10
0.0
 20
0.0
 30
0.0
  9
$EXTMIN
 10
0.2004268870464045
 20
1.734450490478621
 30
-0.0000000349181948
  9
$EXTMAX
 10
16.46643577769347
 20
10.7816350220862
 30
0.0000000814935746
  9
$LIMMIN
 10
0.0
 20
0.0
  9
$LIMMAX
 10
12.0
 20
9.0
  9
$ORTHOMODE
 70
     0
  9
$REGENMODE
 70
     1
  9
$FILLMODE
 70
     1
  9
$QTEXTMODE
 70
     0
  9
$MIRRTEXT
 70
     0
  9
$LTSCALE
 40
1.0
  9
$ATTMODE
 70
     1
  9
$TEXTSIZE
 40
0.2
  9
$TRACEWID
 40
0.05
  9
$TEXTSTYLE
  7
Standard
  9
$CLAYER
  8
0
  9
$CELTYPE
  6
ByLayer
  9
$CECOLOR
 62
   256
  9
$CELTSCALE
 40
1.0
  9
$DISPSILH
 70
     0
  9
$DIMSCALE
 40
1.0
  9
$DIMASZ
 40
0.18
  9
$DIMEXO
 40
0.0625
  9
$DIMDLI
 40
0.38
  9
$DIMRND
 40
0.0
  9
$DIMDLE
 40
0.0
  9
$DIMEXE
 40
0.18
  9
$DIMTP
 40
0.0
  9
$DIMTM
 40
0.0
  9
$DIMTXT
 40
0.18
  9
$DIMCEN
 40
0.09
  9
$DIMTSZ
 40
0.0
  9
$DIMTOL
 70
     0
  9
$DIMLIM
 70
     0
  9
$DIMTIH
 70
     1
  9
$DIMTOH
 70
     1
  9
$DIMSE1
 70
     0
  9
$DIMSE2
 70
     0
  9
$DIMTAD
 70
     0
  9
$DIMZIN
 70
     0
  9
$DIMBLK
  1

  9
$DIMASO
 70
     1
  9
$DIMSHO
 70
     1
  9
$DIMPOST
  1

  9
$DIMAPOST
  1

  9
$DIMALT
 70
     0
  9
$DIMALTD
 70
     2
  9
$DIMALTF
 40
25.4
  9
$DIMLFAC
 40
1.0
  9
$DIMTOFL
 70
     0
  9
$DIMTVP
 40
0.0
  9
$DIMTIX
 70
     0
  9
$DIMSOXD
 70
     0
  9
$DIMSAH
 70
     0
  9
$DIMBLK1
  1

  9
$DIMBLK2
  1

  9
$DIMSTYLE
  2
Standard
  9
$DIMCLRD
 70
     0
  9
$DIMCLRE
 70
     0
  9
$DIMCLRT
 70
     0
  9
$DIMTFAC
 40
1.0
  9
$DIMGAP
 40
0.09
  9
$DIMJUST
 70
     0
  9
$DIMSD1
 70
     0
  9
$DIMSD2
 70
     0
  9
$DIMTOLJ
 70
     1
  9
$DIMTZIN
 70
     0
  9
$DIMALTZ
 70
     0
  9
$DIMALTTZ
 70
     0
  9
$DIMUPT
 70
     0
  9
$DIMDEC
 70
     4
  9
$DIMTDEC
 70
     4
  9
$DIMALTU
 70
     2
  9
$DIMALTTD
 70
     2
  9
$DIMTXSTY
  7
Standard
  9
$DIMAUNIT
 70
     0
  9
$DIMADEC
 70
     0
  9
$DIMALTRND
 40
0.0
  9
$DIMAZIN
 70
     0
  9
$DIMDSEP
 70
    46
  9
$DIMATFIT
 70
     3
  9
$DIMFRAC
 70
     0
  9
$DIMLDRBLK
  1

  9
$DIMLUNIT
 70
     2
  9
$DIMLWD
 70
    -2
  9
$DIMLWE
 70
    -2
  9
$DIMTMOVE
 70
     0
  9
$DIMFXL
 40
1.0
  9
$DIMFXLON
 70
     0
  9
$DIMJOGANG
 40
0.7853981633974483
  9
$DIMTFILL
 70
     0
  9
$DIMTFILLCLR
 70
     0
  9
$DIMARCSYM
 70
     0
  9
$DIMLTYPE
  6

  9
$DIMLTEX1
  6

  9
$DIMLTEX2
  6

  9
$DIMTXTDIRECTION
 70
     0
  9
$LUNITS
 70
     2
  9
$LUPREC
 70
     4
  9
$SKETCHINC
 40
0.1
  9
$FILLETRAD
 40
0.0
  9
$AUNITS
 70
     0
  9
$AUPREC
 70
     0
  9
$MENU
  1
.
  9
$ELEVATION
 40
0.0
  9
$PELEVATION
 40
0.0
  9
$THICKNESS
 40
0.0
  9
$LIMCHECK
 70
     0
  9
$CHAMFERA
 40
0.0
  9
$CHAMFERB
 40
0.0
  9
$CHAMFERC
 40
0.0
  9
$CHAMFERD
 40
0.0
  9
$SKPOLY
 70
     0
  9
$TDCREATE
 40
2458248.517650464
  9
$TDUCREATE
 40
2458248.100983796
  9
$TDUPDATE
 40
2458248.518020833
  9
$TDUUPDATE
 40
2458248.101354167
  9
$TDINDWG
 40
0.0003703704
  9
$TDUSRTIMER
 40
0.0003703704
  9
$USRTIMER
 70
     1
  9
$ANGBASE
 50
0.0
  9
$ANGDIR
 70
     0
  9
$PDMODE
 70
     0
  9
$PDSIZE
 40
0.0
  9
$PLINEWID
 40
0.0
  9
$SPLFRAME
 70
     0
  9
$SPLINETYPE
 70
     6
  9
$SPLINESEGS
 70
     8
  9
$HANDSEED
  5
32A
  9
$SURFTAB1
 70
     6
  9
$SURFTAB2
 70
     6
  9
$SURFTYPE
 70
     6
  9
$SURFU
 70
     6
  9
$SURFV
 70
     6
  9
$UCSBASE
  2

  9
$UCSNAME
  2

  9
$UCSORG
 10
0.0
 20
0.0
 30
0.0
  9
$UCSXDIR
 10
1.0
 20
0.0
 30
0.0
  9
$UCSYDIR
 10
0.0
 20
1.0
 30
0.0
  9
$UCSORTHOREF
  2

  9
$UCSORTHOVIEW
 70
     0
  9
$UCSORGTOP
 10
0.0
 20
0.0
 30
0.0
  9
$UCSORGBOTTOM
 10
0.0
 20
0.0
 30
0.0
  9
$UCSORGLEFT
 10
0.0
 20
0.0
 30
0.0
  9
$UCSORGRIGHT
 10
0.0
 20
0.0
 30
0.0
  9
$UCSORGFRONT
 10
0.0
 20
0.0
 30
0.0
  9
$UCSORGBACK
 10
0.0
 20
0.0
 30
0.0
  9
$PUCSBASE
  2

  9
$PUCSNAME
  2

  9
$PUCSORG
 10
0.0
 20
0.0
 30
0.0
  9
$PUCSXDIR
 10
1.0
 20
0.0
 30
0.0
  9
$PUCSYDIR
 10
0.0
 20
1.0
 30
0.0
  9
$PUCSORTHOREF
  2

  9
$PUCSORTHOVIEW
 70
     0
  9
$PUCSORGTOP
 10
0.0
 20
0.0
 30
0.0
  9
$PUCSORGBOTTOM
 10
0.0
 20
0.0
 30
0.0
  9
$PUCSORGLEFT
 10
0.0
 20
0.0
 30
0.0
  9
$PUCSORGRIGHT
 10
0.0
 20
0.0
 30
0.0
  9
$PUCSORGFRONT
 10
0.0
 20
0.0
 30
0.0
  9
$PUCSORGBACK
 10
0.0
 20
0.0
 30
0.0
  9
$USERI1
 70
     0
  9
$USERI2
 70
     0
  9
$USERI3
 70
     0
  9
$USERI4
 70
     0
  9
$USERI5
 70
     0
  9
$USERR1
 40
0.0
  9
$USERR2
 40
0.0
  9
$USERR3
 40
0.0
  9
$USERR4
 40
0.0
  9
$USERR5
 40
0.0
  9
$WORLDVIEW
 70
     1
  9
$SHADEDGE
 70
     3
  9
$SHADEDIF
 70
    70
  9
$TILEMODE
 70
     1
  9
$MAXACTVP
 70
    64
  9
$PINSBASE
 10
0.0
 20
0.0
 30
0.0
  9
$PLIMCHECK
 70
     0
  9
$PEXTMIN
 10
1.000000000000000E+20
 20
1.000000000000000E+20
 30
1.000000000000000E+20
  9
$PEXTMAX
 10
-1.000000000000000E+20
 20
-1.000000000000000E+20
 30
-1.000000000000000E+20
  9
$PLIMMIN
 10
-0.7524054877282309
 20
-0.5025428238148726
  9
$PLIMMAX
 10
35.24759547345533
 20
23.49745621500156
  9
$UNITMODE
 70
     0
  9
$VISRETAIN
 70
     1
  9
$PLINEGEN
 70
     0
  9
$PSLTSCALE
 70
     1
  9
$TREEDEPTH
 70
  3020
  9
$CMLSTYLE
  2
Standard
  9
$CMLJUST
 70
     0
  9
$CMLSCALE
 40
1.0
  9
$PROXYGRAPHICS
 70
     1
  9
$MEASUREMENT
 70
     0
  9
$CELWEIGHT
370
    -1
  9
$ENDCAPS
280
     0
  9
$JOINSTYLE
280
     0
  9
$LWDISPLAY
290
     0
  9
$INSUNITS
 70
     1
  9
$HYPERLINKBASE
  1

  9
$STYLESHEET
  1

  9
$XEDIT
290
     1
  9
$CEPSNTYPE
380
     0
  9
$PSTYLEMODE
290
     1
  9
$FINGERPRINTGUID
  2
{15F4E95F-7EBA-694E-AF84-34043C1E2875}
  9
$VERSIONGUID
  2
{C6950530-DC9D-7B45-A9AF-D027EF1E1FA6}
  9
$EXTNAMES
290
     1
  9
$PSVPSCALE
 40
0.0
  9
$OLESTARTUP
290
     0
  9
$SORTENTS
280
   127
  9
$INDEXCTL
280
     0
  9
$HIDETEXT
280
     0
  9
$XCLIPFRAME
280
     0
  9
$HALOGAP
280
     0
  9
$OBSCOLOR
 70
   257
  9
$OBSLTYPE
280
     0
  9
$INTERSECTIONDISPLAY
280
     0
  9
$INTERSECTIONCOLOR
 70
   257
  9
$DIMASSOC
280
     1
  9
$PROJECTNAME
  1

  9
$CAMERADISPLAY
290
     0
  9
$LENSLENGTH
 40
50.0
  9
$CAMERAHEIGHT
 40
0.0
  9
$STEPSPERSEC
 40
2.0
  9
$STEPSIZE
 40
6.0
  9
$3DDWFPREC
 40
2.0
  9
$PSOLWIDTH
 40
0.25
  9
$PSOLHEIGHT
 40
4.0
  9
$LOFTANG1
 40
1.570796326794896
  9
$LOFTANG2
 40
1.570796326794896
  9
$LOFTMAG1
 40
0.0
  9
$LOFTMAG2
 40
0.0
  9
$LOFTPARAM
 70
     7
  9
$LOFTNORMALS
280
     1
  9
$LATITUDE
 40
37.795
  9
$LONGITUDE
 40
-122.394
  9
$NORTHDIRECTION
 40
0.0
  9
$TIMEZONE
 70
 -8000
  9
$LIGHTGLYPHDISPLAY
280
     1
  9
$TILEMODELIGHTSYNCH
280
     1
  9
$CMATERIAL
347
7F
  9
$SOLIDHIST
280
     1
  9
$SHOWHIST
280
     1
  9
$DWFFRAME
280
     2
  9
$DGNFRAME
280
     0
  9
$REALWORLDSCALE
290
     1
  9
$INTERFERECOLOR
 62
     1
  9
$INTERFEREOBJVS
345
8C
  9
$INTERFEREVPVS
346
A5
  9
$CSHADOW
280
     0
  9
$SHADOWPLANELOCATION
 40
0.0
  0
ENDSEC
  0
SECTION
  2
CLASSES
  0
CLASS
  1
ACDBDICTIONARYWDFLT
  2
AcDbDictionaryWithDefault
  3
ObjectDBX Classes
 90
        0
 91
        1
280
     0
281
     0
  0
CLASS
  1
PLOTSETTINGS
  2
AcDbPlotSettings
  3
ObjectDBX Classes
 90
        0
 91
        0
280
     0
281
     0
  0
CLASS
  1
MATERIAL
  2
AcDbMaterial
  3
ObjectDBX Classes
 90
     1153
 91
        3
280
     0
281
     0
  0
CLASS
  1
VISUALSTYLE
  2
AcDbVisualStyle
  3
ObjectDBX Classes
 90
     4095
 91
       26
280
     0
281
     0
  0
CLASS
  1
TABLESTYLE
  2
AcDbTableStyle
  3
ObjectDBX Classes
 90
     4095
 91
        1
280
     0
281
     0
  0
CLASS
  1
DICTIONARYVAR
  2
AcDbDictionaryVar
  3
ObjectDBX Classes
 90
        0
 91
       17
280
     0
281
     0
  0
CLASS
  1
SCALE
  2
AcDbScale
  3
ObjectDBX Classes
 90
     1153
 91
       17
280
     0
281
     0
  0
CLASS
  1
MLEADERSTYLE
  2
AcDbMLeaderStyle
  3
ACDB_MLEADERSTYLE_CLASS
 90
     4095
 91
        1
280
     0
281
     0
  0
CLASS
  1
ACDBSECTIONVIEWSTYLE
  2
AcDbSectionViewStyle
  3
ObjectDBX Classes
 90
     1025
 91
        1
280
     0
281
     0
  0
CLASS
  1
ACDBDETAILVIEWSTYLE
  2
AcDbDetailViewStyle
  3
ObjectDBX Classes
 90
     1025
 91
        1
280
     0
281
     0
  0
CLASS
  1
CELLSTYLEMAP
  2
AcDbCellStyleMap
  3
ObjectDBX Classes
 90
     1152
 91
        1
280
     0
281
     0
  0
ENDSEC
  0
SECTION
  2
TABLES
  0
TABLE
  2
VPORT
  5
19
330
0
100
AcDbSymbolTable
 70
     1
1001
ACAD
1000
DbSaveVer
1071
        5
  0
VPORT
  5
7D
330
19
100
AcDbSymbolTableRecord
100
AcDbViewportTableRecord
  2
*Active
 70
     0
 10
0.0
 20
0.0
 11
1.0
 21
1.0
 12
8.333431332369942
 22
6.258042756282414
 13
0.0
 23
0.0
 14
0.5
 24
0.5
 15
0.5
 25
0.5
 16
0.0
 26
0.0
 36
1.0
 17
0.0
 27
0.0
 37
0.0
 40
9.11196150916086
 41
2.292712066905615
 42
50.0
 43
0.0
 44
0.0
 50
0.0
 51
0.0
 71
     0
 72
  1000
 73
     1
 74
     3
 75
     0
 76
     0
 77
     0
 78
     0
281
     0
 65
     1
110
0.0
120
0.0
130
0.0
111
1.0
121
0.0
131
0.0
112
0.0
122
1.0
132
0.0
 79
     0
146
0.0
348
88
 60
     3
 61
     5
292
     1
282
     1
141
0.0
142
0.0
 63
   250
421
  3355443
1001
ACAD_NAV_VCDISPLAY
1070
     3
  0
ENDTAB
  0
TABLE
  2
LTYPE
  5
14
330
0
100
AcDbSymbolTable
 70
     1
  0
LTYPE
  5
15
330
14
100
AcDbSymbolTableRecord
100
AcDbLinetypeTableRecord
  2
ByBlock
 70
     0
  3

 72
    65
 73
     0
 40
0.0
  0
LTYPE
  5
16
330
14
100
AcDbSymbolTableRecord
100
AcDbLinetypeTableRecord
  2
ByLayer
 70
     0
  3

 72
    65
 73
     0
 40
0.0
  0
LTYPE
  5
8
330
14
100
AcDbSymbolTableRecord
100
AcDbLinetypeTableRecord
  2
Continuous
 70
     0
  3
Solid line
 72
    65
 73
     0
 40
0.0
  0
ENDTAB
  0
TABLE
  2
LAYER
  5
10
330
0
100
AcDbSymbolTable
 70
     4
  0
LAYER
  5
4
102
{ACAD_XDICTIONARY
360
305
102
}
330
10
100
AcDbSymbolTableRecord
100
AcDbLayerTableRecord
  2
0
 70
     0
 62
     7
  6
Continuous
370
    -3
390
5
347
81
348
0
  0
LAYER
  5
25
102
{ACAD_XDICTIONARY
360
307
102
}
330
10
100
AcDbSymbolTableRecord
100
AcDbLayerTableRecord
  2
Title Block
 70
     0
 62
     7
  6
Continuous
370
    -3
390
5
347
81
348
0
  0
LAYER
  5
CE
102
{ACAD_XDICTIONARY
360
309
102
}
330
10
100
AcDbSymbolTableRecord
100
AcDbLayerTableRecord
  2
PDF_Layer 1
 70
     0
 62
    28
420
  1052429
  6
Continuous
370
    -3
390
5
347
81
348
0
  0
LAYER
  5
DF
102
{ACAD_XDICTIONARY
360
30B
102
}
330
10
100
AcDbSymbolTableRecord
100
AcDbLayerTableRecord
  2
PDF_Text
 70
     0
 62
   250
420
  2301728
  6
Continuous
370
    -3
390
5
347
81
348
0
  0
ENDTAB
  0
TABLE
  2
STYLE
  5
11
330
0
100
AcDbSymbolTable
 70
     3
  0
STYLE
  5
12
330
11
100
AcDbSymbolTableRecord
100
AcDbTextStyleTableRecord
  2
Standard
 70
     0
 40
0.0
 41
1.0
 50
0.0
 71
     0
 42
0.2
  3
txt
  4

  0
STYLE
  5
27
330
11
100
AcDbSymbolTableRecord
100
AcDbTextStyleTableRecord
  2
Roman
 70
     0
 40
0.0
 41
1.0
 50
0.0
 71
     0
 42
0.2
  3
ROMANS.SHX
  4

  0
STYLE
  5
DE
330
11
100
AcDbSymbolTableRecord
100
AcDbTextStyleTableRecord
  2
PDF Arial
 70
     0
 40
0.0
 41
1.0
 50
0.0
 71
     0
 42
0.2
  3
arial.ttf
  4

1001
ACAD
1000
Arial
1071
       34
  0
ENDTAB
  0
TABLE
  2
VIEW
  5
17
330
0
100
AcDbSymbolTable
 70
     0
  0
ENDTAB
  0
TABLE
  2
UCS
  5
18
330
0
100
AcDbSymbolTable
 70
     0
  0
ENDTAB
  0
TABLE
  2
APPID
  5
1B
330
0
100
AcDbSymbolTable
 70
     2
  0
APPID
  5
1C
330
1B
100
AcDbSymbolTableRecord
100
AcDbRegAppTableRecord
  2
ACAD
 70
     0
  0
APPID
  5
30D
330
1B
100
AcDbSymbolTableRecord
100
AcDbRegAppTableRecord
  2
ACAD_NAV_VCDISPLAY
 70
     0
  0
ENDTAB
  0
TABLE
  2
DIMSTYLE
  5
1D
330
0
100
AcDbSymbolTable
 70
     1
100
AcDbDimStyleTable
 71
     0
  0
DIMSTYLE
105
23
330
1D
100
AcDbSymbolTableRecord
100
AcDbDimStyleTableRecord
  2
Standard
 70
     0
340
12
  0
ENDTAB
  0
TABLE
  2
BLOCK_RECORD
  5
1
330
0
100
AcDbSymbolTable
 70
     0
  0
BLOCK_RECORD
  5
2
330
1
100
AcDbSymbolTableRecord
100
AcDbBlockTableRecord
  2
*Model_Space
340
A
 70
     0
280
     1
281
     0
  0
BLOCK_RECORD
  5
C
330
1
100
AcDbSymbolTableRecord
100
AcDbBlockTableRecord
  2
*Paper_Space
340
F
 70
     0
280
     1
281
     0
  0
ENDTAB
  0
ENDSEC
  0
SECTION
  2
BLOCKS
  0
BLOCK
  5
3
330
2
100
AcDbEntity
  8
0
100
AcDbBlockBegin
  2
*Model_Space
 70
     2
 10
0.0
 20
0.0
 30
0.0
  3
*Model_Space
  1

  0
ENDBLK
  5
9
330
2
100
AcDbEntity
  8
0
100
AcDbBlockEnd
  0
BLOCK
  5
D
330
C
100
AcDbEntity
 67
     1
  8
0
100
AcDbBlockBegin
  2
*Paper_Space
 70
     0
 10
0.0
 20
0.0
 30
0.0
  3
*Paper_Space
  1

  0
ENDBLK
  5
E
330
C
100
AcDbEntity
 67
     1
  8
0
100
AcDbBlockEnd
  0
ENDSEC
  0
SECTION
  2
ENTITIES
  0
SOLID
  5
CF
330
2
100
AcDbEntity
  8
PDF_Layer 1
 62
     7
420
 16777215
440
 33554559
370
    25
100
AcDbTrace
 10
0.7199708333333332
 20
10.27876805555555
 30
0.0
 11
0.7035819444444443
 21
10.3173375
 31
0.0
 12
0.6285263888888889
 22
10.3173375
 32
0.0
 13
0.7199708333333332
 23
10.35592083333333
 33
0.0
  0
SOLID
  5
D0
330
2
100
AcDbEntity
  8
PDF_Layer 1
 62
     7
420
 16777215
440
 33554559
370
    25
100
AcDbTrace
 10
14.88373472222222
 20
10.27876805555555
 30
0.0
 11
14.9001375
 21
10.3173375
 31
0.0
 12
14.97517916666666
 22
10.3173375
 32
0.0
 13
14.88373472222222
 23
10.35592083333333
 33
0.0
  0
SOLID
  5
D1
330
2
100
AcDbEntity
  8
PDF_Layer 1
 62
     7
420
 16777215
440
 33554559
370
    25
100
AcDbTrace
 10
15.76489305555555
 20
6.560893055555554
 30
0.0
 11
15.72632361111111
 21
6.544504166666666
 31
0.0
 12
15.72632361111111
 22
6.46944861111111
 32
0.0
 13
15.68774027777777
 23
6.560893055555554
 33
0.0
  0
SOLID
  5
D2
330
2
100
AcDbEntity
  8
PDF_Layer 1
 62
     7
420
 16777215
440
 33554559
370
    25
100
AcDbTrace
 10
15.76489305555555
 20
9.368591666666665
 30
0.0
 11
15.72632361111111
 21
9.384980555555554
 31
0.0
 12
15.72632361111111
 22
9.460022222222221
 32
0.0
 13
15.68774027777777
 23
9.368591666666665
 33
0.0
  0
SOLID
  5
D3
330
2
100
AcDbEntity
  8
PDF_Layer 1
 62
     7
420
 16777215
440
 33554559
370
    25
100
AcDbTrace
 10
16.46514166666666
 20
6.08687361111111
 30
0.0
 11
16.42657222222222
 21
6.070470833333333
 31
0.0
 12
16.42657222222222
 22
5.995429166666665
 32
0.0
 13
16.38798888888889
 23
6.08687361111111
 33
0.0
  0
SOLID
  5
D4
330
2
100
AcDbEntity
  8
PDF_Layer 1
 62
     7
420
 16777215
440
 33554559
370
    25
100
AcDbTrace
 10
16.46514166666666
 20
9.368591666666665
 30
0.0
 11
16.42657222222222
 21
9.384980555555554
 31
0.0
 12
16.42657222222222
 22
9.460022222222221
 32
0.0
 13
16.38798888888889
 23
9.368591666666665
 33
0.0
  0
SOLID
  5
D5
330
2
100
AcDbEntity
  8
PDF_Layer 1
 62
     7
420
 16777215
440
 33554559
370
    25
100
AcDbTrace
 10
15.84019583333333
 20
4.231906944444443
 30
0.0
 11
15.87876527777777
 21
4.248295833333332
 31
0.0
 12
15.87876527777777
 22
4.323351388888887
 32
0.0
 13
15.91734861111111
 23
4.231906944444443
 33
0.0
  0
SOLID
  5
D6
330
2
100
AcDbEntity
  8
PDF_Layer 1
 62
     7
420
 16777215
440
 33554559
370
    25
100
AcDbTrace
 10
15.84019583333333
 20
2.015326388888888
 30
0.0
 11
15.87876527777777
 21
1.998937499999999
 31
0.0
 12
15.87876527777777
 22
1.923895833333332
 32
0.0
 13
15.91734861111111
 23
2.015326388888888
 33
0.0
  0
SOLID
  5
D7
330
2
100
AcDbEntity
  8
PDF_Layer 1
 62
     7
420
 16777215
440
 33554559
370
    25
100
AcDbTrace
 10
1.16851111111111
 20
1.735283333333333
 30
0.0
 11
1.152122222222222
 21
1.773852777777777
 31
0.0
 12
1.077066666666666
 22
1.773852777777777
 32
0.0
 13
1.16851111111111
 23
1.812436111111111
 33
0.0
  0
SOLID
  5
D8
330
2
100
AcDbEntity
  8
PDF_Layer 1
 62
     7
420
 16777215
440
 33554559
370
    25
100
AcDbTrace
 10
14.43477361111111
 20
1.735283333333333
 30
0.0
 11
14.4511625
 21
1.773852777777777
 31
0.0
 12
14.52620416666666
 22
1.773852777777777
 32
0.0
 13
14.43477361111111
 23
1.812436111111111
 33
0.0
  0
SOLID
  5
D9
330
2
100
AcDbEntity
  8
PDF_Layer 1
 62
     7
420
 16777215
440
 33554559
370
    25
100
AcDbTrace
 10
7.913154166666664
 20
4.006795833333332
 30
0.0
 11
7.87458472222222
 21
3.990406944444443
 31
0.0
 12
7.87458472222222
 22
3.915365277777776
 32
0.0
 13
7.836001388888886
 23
4.006795833333332
 33
0.0
  0
SOLID
  5
DA
330
2
100
AcDbEntity
  8
PDF_Layer 1
 62
     7
420
 16777215
440
 33554559
370
    25
100
AcDbTrace
 10
7.836005555555555
 20
3.6234
 30
0.0
 11
7.874575
 21
3.639788888888888
 31
0.0
 12
7.874575
 22
3.714844444444444
 32
0.0
 13
7.913158333333333
 23
3.6234
 33
0.0
  0
SOLID
  5
DB
330
2
100
AcDbEntity
  8
PDF_Layer 1
 62
     7
420
 16777215
440
 33554559
370
    25
100
AcDbTrace
 10
1.832472222222222
 20
3.065986111111111
 30
0.0
 11
1.833916666666666
 21
3.024097222222222
 31
0.0
 12
1.765902777777777
 22
2.992388888888888
 32
0.0
 13
1.865069444444444
 23
2.996069444444444
 33
0.0
  0
SOLID
  5
DC
330
2
100
AcDbEntity
  8
PDF_Layer 1
 62
     7
420
 16777215
440
 33554559
370
    25
100
AcDbTrace
 10
0.292975
 20
2.348415277777777
 30
0.0
 11
0.3240722222222222
 21
2.320318055555555
 31
0.0
 12
0.3921555555555555
 22
2.3518875
 32
0.0
 13
0.3254333333333333
 23
2.278429166666666
 33
0.0
  0
LWPOLYLINE
  5
E0
330
2
100
AcDbEntity
  8
PDF_Layer 1
 62
     7
420
 16777215
370
    25
100
AcDbPolyline
 90
        2
 70
     0
 43
0.0
 10
1.3157625
 20
7.845608333333333
 10
1.405206944444444
 20
7.845608333333333
  0
LWPOLYLINE
  5
E1
330
2
100
AcDbEntity
  8
PDF_Layer 1
 62
     7
420
 16777215
370
    25
100
AcDbPolyline
 90
        3
 70
     0
 43
0.0
 10
0.9871888888888889
 20
7.845608333333333
 10
1.076647222222222
 20
7.845608333333333
 10
1.166105555555555
 20
7.845608333333333
  0
LWPOLYLINE
  5
E2
330
2
100
AcDbEntity
  8
PDF_Layer 1
 62
     7
420
 16777215
370
    25
100
AcDbPolyline
 90
        2
 70
     0
 43
0.0
 10
1.196201388888888
 20
7.845608333333333
 10
1.285659722222222
 20
7.845608333333333
  0
LWPOLYLINE
  5
E4
330
2
100
AcDbEntity
  8
PDF_Layer 1
 62
     7
420
 16777215
370
    25
100
AcDbPolyline
 90
        2
 70
     0
 43
0.0
 10
0.9570861111111113
 20
7.845608333333333
 10
0.8676416666666668
 20
7.845608333333333
  0
LWPOLYLINE
  5
E5
330
2
100
AcDbEntity
  8
PDF_Layer 1
 62
     7
420
 16777215
370
    25
100
AcDbPolyline
 90
        2
 70
     0
 43
0.0
 10
0.8375305555555554
 20
7.845608333333333
 10
0.7480861111111111
 20
7.845608333333333
  0
LWPOLYLINE
  5
E6
330
2
100
AcDbEntity
  8
PDF_Layer 1
 62
     7
420
 16777215
370
    25
100
AcDbPolyline
 90
        2
 70
     0
 43
0.0
 10
1.076647222222222
 20
7.605672222222223
 10
1.076647222222222
 20
7.51621388888889
  0
LWPOLYLINE
  5
E7
330
2
100
AcDbEntity
  8
PDF_Layer 1
 62
     7
420
 16777215
370
    25
100
AcDbPolyline
 90
        3
 70
     0
 43
0.0
 10
1.076647222222222
 20
7.935066666666666
 10
1.076647222222222
 20
7.845608333333333
 10
1.076647222222222
 20
7.755316666666667
  0
LWPOLYLINE
  5
E8
330
2
100
AcDbEntity
  8
PDF_Layer 1
 62
     7
420
 16777215
370
    25
100
AcDbPolyline
 90
        2
 70
     0
 43
0.0
 10
1.076647222222222
 20
7.725219444444444
 10
1.076647222222222
 20
7.635761111111111
  0
LWPOLYLINE
  5
EA
330
2
100
AcDbEntity
  8
PDF_Layer 1
 62
     7
420
 16777215
370
    25
100
AcDbPolyline
 90
        2
 70
     0
 43
0.0
 10
1.076647222222222
 20
7.965155555555554
 10
1.076647222222222
 20
8.054613888888887
  0
LWPOLYLINE
  5
EB
330
2
100
AcDbEntity
  8
PDF_Layer 1
 62
     7
420
 16777215
370
    25
100
AcDbPolyline
 90
        2
 70
     0
 43
0.0
 10
1.076647222222222
 20
8.084709722222221
 10
1.076647222222222
 20
8.174168055555554
  0
LWPOLYLINE
  5
EC
330
2
100
AcDbEntity
  8
PDF_Layer 1
 62
     7
420
 16777215
370
    25
100
AcDbPolyline
 90
        2
 70
     0
 43
0.0
 10
14.7653125
 20
7.845608333333333
 10
14.85563194444444
 20
7.845608333333333
  0
LWPOLYLINE
  5
ED
330
2
100
AcDbEntity
  8
PDF_Layer 1
 62
     7
420
 16777215
370
    25
100
AcDbPolyline
 90
        3
 70
     0
 43
0.0
 10
14.43674583333333
 20
7.845608333333333
 10
14.52620416666666
 20
7.845608333333333
 10
14.61652361111111
 20
7.845608333333333
  0
LWPOLYLINE
  5
EE
330
2
100
AcDbEntity
  8
PDF_Layer 1
 62
     7
420
 16777215
370
    25
100
AcDbPolyline
 90
        2
 70
     0
 43
0.0
 10
14.64576527777778
 20
7.845608333333333
 10
14.73608472222222
 20
7.845608333333333
  0
LWPOLYLINE
  5
F0
330
2
100
AcDbEntity
  8
PDF_Layer 1
 62
     7
420
 16777215
370
    25
100
AcDbPolyline
 90
        2
 70
     0
 43
0.0
 10
14.40665694444444
 20
7.845608333333333
 10
14.31719861111111
 20
7.845608333333333
  0
LWPOLYLINE
  5
F1
330
2
100
AcDbEntity
  8
PDF_Layer 1
 62
     7
420
 16777215
370
    25
100
AcDbPolyline
 90
        2
 70
     0
 43
0.0
 10
14.28710972222222
 20
7.845608333333333
 10
14.19765138888888
 20
7.845608333333333
  0
LWPOLYLINE
  5
F2
330
2
100
AcDbEntity
  8
PDF_Layer 1
 62
     7
420
 16777215
370
    25
100
AcDbPolyline
 90
        2
 70
     0
 43
0.0
 10
14.52620416666666
 20
7.605672222222223
 10
14.52620416666666
 20
7.51621388888889
  0
LWPOLYLINE
  5
F3
330
2
100
AcDbEntity
  8
PDF_Layer 1
 62
     7
420
 16777215
370
    25
100
AcDbPolyline
 90
        3
 70
     0
 43
0.0
 10
14.52620416666666
 20
7.935066666666666
 10
14.52620416666666
 20
7.845608333333333
 10
14.52620416666666
 20
7.755316666666667
  0
LWPOLYLINE
  5
F4
330
2
100
AcDbEntity
  8
PDF_Layer 1
 62
     7
420
 16777215
370
    25
100
AcDbPolyline
 90
        2
 70
     0
 43
0.0
 10
14.52620416666666
 20
7.725219444444444
 10
14.52620416666666
 20
7.635761111111111
  0
LWPOLYLINE
  5
F6
330
2
100
AcDbEntity
  8
PDF_Layer 1
 62
     7
420
 16777215
370
    25
100
AcDbPolyline
 90
        2
 70
     0
 43
0.0
 10
14.52620416666666
 20
7.965155555555554
 10
14.52620416666666
 20
8.054613888888887
  0
LWPOLYLINE
  5
F7
330
2
100
AcDbEntity
  8
PDF_Layer 1
 62
     7
420
 16777215
370
    25
100
AcDbPolyline
 90
        2
 70
     0
 43
0.0
 10
14.52620416666666
 20
8.084709722222221
 10
14.52620416666666
 20
8.174168055555554
  0
LWPOLYLINE
  5
F8
330
2
100
AcDbEntity
  8
PDF_Layer 1
 62
     7
420
 16777215
370
    70
100
AcDbPolyline
 90
        2
 70
     0
 43
0.0
 10
1.787293055555555
 20
6.109130555555555
 10
1.783945833333333
 20
6.109130555555555
  0
LWPOLYLINE
  5
F9
330
2
100
AcDbEntity
  8
PDF_Layer 1
 62
     7
420
 16777215
370
    70
100
AcDbPolyline
 90
        2
 70
     0
 43
0.0
 10
1.783941666666666
 20
6.109130555555555
 10
1.774733333333333
 20
6.109130555555555
  0
LWPOLYLINE
  5
FA
330
2
100
AcDbEntity
  8
PDF_Layer 1
 62
     7
420
 16777215
370
    70
100
AcDbPolyline
 90
        2
 70
     0
 43
0.0
 10
1.774740277777777
 20
6.109130555555555
 10
1.758865277777777
 20
6.109130555555555
  0
LWPOLYLINE
  5
FB
330
2
100
AcDbEntity
  8
PDF_Layer 1
 62
     7
420
 16777215
370
    70
100
AcDbPolyline
 90
        2
 70
     0
 43
0.0
 10
1.758863888888888
 20
6.109130555555555
 10
1.736294444444444
 20
6.109130555555555
  0
LWPOLYLINE
  5
FC
330
2
100
AcDbEntity
  8
PDF_Layer 1
 62
     7
420
 16777215
370
    70
100
AcDbPolyline
 90
        2
 70
     0
 43
0.0
 10
1.736301388888888
 20
6.109130555555555
 10
1.708704166666666
 20
6.109130555555555
  0
LWPOLYLINE
  5
FD
330
2
100
AcDbEntity
  8
PDF_Layer 1
 62
     7
420
 16777215
370
    70
100
AcDbPolyline
 90
        2
 70
     0
 43
0.0
 10
1.708699999999999
 20
6.109130555555555
 10
1.674422222222221
 20
6.109130555555555
  0
LWPOLYLINE
  5
FE
330
2
100
AcDbEntity
  8
PDF_Layer 1
 62
     7
420
 16777215
370
    70
100
AcDbPolyline
 90
        2
 70
     0
 43
0.0
 10
1.674418055555555
 20
6.109130555555555
 10
1.635126388888888
 20
6.109130555555555
  0
LWPOLYLINE
  5
FF
330
2
100
AcDbEntity
  8
PDF_Layer 1
 62
     7
420
 16777215
370
    70
100
AcDbPolyline
 90
        2
 70
     0
 43
0.0
 10
1.635131944444444
 20
6.109130555555555
 10
1.5908125
 20
6.109130555555555
  0
LWPOLYLINE
  5
100
330
2
100
AcDbEntity
  8
PDF_Layer 1
 62
     7
420
 16777215
370
    70
100
AcDbPolyline
 90
        2
 70
     0
 43
0.0
 10
1.590813888888888
 20
6.109130555555555
 10
1.542327777777777
 20
6.109130555555555
  0
LWPOLYLINE
  5
101
330
2
100
AcDbEntity
  8
PDF_Layer 1
 62
     7
420
 16777215
370
    70
100
AcDbPolyline
 90
        2
 70
     0
 43
0.0
 10
1.542331944444444
 20
6.109130555555555
 10
1.488818055555555
 20
6.109130555555555
  0
LWPOLYLINE
  5
102
330
2
100
AcDbEntity
  8
PDF_Layer 1
 62
     7
420
 16777215
370
    70
100
AcDbPolyline
 90
        2
 70
     0
 43
0.0
 10
1.488816666666666
 20
6.109130555555555
 10
1.431969444444444
 20
6.109130555555555
  0
LWPOLYLINE
  5
103
330
2
100
AcDbEntity
  8
PDF_Layer 1
 62
     7
420
 16777215
370
    70
100
AcDbPolyline
 90
        2
 70
     0
 43
0.0
 10
1.431973611111111
 20
6.109130555555555
 10
1.371779166666666
 20
6.109130555555555
  0
LWPOLYLINE
  5
104
330
2
100
AcDbEntity
  8
PDF_Layer 1
 62
     7
420
 16777215
370
    70
100
AcDbPolyline
 90
        4
 70
     0
 43
0.0
 10
1.431133333333333
 20
6.109130555555555
 10
1.371772222222222
 20
6.109130555555555
 10
1.309063888888888
 20
6.109130555555555
 10
1.243855555555555
 20
6.109130555555555
  0
LWPOLYLINE
  5
105
330
2
100
AcDbEntity
  8
PDF_Layer 1
 62
     7
420
 16777215
370
    70
100
AcDbPolyline
 90
        3
 70
     0
 43
0.0
 10
1.371776388888888
 20
6.109130555555555
 10
1.309068055555555
 20
6.109130555555555
 10
1.244693055555555
 20
6.109130555555555
  0
LWPOLYLINE
  5
106
330
2
100
AcDbEntity
  8
PDF_Layer 1
 62
     7
420
 16777215
370
    70
100
AcDbPolyline
 90
        2
 70
     0
 43
0.0
 10
1.244697222222222
 20
6.109130555555555
 10
1.177822222222222
 20
6.109130555555555
  0
LWPOLYLINE
  5
107
330
2
100
AcDbEntity
  8
PDF_Layer 1
 62
     7
420
 16777215
370
    70
100
AcDbPolyline
 90
        3
 70
     0
 43
0.0
 10
1.243856944444444
 20
6.109130555555555
 10
1.177815277777777
 20
6.109130555555555
 10
1.110926388888888
 20
6.109130555555555
  0
LWPOLYLINE
  5
108
330
2
100
AcDbEntity
  8
PDF_Layer 1
 62
     7
420
 16777215
370
    70
100
AcDbPolyline
 90
        3
 70
     0
 43
0.0
 10
1.177809722222222
 20
6.109130555555555
 10
1.110920833333333
 20
6.109130555555555
 10
1.0432125
 20
6.109130555555555
  0
LWPOLYLINE
  5
109
330
2
100
AcDbEntity
  8
PDF_Layer 1
 62
     7
420
 16777215
370
    70
100
AcDbPolyline
 90
        3
 70
     0
 43
0.0
 10
1.110913888888888
 20
6.109130555555555
 10
1.043205555555555
 20
6.109130555555555
 10
0.9754833333333332
 20
6.109130555555555
  0
LWPOLYLINE
  5
10A
330
2
100
AcDbEntity
  8
PDF_Layer 1
 62
     7
420
 16777215
370
    70
100
AcDbPolyline
 90
        3
 70
     0
 43
0.0
 10
1.0432
 20
6.109130555555555
 10
0.9754777777777778
 20
6.109130555555555
 10
0.90945
 20
6.109130555555555
  0
LWPOLYLINE
  5
10B
330
2
100
AcDbEntity
  8
PDF_Layer 1
 62
     7
420
 16777215
370
    70
100
AcDbPolyline
 90
        3
 70
     0
 43
0.0
 10
0.9754722222222223
 20
6.109130555555555
 10
0.9094444444444444
 20
6.109130555555555
 10
0.8442222222222223
 20
6.109130555555555
  0
LWPOLYLINE
  5
10C
330
2
100
AcDbEntity
  8
PDF_Layer 1
 62
     7
420
 16777215
370
    70
100
AcDbPolyline
 90
        2
 70
     0
 43
0.0
 10
0.8442180555555555
 20
6.109130555555555
 10
0.7815236111111111
 20
6.109130555555555
  0
LWPOLYLINE
  5
10D
330
2
100
AcDbEntity
  8
PDF_Layer 1
 62
     7
420
 16777215
370
    70
100
AcDbPolyline
 90
        2
 70
     0
 43
0.0
 10
0.7815208333333335
 20
6.109130555555555
 10
0.721326388888889
 20
6.109130555555555
  0
LWPOLYLINE
  5
10E
330
2
100
AcDbEntity
  8
PDF_Layer 1
 62
     7
420
 16777215
370
    70
100
AcDbPolyline
 90
        2
 70
     0
 43
0.0
 10
0.7213208333333334
 20
6.109130555555555
 10
0.6644736111111112
 20
6.109130555555555
  0
LWPOLYLINE
  5
10F
330
2
100
AcDbEntity
  8
PDF_Layer 1
 62
     7
420
 16777215
370
    70
100
AcDbPolyline
 90
        3
 70
     0
 43
0.0
 10
0.6644763888888888
 20
6.109130555555555
 10
0.6117958333333334
 20
6.109130555555555
 10
0.5624625
 20
6.109130555555555
  0
LWPOLYLINE
  5
111
330
2
100
AcDbEntity
  8
PDF_Layer 1
 62
     7
420
 16777215
370
    70
100
AcDbPolyline
 90
        3
 70
     0
 43
0.0
 10
0.5624666666666666
 20
6.109130555555555
 10
0.518161111111111
 20
6.109130555555555
 10
0.4788555555555555
 20
6.109130555555555
  0
LWPOLYLINE
  5
113
330
2
100
AcDbEntity
  8
PDF_Layer 1
 62
     7
420
 16777215
370
    70
100
AcDbPolyline
 90
        2
 70
     0
 43
0.0
 10
0.4788611111111111
 20
6.109130555555555
 10
0.4454166666666667
 20
6.109130555555555
  0
LWPOLYLINE
  5
114
330
2
100
AcDbEntity
  8
PDF_Layer 1
 62
     7
420
 16777215
370
    70
100
AcDbPolyline
 90
        2
 70
     0
 43
0.0
 10
0.4454208333333334
 20
6.109130555555555
 10
0.4170041666666667
 20
6.109130555555555
  0
LWPOLYLINE
  5
115
330
2
100
AcDbEntity
  8
PDF_Layer 1
 62
     7
420
 16777215
370
    70
100
AcDbPolyline
 90
        2
 70
     0
 43
0.0
 10
0.4169986111111112
 20
6.109130555555555
 10
0.3952624999999999
 20
6.109130555555555
  0
LWPOLYLINE
  5
116
330
2
100
AcDbEntity
  8
PDF_Layer 1
 62
     7
420
 16777215
370
    70
100
AcDbPolyline
 90
        2
 70
     0
 43
0.0
 10
0.3952638888888889
 20
6.109130555555555
 10
0.3793888888888889
 20
6.109130555555555
  0
LWPOLYLINE
  5
117
330
2
100
AcDbEntity
  8
PDF_Layer 1
 62
     7
420
 16777215
370
    70
100
AcDbPolyline
 90
        2
 70
     0
 43
0.0
 10
0.3793875
 20
6.109130555555555
 10
0.3693597222222222
 20
6.109130555555555
  0
LWPOLYLINE
  5
118
330
2
100
AcDbEntity
  8
PDF_Layer 1
 62
     7
420
 16777215
370
    70
100
AcDbPolyline
 90
        2
 70
     0
 43
0.0
 10
0.3693583333333334
 20
6.109130555555555
 10
0.3659972222222223
 20
6.109130555555555
  0
LWPOLYLINE
  5
119
330
2
100
AcDbEntity
  8
PDF_Layer 1
 62
     7
420
 16777215
370
    70
100
AcDbPolyline
 90
        2
 70
     0
 43
0.0
 10
0.3676819444444444
 20
6.109130555555555
 10
0.3710152777777778
 20
6.109130555555555
  0
LWPOLYLINE
  5
11A
330
2
100
AcDbEntity
  8
PDF_Layer 1
 62
     7
420
 16777215
370
    70
100
AcDbPolyline
 90
        2
 70
     0
 43
0.0
 10
0.3710194444444444
 20
6.109130555555555
 10
0.3802138888888888
 20
6.109130555555555
  0
LWPOLYLINE
  5
11B
330
2
100
AcDbEntity
  8
PDF_Layer 1
 62
     7
420
 16777215
370
    70
100
AcDbPolyline
 90
        4
 70
     0
 43
0.0
 10
0.3802152777777778
 20
6.109130555555555
 10
0.3961041666666666
 20
6.109130555555555
 10
0.4186736111111112
 20
6.109130555555555
 10
0.4462708333333334
 20
6.109130555555555
  0
LWPOLYLINE
  5
11E
330
2
100
AcDbEntity
  8
PDF_Layer 1
 62
     7
420
 16777215
370
    70
100
AcDbPolyline
 90
        2
 70
     0
 43
0.0
 10
0.4462680555555556
 20
6.109130555555555
 10
0.4797125000000001
 20
6.109130555555555
  0
LWPOLYLINE
  5
11F
330
2
100
AcDbEntity
  8
PDF_Layer 1
 62
     7
420
 16777215
370
    70
100
AcDbPolyline
 90
        2
 70
     0
 43
0.0
 10
0.4797097222222223
 20
6.109130555555555
 10
0.519001388888889
 20
6.109130555555555
  0
LWPOLYLINE
  5
120
330
2
100
AcDbEntity
  8
PDF_Layer 1
 62
     7
420
 16777215
370
    70
100
AcDbPolyline
 90
        2
 70
     0
 43
0.0
 10
0.5189958333333334
 20
6.109130555555555
 10
0.5633152777777779
 20
6.109130555555555
  0
LWPOLYLINE
  5
121
330
2
100
AcDbEntity
  8
PDF_Layer 1
 62
     7
420
 16777215
370
    70
100
AcDbPolyline
 90
        2
 70
     0
 43
0.0
 10
0.5633138888888888
 20
6.109130555555555
 10
0.6126472222222221
 20
6.109130555555555
  0
LWPOLYLINE
  5
122
330
2
100
AcDbEntity
  8
PDF_Layer 1
 62
     7
420
 16777215
370
    70
100
AcDbPolyline
 90
        2
 70
     0
 43
0.0
 10
0.6126444444444445
 20
6.109130555555555
 10
0.6653111111111111
 20
6.109130555555555
  0
LWPOLYLINE
  5
123
330
2
100
AcDbEntity
  8
PDF_Layer 1
 62
     7
420
 16777215
370
    70
100
AcDbPolyline
 90
        2
 70
     0
 43
0.0
 10
0.6653097222222223
 20
6.109130555555555
 10
0.7221569444444445
 20
6.109130555555555
  0
LWPOLYLINE
  5
124
330
2
100
AcDbEntity
  8
PDF_Layer 1
 62
     7
420
 16777215
370
    70
100
AcDbPolyline
 90
        3
 70
     0
 43
0.0
 10
0.7221611111111112
 20
6.109130555555555
 10
0.7823555555555555
 20
6.109130555555555
 10
0.8450499999999998
 20
6.109130555555555
  0
LWPOLYLINE
  5
126
330
2
100
AcDbEntity
  8
PDF_Layer 1
 62
     7
420
 16777215
370
    70
100
AcDbPolyline
 90
        2
 70
     0
 43
0.0
 10
0.8450527777777775
 20
6.109130555555555
 10
0.9094416666666663
 20
6.109130555555555
  0
LWPOLYLINE
  5
12F
330
2
100
AcDbEntity
  8
PDF_Layer 1
 62
     7
420
 16777215
370
    70
100
AcDbPolyline
 90
        2
 70
     0
 43
0.0
 10
1.431131944444444
 20
6.109130555555555
 10
1.487979166666666
 20
6.109130555555555
  0
LWPOLYLINE
  5
130
330
2
100
AcDbEntity
  8
PDF_Layer 1
 62
     7
420
 16777215
370
    70
100
AcDbPolyline
 90
        3
 70
     0
 43
0.0
 10
1.487983333333333
 20
6.109130555555555
 10
1.541483333333333
 20
6.109130555555555
 10
1.589983333333333
 20
6.109130555555555
  0
LWPOLYLINE
  5
132
330
2
100
AcDbEntity
  8
PDF_Layer 1
 62
     7
420
 16777215
370
    70
100
AcDbPolyline
 90
        2
 70
     0
 43
0.0
 10
1.589986111111111
 20
6.109130555555555
 10
1.634277777777777
 20
6.109130555555555
  0
LWPOLYLINE
  5
133
330
2
100
AcDbEntity
  8
PDF_Layer 1
 62
     7
420
 16777215
370
    70
100
AcDbPolyline
 90
        2
 70
     0
 43
0.0
 10
1.634284722222222
 20
6.109130555555555
 10
1.673590277777777
 20
6.109130555555555
  0
LWPOLYLINE
  5
134
330
2
100
AcDbEntity
  8
PDF_Layer 1
 62
     7
420
 16777215
370
    70
100
AcDbPolyline
 90
        2
 70
     0
 43
0.0
 10
1.673583333333333
 20
6.109130555555555
 10
1.707027777777777
 20
6.109130555555555
  0
LWPOLYLINE
  5
135
330
2
100
AcDbEntity
  8
PDF_Layer 1
 62
     7
420
 16777215
370
    70
100
AcDbPolyline
 90
        2
 70
     0
 43
0.0
 10
1.707024999999999
 20
6.109130555555555
 10
1.735455555555555
 20
6.109130555555555
  0
LWPOLYLINE
  5
136
330
2
100
AcDbEntity
  8
PDF_Layer 1
 62
     7
420
 16777215
370
    70
100
AcDbPolyline
 90
        4
 70
     0
 43
0.0
 10
1.735452777777777
 20
6.109130555555555
 10
1.757188888888888
 20
6.109130555555555
 10
1.773077777777777
 20
6.109130555555555
 10
1.783105555555555
 20
6.109130555555555
  0
LWPOLYLINE
  5
139
330
2
100
AcDbEntity
  8
PDF_Layer 1
 62
     7
420
 16777215
370
    70
100
AcDbPolyline
 90
        2
 70
     0
 43
0.0
 10
1.783108333333333
 20
6.109130555555555
 10
1.786455555555555
 20
6.109130555555555
  0
LWPOLYLINE
  5
13A
330
2
100
AcDbEntity
  8
PDF_Layer 1
 62
     7
420
 16777215
370
    70
100
AcDbPolyline
 90
        2
 70
     0
 43
0.0
 10
15.23685694444444
 20
6.109130555555555
 10
15.23349583333333
 20
6.109130555555555
  0
LWPOLYLINE
  5
13B
330
2
100
AcDbEntity
  8
PDF_Layer 1
 62
     7
420
 16777215
370
    70
100
AcDbPolyline
 90
        2
 70
     0
 43
0.0
 10
15.23349305555555
 20
6.109130555555555
 10
15.2243125
 20
6.109130555555555
  0
LWPOLYLINE
  5
13C
330
2
100
AcDbEntity
  8
PDF_Layer 1
 62
     7
420
 16777215
370
    70
100
AcDbPolyline
 90
        2
 70
     0
 43
0.0
 10
15.2243111111111
 20
6.109130555555555
 10
15.20843611111111
 20
6.109130555555555
  0
LWPOLYLINE
  5
13D
330
2
100
AcDbEntity
  8
PDF_Layer 1
 62
     7
420
 16777215
370
    70
100
AcDbPolyline
 90
        3
 70
     0
 43
0.0
 10
15.20844166666666
 20
6.109130555555555
 10
15.18585833333333
 20
6.109130555555555
 10
15.15828888888888
 20
6.109130555555555
  0
LWPOLYLINE
  5
13F
330
2
100
AcDbEntity
  8
PDF_Layer 1
 62
     7
420
 16777215
370
    70
100
AcDbPolyline
 90
        2
 70
     0
 43
0.0
 10
15.15828472222222
 20
6.109130555555555
 10
15.12396527777777
 20
6.109130555555555
  0
LWPOLYLINE
  5
140
330
2
100
AcDbEntity
  8
PDF_Layer 1
 62
     7
420
 16777215
370
    70
100
AcDbPolyline
 90
        2
 70
     0
 43
0.0
 10
15.12396944444444
 20
6.109130555555555
 10
15.08470555555556
 20
6.109130555555555
  0
LWPOLYLINE
  5
141
330
2
100
AcDbEntity
  8
PDF_Layer 1
 62
     7
420
 16777215
370
    70
100
AcDbPolyline
 90
        2
 70
     0
 43
0.0
 10
15.08470277777778
 20
6.109130555555555
 10
15.04041111111111
 20
6.109130555555555
  0
LWPOLYLINE
  5
142
330
2
100
AcDbEntity
  8
PDF_Layer 1
 62
     7
420
 16777215
370
    70
100
AcDbPolyline
 90
        2
 70
     0
 43
0.0
 10
15.04040555555555
 20
6.109130555555555
 10
14.99191944444444
 20
6.109130555555555
  0
LWPOLYLINE
  5
143
330
2
100
AcDbEntity
  8
PDF_Layer 1
 62
     7
420
 16777215
370
    70
100
AcDbPolyline
 90
        2
 70
     0
 43
0.0
 10
14.99191666666667
 20
6.109130555555555
 10
14.93838888888889
 20
6.109130555555555
  0
LWPOLYLINE
  5
144
330
2
100
AcDbEntity
  8
PDF_Layer 1
 62
     7
420
 16777215
370
    70
100
AcDbPolyline
 90
        2
 70
     0
 43
0.0
 10
14.93838194444444
 20
6.109130555555555
 10
14.88153472222222
 20
6.109130555555555
  0
LWPOLYLINE
  5
145
330
2
100
AcDbEntity
  8
PDF_Layer 1
 62
     7
420
 16777215
370
    70
100
AcDbPolyline
 90
        5
 70
     0
 43
0.0
 10
14.82135694444444
 20
6.109130555555555
 10
14.8815375
 20
6.109130555555555
 10
14.82135694444444
 20
6.109130555555555
 10
14.75864861111111
 20
6.109130555555555
 10
14.69344027777778
 20
6.109130555555555
  0
LWPOLYLINE
  5
147
330
2
100
AcDbEntity
  8
PDF_Layer 1
 62
     7
420
 16777215
370
    70
100
AcDbPolyline
 90
        3
 70
     0
 43
0.0
 10
14.82136111111111
 20
6.109130555555555
 10
14.75865277777777
 20
6.109130555555555
 10
14.69423611111111
 20
6.109130555555555
  0
LWPOLYLINE
  5
148
330
2
100
AcDbEntity
  8
PDF_Layer 1
 62
     7
420
 16777215
370
    70
100
AcDbPolyline
 90
        2
 70
     0
 43
0.0
 10
14.69424166666667
 20
6.109130555555555
 10
14.62736666666667
 20
6.109130555555555
  0
LWPOLYLINE
  5
149
330
2
100
AcDbEntity
  8
PDF_Layer 1
 62
     7
420
 16777215
370
    70
100
AcDbPolyline
 90
        3
 70
     0
 43
0.0
 10
14.69344305555555
 20
6.109130555555555
 10
14.62735972222222
 20
6.109130555555555
 10
14.56048472222222
 20
6.109130555555555
  0
LWPOLYLINE
  5
14A
330
2
100
AcDbEntity
  8
PDF_Layer 1
 62
     7
420
 16777215
370
    70
100
AcDbPolyline
 90
        5
 70
     0
 43
0.0
 10
14.49274305555556
 20
6.109130555555555
 10
14.56047916666666
 20
6.109130555555555
 10
14.49274305555556
 20
6.109130555555555
 10
14.42504861111111
 20
6.109130555555555
 10
14.35897916666666
 20
6.109130555555555
  0
LWPOLYLINE
  5
14D
330
2
100
AcDbEntity
  8
PDF_Layer 1
 62
     7
420
 16777215
370
    70
100
AcDbPolyline
 90
        3
 70
     0
 43
0.0
 10
14.4259125
 20
6.109130555555555
 10
14.35898194444444
 20
6.109130555555555
 10
14.29381527777778
 20
6.109130555555555
  0
LWPOLYLINE
  5
14E
330
2
100
AcDbEntity
  8
PDF_Layer 1
 62
     7
420
 16777215
370
    70
100
AcDbPolyline
 90
        2
 70
     0
 43
0.0
 10
14.29380972222222
 20
6.109130555555555
 10
14.23105972222222
 20
6.109130555555555
  0
LWPOLYLINE
  5
14F
330
2
100
AcDbEntity
  8
PDF_Layer 1
 62
     7
420
 16777215
370
    70
100
AcDbPolyline
 90
        3
 70
     0
 43
0.0
 10
14.23106527777777
 20
6.109130555555555
 10
14.17088472222222
 20
6.109130555555555
 10
14.11402361111111
 20
6.109130555555555
  0
LWPOLYLINE
  5
151
330
2
100
AcDbEntity
  8
PDF_Layer 1
 62
     7
420
 16777215
370
    70
100
AcDbPolyline
 90
        3
 70
     0
 43
0.0
 10
14.11402777777778
 20
6.109130555555555
 10
14.06136111111111
 20
6.109130555555555
 10
14.01201388888889
 20
6.109130555555555
  0
LWPOLYLINE
  5
153
330
2
100
AcDbEntity
  8
PDF_Layer 1
 62
     7
420
 16777215
370
    70
100
AcDbPolyline
 90
        2
 70
     0
 43
0.0
 10
14.01201666666666
 20
6.109130555555555
 10
13.967725
 20
6.109130555555555
  0
LWPOLYLINE
  5
154
330
2
100
AcDbEntity
  8
PDF_Layer 1
 62
     7
420
 16777215
370
    70
100
AcDbPolyline
 90
        2
 70
     0
 43
0.0
 10
13.96771944444444
 20
6.109130555555555
 10
13.92845555555555
 20
6.109130555555555
  0
LWPOLYLINE
  5
155
330
2
100
AcDbEntity
  8
PDF_Layer 1
 62
     7
420
 16777215
370
    70
100
AcDbPolyline
 90
        2
 70
     0
 43
0.0
 10
13.92845277777778
 20
6.109130555555555
 10
13.89498055555555
 20
6.109130555555555
  0
LWPOLYLINE
  5
156
330
2
100
AcDbEntity
  8
PDF_Layer 1
 62
     7
420
 16777215
370
    70
100
AcDbPolyline
 90
        2
 70
     0
 43
0.0
 10
13.89497916666666
 20
6.109130555555555
 10
13.8665625
 20
6.109130555555555
  0
LWPOLYLINE
  5
157
330
2
100
AcDbEntity
  8
PDF_Layer 1
 62
     7
420
 16777215
370
    70
100
AcDbPolyline
 90
        2
 70
     0
 43
0.0
 10
13.86656388888888
 20
6.109130555555555
 10
13.84484166666666
 20
6.109130555555555
  0
LWPOLYLINE
  5
158
330
2
100
AcDbEntity
  8
PDF_Layer 1
 62
     7
420
 16777215
370
    70
100
AcDbPolyline
 90
        2
 70
     0
 43
0.0
 10
13.84483472222222
 20
6.109130555555555
 10
13.82894583333333
 20
6.109130555555555
  0
LWPOLYLINE
  5
159
330
2
100
AcDbEntity
  8
PDF_Layer 1
 62
     7
420
 16777215
370
    70
100
AcDbPolyline
 90
        2
 70
     0
 43
0.0
 10
13.82895277777778
 20
6.109130555555555
 10
13.818925
 20
6.109130555555555
  0
LWPOLYLINE
  5
15A
330
2
100
AcDbEntity
  8
PDF_Layer 1
 62
     7
420
 16777215
370
    70
100
AcDbPolyline
 90
        2
 70
     0
 43
0.0
 10
13.81892916666666
 20
6.109130555555555
 10
13.81555416666666
 20
6.109130555555555
  0
LWPOLYLINE
  5
15B
330
2
100
AcDbEntity
  8
PDF_Layer 1
 62
     7
420
 16777215
370
    70
100
AcDbPolyline
 90
        2
 70
     0
 43
0.0
 10
13.81721944444444
 20
6.109130555555555
 10
13.82059444444444
 20
6.109130555555555
  0
LWPOLYLINE
  5
15C
330
2
100
AcDbEntity
  8
PDF_Layer 1
 62
     7
420
 16777215
370
    70
100
AcDbPolyline
 90
        2
 70
     0
 43
0.0
 10
13.82059722222222
 20
6.109130555555555
 10
13.82976388888889
 20
6.109130555555555
  0
LWPOLYLINE
  5
15D
330
2
100
AcDbEntity
  8
PDF_Layer 1
 62
     7
420
 16777215
370
    70
100
AcDbPolyline
 90
        2
 70
     0
 43
0.0
 10
13.82976666666666
 20
6.109130555555555
 10
13.84564166666666
 20
6.109130555555555
  0
LWPOLYLINE
  5
15E
330
2
100
AcDbEntity
  8
PDF_Layer 1
 62
     7
420
 16777215
370
    70
100
AcDbPolyline
 90
        3
 70
     0
 43
0.0
 10
13.84563472222222
 20
6.109130555555555
 10
13.86821805555555
 20
6.109130555555555
 10
13.89582916666667
 20
6.109130555555555
  0
LWPOLYLINE
  5
160
330
2
100
AcDbEntity
  8
PDF_Layer 1
 62
     7
420
 16777215
370
    70
100
AcDbPolyline
 90
        2
 70
     0
 43
0.0
 10
13.89583333333333
 20
6.109130555555555
 10
13.930125
 20
6.109130555555555
  0
LWPOLYLINE
  5
161
330
2
100
AcDbEntity
  8
PDF_Layer 1
 62
     7
420
 16777215
370
    70
100
AcDbPolyline
 90
        2
 70
     0
 43
0.0
 10
13.93012083333333
 20
6.109130555555555
 10
13.96857916666667
 20
6.109130555555555
  0
LWPOLYLINE
  5
162
330
2
100
AcDbEntity
  8
PDF_Layer 1
 62
     7
420
 16777215
370
    70
100
AcDbPolyline
 90
        2
 70
     0
 43
0.0
 10
13.96857361111111
 20
6.109130555555555
 10
14.01286527777777
 20
6.109130555555555
  0
LWPOLYLINE
  5
163
330
2
100
AcDbEntity
  8
PDF_Layer 1
 62
     7
420
 16777215
370
    70
100
AcDbPolyline
 90
        2
 70
     0
 43
0.0
 10
14.01287222222222
 20
6.109130555555555
 10
14.06221944444444
 20
6.109130555555555
  0
LWPOLYLINE
  5
164
330
2
100
AcDbEntity
  8
PDF_Layer 1
 62
     7
420
 16777215
370
    70
100
AcDbPolyline
 90
        3
 70
     0
 43
0.0
 10
14.06221527777778
 20
6.109130555555555
 10
14.11488194444444
 20
6.109130555555555
 10
14.17174305555555
 20
6.109130555555555
  0
LWPOLYLINE
  5
166
330
2
100
AcDbEntity
  8
PDF_Layer 1
 62
     7
420
 16777215
370
    70
100
AcDbPolyline
 90
        3
 70
     0
 43
0.0
 10
14.17173888888888
 20
6.109130555555555
 10
14.23191944444444
 20
6.109130555555555
 10
14.29461388888888
 20
6.109130555555555
  0
LWPOLYLINE
  5
168
330
2
100
AcDbEntity
  8
PDF_Layer 1
 62
     7
420
 16777215
370
    70
100
AcDbPolyline
 90
        2
 70
     0
 43
0.0
 10
14.29460972222222
 20
6.109130555555555
 10
14.35898472222222
 20
6.109130555555555
  0
LWPOLYLINE
  5
16A
330
2
100
AcDbEntity
  8
PDF_Layer 1
 62
     7
420
 16777215
370
    70
100
AcDbPolyline
 90
        2
 70
     0
 43
0.0
 10
14.42591666666666
 20
6.109130555555555
 10
14.49275
 20
6.109130555555555
  0
LWPOLYLINE
  5
16C
330
2
100
AcDbEntity
  8
PDF_Layer 1
 62
     7
420
 16777215
370
    70
100
AcDbPolyline
 90
        2
 70
     0
 43
0.0
 10
14.56047916666666
 20
6.109130555555555
 10
14.62735416666666
 20
6.109130555555555
  0
LWPOLYLINE
  5
171
330
2
100
AcDbEntity
  8
PDF_Layer 1
 62
     7
420
 16777215
370
    70
100
AcDbPolyline
 90
        2
 70
     0
 43
0.0
 10
14.8815375
 20
6.109130555555555
 10
14.93752361111111
 20
6.109130555555555
  0
LWPOLYLINE
  5
172
330
2
100
AcDbEntity
  8
PDF_Layer 1
 62
     7
420
 16777215
370
    70
100
AcDbPolyline
 90
        2
 70
     0
 43
0.0
 10
14.93752777777777
 20
6.109130555555555
 10
14.99105555555555
 20
6.109130555555555
  0
LWPOLYLINE
  5
173
330
2
100
AcDbEntity
  8
PDF_Layer 1
 62
     7
420
 16777215
370
    70
100
AcDbPolyline
 90
        2
 70
     0
 43
0.0
 10
14.9910611111111
 20
6.109130555555555
 10
15.03954722222222
 20
6.109130555555555
  0
LWPOLYLINE
  5
174
330
2
100
AcDbEntity
  8
PDF_Layer 1
 62
     7
420
 16777215
370
    70
100
AcDbPolyline
 90
        2
 70
     0
 43
0.0
 10
15.03955138888889
 20
6.109130555555555
 10
15.08384305555555
 20
6.109130555555555
  0
LWPOLYLINE
  5
175
330
2
100
AcDbEntity
  8
PDF_Layer 1
 62
     7
420
 16777215
370
    70
100
AcDbPolyline
 90
        2
 70
     0
 43
0.0
 10
15.08384861111111
 20
6.109130555555555
 10
15.12315416666666
 20
6.109130555555555
  0
LWPOLYLINE
  5
176
330
2
100
AcDbEntity
  8
PDF_Layer 1
 62
     7
420
 16777215
370
    70
100
AcDbPolyline
 90
        2
 70
     0
 43
0.0
 10
15.12315555555555
 20
6.109130555555555
 10
15.15657222222222
 20
6.109130555555555
  0
LWPOLYLINE
  5
177
330
2
100
AcDbEntity
  8
PDF_Layer 1
 62
     7
420
 16777215
370
    70
100
AcDbPolyline
 90
        2
 70
     0
 43
0.0
 10
15.15657499999999
 20
6.109130555555555
 10
15.18500555555555
 20
6.109130555555555
  0
LWPOLYLINE
  5
178
330
2
100
AcDbEntity
  8
PDF_Layer 1
 62
     7
420
 16777215
370
    70
100
AcDbPolyline
 90
        2
 70
     0
 43
0.0
 10
15.18500416666666
 20
6.109130555555555
 10
15.20676805555555
 20
6.109130555555555
  0
LWPOLYLINE
  5
179
330
2
100
AcDbEntity
  8
PDF_Layer 1
 62
     7
420
 16777215
370
    70
100
AcDbPolyline
 90
        2
 70
     0
 43
0.0
 10
15.20677361111111
 20
6.109130555555555
 10
15.2226625
 20
6.109130555555555
  0
LWPOLYLINE
  5
17A
330
2
100
AcDbEntity
  8
PDF_Layer 1
 62
     7
420
 16777215
370
    70
100
AcDbPolyline
 90
        2
 70
     0
 43
0.0
 10
15.22265694444444
 20
6.109130555555555
 10
15.23268472222222
 20
6.109130555555555
  0
LWPOLYLINE
  5
17B
330
2
100
AcDbEntity
  8
PDF_Layer 1
 62
     7
420
 16777215
370
    70
100
AcDbPolyline
 90
        2
 70
     0
 43
0.0
 10
15.23267916666666
 20
6.109130555555555
 10
15.23599861111111
 20
6.109130555555555
  0
LWPOLYLINE
  5
17C
330
2
100
AcDbEntity
  8
PDF_Layer 1
 62
     7
420
 16777215
370
    70
100
AcDbPolyline
 90
       47
 70
     0
 43
0.0
 10
0.3660013888888889
 20
6.109130555555555
 10
0.3635013888888889
 20
6.108269444444444
 10
0.3601541666666667
 20
6.10745
 10
0.3576541666666666
 20
6.105783333333333
 10
0.3551263888888889
 20
6.104116666666667
 10
0.3534680555555554
 20
6.101602777777777
 42
0.1617046171848318
 10
0.3292236111111111
 20
5.995429166666666
 10
0.3325597222222222
 20
5.995429166666666
 10
0.3425902777777777
 20
5.995429166666666
 10
0.3584791666666667
 20
5.995429166666666
 10
0.3802152777777778
 20
5.995429166666666
 10
0.4077958333333334
 20
5.995429166666666
 10
0.4412361111111111
 20
5.995429166666666
 10
0.4805430555555557
 20
5.995429166666666
 10
0.5248555555555555
 20
5.995429166666666
 10
0.5733444444444445
 20
5.995429166666666
 10
0.626851388888889
 20
5.995429166666666
 10
0.6836958333333334
 20
5.995429166666666
 10
0.7439027777777777
 20
5.995429166666666
 10
0.8066069444444444
 20
5.995429166666666
 10
0.872647222222222
 20
5.995429166666666
 10
0.9395416666666667
 20
5.995429166666666
 10
1.008090277777777
 20
5.995429166666666
 10
1.076647222222222
 20
5.995429166666666
 10
1.146036111111111
 20
5.995429166666666
 10
1.213765277777777
 20
5.995429166666666
 10
1.281480555555555
 20
5.995429166666666
 10
1.346693055555555
 20
5.995429166666666
 10
1.410223611111111
 20
5.995429166666666
 10
1.470431944444444
 20
5.995429166666666
 10
1.527283333333333
 20
5.995429166666666
 10
1.579955555555555
 20
5.995429166666666
 10
1.629272222222222
 20
5.995429166666666
 10
1.672756944444444
 20
5.995429166666666
 10
1.712056944444444
 20
5.995429166666666
 10
1.745497222222221
 20
5.995429166666666
 10
1.773912499999999
 20
5.995429166666666
 10
1.795647222222221
 20
5.995429166666666
 10
1.811530555555555
 20
5.995429166666666
 10
1.820733333333333
 20
5.995429166666666
 10
1.824066666666666
 20
5.995429166666666
 42
0.1492377039785369
 10
1.800659722222221
 20
6.101602777777777
 10
1.798159722222221
 20
6.104116666666667
 10
1.796493055555555
 20
6.105783333333333
 10
1.793131944444444
 20
6.10745
 10
1.790631944444444
 20
6.108269444444444
 10
1.78729861111111
 20
6.109130555555555
  0
LWPOLYLINE
  5
19E
330
2
100
AcDbEntity
  8
PDF_Layer 1
 62
     7
420
 16777215
370
    70
100
AcDbPolyline
 90
        6
 70
     0
 43
0.0
 10
0.4128111111111111
 20
6.201916666666666
 10
0.415325
 20
6.204444444444444
 10
0.417825
 20
6.20611111111111
 10
0.4211861111111111
 20
6.206930555555555
 10
0.4245194444444444
 20
6.207763888888888
 10
0.4303805555555555
 20
6.207763888888888
  0
LWPOLYLINE
  5
19F
330
2
100
AcDbEntity
  8
PDF_Layer 1
 62
     7
420
 16777215
370
    70
100
AcDbPolyline
 90
        2
 70
     0
 43
0.0
 10
0.4303791666666667
 20
6.207763888888888
 10
0.4471013888888889
 20
6.207763888888888
  0
LWPOLYLINE
  5
1A0
330
2
100
AcDbEntity
  8
PDF_Layer 1
 62
     7
420
 16777215
370
    70
100
AcDbPolyline
 90
        2
 70
     0
 43
0.0
 10
0.4470958333333334
 20
6.207763888888888
 10
0.4738458333333334
 20
6.207763888888888
  0
LWPOLYLINE
  5
1A1
330
2
100
AcDbEntity
  8
PDF_Layer 1
 62
     7
420
 16777215
370
    70
100
AcDbPolyline
 90
        2
 70
     0
 43
0.0
 10
0.47385
 20
6.207763888888888
 10
0.5123222222222222
 20
6.207763888888888
  0
LWPOLYLINE
  5
1A2
330
2
100
AcDbEntity
  8
PDF_Layer 1
 62
     7
420
 16777215
370
    70
100
AcDbPolyline
 90
        2
 70
     0
 43
0.0
 10
0.5123152777777778
 20
6.207763888888888
 10
0.5591347222222222
 20
6.207763888888888
  0
LWPOLYLINE
  5
1A3
330
2
100
AcDbEntity
  8
PDF_Layer 1
 62
     7
420
 16777215
370
    70
100
AcDbPolyline
 90
        2
 70
     0
 43
0.0
 10
0.5591291666666667
 20
6.207763888888888
 10
0.615976388888889
 20
6.207763888888888
  0
LWPOLYLINE
  5
1A4
330
2
100
AcDbEntity
  8
PDF_Layer 1
 62
     7
420
 16777215
370
    70
100
AcDbPolyline
 90
        2
 70
     0
 43
0.0
 10
0.6159805555555554
 20
6.207763888888888
 10
0.6795083333333332
 20
6.207763888888888
  0
LWPOLYLINE
  5
1A5
330
2
100
AcDbEntity
  8
PDF_Layer 1
 62
     7
420
 16777215
370
    70
100
AcDbPolyline
 90
        2
 70
     0
 43
0.0
 10
0.6795111111111111
 20
6.207763888888888
 10
0.7505944444444444
 20
6.207763888888888
  0
LWPOLYLINE
  5
1A6
330
2
100
AcDbEntity
  8
PDF_Layer 1
 62
     7
420
 16777215
370
    70
100
AcDbPolyline
 90
        2
 70
     0
 43
0.0
 10
0.7505902777777778
 20
6.207763888888888
 10
0.8275069444444444
 20
6.207763888888888
  0
LWPOLYLINE
  5
1A7
330
2
100
AcDbEntity
  8
PDF_Layer 1
 62
     7
420
 16777215
370
    70
100
AcDbPolyline
 90
        2
 70
     0
 43
0.0
 10
0.8275013888888889
 20
6.207763888888888
 10
0.9077652777777778
 20
6.207763888888888
  0
LWPOLYLINE
  5
1A8
330
2
100
AcDbEntity
  8
PDF_Layer 1
 62
     7
420
 16777215
370
    70
100
AcDbPolyline
 90
        3
 70
     0
 43
0.0
 10
0.9077694444444443
 20
6.207763888888888
 10
0.9913666666666664
 20
6.207763888888888
 10
1.076644444444444
 20
6.207763888888888
  0
LWPOLYLINE
  5
1AA
330
2
100
AcDbEntity
  8
PDF_Layer 1
 62
     7
420
 16777215
370
    70
100
AcDbPolyline
 90
        2
 70
     0
 43
0.0
 10
1.076647222222222
 20
6.207763888888888
 10
1.161925
 20
6.207763888888888
  0
LWPOLYLINE
  5
1AB
330
2
100
AcDbEntity
  8
PDF_Layer 1
 62
     7
420
 16777215
370
    70
100
AcDbPolyline
 90
        2
 70
     0
 43
0.0
 10
1.161926388888888
 20
6.207763888888888
 10
1.245537499999999
 20
6.207763888888888
  0
LWPOLYLINE
  5
1AC
330
2
100
AcDbEntity
  8
PDF_Layer 1
 62
     7
420
 16777215
370
    70
100
AcDbPolyline
 90
        2
 70
     0
 43
0.0
 10
1.245530555555555
 20
6.207763888888888
 10
1.326627777777777
 20
6.207763888888888
  0
LWPOLYLINE
  5
1AD
330
2
100
AcDbEntity
  8
PDF_Layer 1
 62
     7
420
 16777215
370
    70
100
AcDbPolyline
 90
        2
 70
     0
 43
0.0
 10
1.326626388888888
 20
6.207763888888888
 10
1.402709722222222
 20
6.207763888888888
  0
LWPOLYLINE
  5
1AE
330
2
100
AcDbEntity
  8
PDF_Layer 1
 62
     7
420
 16777215
370
    70
100
AcDbPolyline
 90
        2
 70
     0
 43
0.0
 10
1.402702777777778
 20
6.207763888888888
 10
1.473772222222222
 20
6.207763888888888
  0
LWPOLYLINE
  5
1AF
330
2
100
AcDbEntity
  8
PDF_Layer 1
 62
     7
420
 16777215
370
    70
100
AcDbPolyline
 90
        2
 70
     0
 43
0.0
 10
1.473768055555555
 20
6.207763888888888
 10
1.538143055555555
 20
6.207763888888888
  0
LWPOLYLINE
  5
1B0
330
2
100
AcDbEntity
  8
PDF_Layer 1
 62
     7
420
 16777215
370
    70
100
AcDbPolyline
 90
        2
 70
     0
 43
0.0
 10
1.538147222222222
 20
6.207763888888888
 10
1.594161111111111
 20
6.207763888888888
  0
LWPOLYLINE
  5
1B1
330
2
100
AcDbEntity
  8
PDF_Layer 1
 62
     7
420
 16777215
370
    70
100
AcDbPolyline
 90
        2
 70
     0
 43
0.0
 10
1.594163888888888
 20
6.207763888888888
 10
1.641816666666666
 20
6.207763888888888
  0
LWPOLYLINE
  5
1B2
330
2
100
AcDbEntity
  8
PDF_Layer 1
 62
     7
420
 16777215
370
    70
100
AcDbPolyline
 90
        3
 70
     0
 43
0.0
 10
1.641818055555555
 20
6.207763888888888
 10
1.679443055555555
 20
6.207763888888888
 10
1.707026388888889
 20
6.207763888888888
  0
LWPOLYLINE
  5
1B4
330
2
100
AcDbEntity
  8
PDF_Layer 1
 62
     7
420
 16777215
370
    70
100
AcDbPolyline
 90
        2
 70
     0
 43
0.0
 10
1.707024999999999
 20
6.207763888888888
 10
1.728774999999999
 20
6.207763888888888
  0
LWPOLYLINE
  5
1B5
330
2
100
AcDbEntity
  8
PDF_Layer 1
 62
     7
420
 16777215
370
    70
100
AcDbPolyline
 90
       47
 70
     0
 43
0.0
 10
13.81555138888889
 20
6.109130555555555
 10
13.81302361111111
 20
6.108269444444444
 10
13.80970416666667
 20
6.10745
 10
13.80723194444444
 20
6.105783333333333
 10
13.80471805555555
 20
6.104116666666667
 10
13.80304583333333
 20
6.101602777777777
 42
0.1532823929468606
 10
13.77960833333333
 20
5.995429166666666
 10
13.78213194444444
 20
5.995429166666666
 10
13.79216805555555
 20
5.995429166666666
 10
13.8080375
 20
5.995429166666666
 10
13.82976666666666
 20
5.995429166666666
 10
13.85738055555555
 20
5.995429166666666
 10
13.89165555555555
 20
5.995429166666666
 10
13.93012083333333
 20
5.995429166666666
 10
13.97441944444444
 20
5.995429166666666
 10
14.02290833333333
 20
5.995429166666666
 10
14.07642916666666
 20
5.995429166666666
 10
14.1332875
 20
5.995429166666666
 10
14.19345416666667
 20
5.995429166666666
 10
14.2570125
 20
5.995429166666666
 10
14.32223888888889
 20
5.995429166666666
 10
14.38911944444444
 20
5.995429166666666
 10
14.45766805555555
 20
5.995429166666666
 10
14.52620416666666
 20
5.995429166666666
 10
14.59560833333333
 20
5.995429166666666
 10
14.66415694444444
 20
5.995429166666666
 10
14.73103888888888
 20
5.995429166666666
 10
14.79625138888889
 20
5.995429166666666
 10
14.85980972222222
 20
5.995429166666666
 10
14.91999027777777
 20
5.995429166666666
 10
14.97684722222222
 20
5.995429166666666
 10
15.02951388888889
 20
5.995429166666666
 10
15.07885694444444
 20
5.995429166666666
 10
15.12315555555555
 20
5.995429166666666
 10
15.16162083333333
 20
5.995429166666666
 10
15.19502777777777
 20
5.995429166666666
 10
15.22345694444444
 20
5.995429166666666
 10
15.24522638888888
 20
5.995429166666666
 10
15.26110833333333
 20
5.995429166666666
 10
15.27027777777778
 20
5.995429166666666
 10
15.27365277777778
 20
5.995429166666666
 42
0.1488369208257621
 10
15.25021666666667
 20
6.101602777777777
 10
15.24856388888889
 20
6.104116666666667
 10
15.24603611111111
 20
6.105783333333333
 10
15.24356388888889
 20
6.10745
 10
15.24018888888889
 20
6.108269444444444
 10
15.23685555555555
 20
6.109130555555555
  0
LWPOLYLINE
  5
1D7
330
2
100
AcDbEntity
  8
PDF_Layer 1
 62
     7
420
 16777215
370
    70
100
AcDbPolyline
 90
        6
 70
     0
 43
0.0
 10
13.86236944444444
 20
6.201916666666666
 10
13.86489722222222
 20
6.204444444444444
 10
13.86741111111111
 20
6.20611111111111
 10
13.87074444444444
 20
6.206930555555555
 10
13.87406388888888
 20
6.207763888888888
 10
13.87996666666666
 20
6.207763888888888
  0
LWPOLYLINE
  5
1D8
330
2
100
AcDbEntity
  8
PDF_Layer 1
 62
     7
420
 16777215
370
    70
100
AcDbPolyline
 90
        2
 70
     0
 43
0.0
 10
13.87996388888888
 20
6.207763888888888
 10
13.89664444444444
 20
6.207763888888888
  0
LWPOLYLINE
  5
1D9
330
2
100
AcDbEntity
  8
PDF_Layer 1
 62
     7
420
 16777215
370
    70
100
AcDbPolyline
 90
        2
 70
     0
 43
0.0
 10
13.89664722222222
 20
6.207763888888888
 10
13.92425833333333
 20
6.207763888888888
  0
LWPOLYLINE
  5
1DA
330
2
100
AcDbEntity
  8
PDF_Layer 1
 62
     7
420
 16777215
370
    70
100
AcDbPolyline
 90
        3
 70
     0
 43
0.0
 10
13.92426249999999
 20
6.207763888888888
 10
13.96185972222222
 20
6.207763888888888
 10
14.00869305555555
 20
6.207763888888888
  0
LWPOLYLINE
  5
1DC
330
2
100
AcDbEntity
  8
PDF_Layer 1
 62
     7
420
 16777215
370
    70
100
AcDbPolyline
 90
        2
 70
     0
 43
0.0
 10
14.00869444444444
 20
6.207763888888888
 10
14.06554166666666
 20
6.207763888888888
  0
LWPOLYLINE
  5
1DD
330
2
100
AcDbEntity
  8
PDF_Layer 1
 62
     7
420
 16777215
370
    70
100
AcDbPolyline
 90
        2
 70
     0
 43
0.0
 10
14.0655375
 20
6.207763888888888
 10
14.12909305555556
 20
6.207763888888888
  0
LWPOLYLINE
  5
1DE
330
2
100
AcDbEntity
  8
PDF_Layer 1
 62
     7
420
 16777215
370
    70
100
AcDbPolyline
 90
        2
 70
     0
 43
0.0
 10
14.12909583333333
 20
6.207763888888888
 10
14.20016527777778
 20
6.207763888888888
  0
LWPOLYLINE
  5
1DF
330
2
100
AcDbEntity
  8
PDF_Layer 1
 62
     7
420
 16777215
370
    70
100
AcDbPolyline
 90
        2
 70
     0
 43
0.0
 10
14.20016805555555
 20
6.207763888888888
 10
14.27707083333333
 20
6.207763888888888
  0
LWPOLYLINE
  5
1E0
330
2
100
AcDbEntity
  8
PDF_Layer 1
 62
     7
420
 16777215
370
    70
100
AcDbPolyline
 90
        2
 70
     0
 43
0.0
 10
14.27707222222222
 20
6.207763888888888
 10
14.35730833333333
 20
6.207763888888888
  0
LWPOLYLINE
  5
1E1
330
2
100
AcDbEntity
  8
PDF_Layer 1
 62
     7
420
 16777215
370
    70
100
AcDbPolyline
 90
        3
 70
     0
 43
0.0
 10
14.35731388888889
 20
6.207763888888888
 10
14.44178611111111
 20
6.207763888888888
 10
14.52620277777778
 20
6.207763888888888
  0
LWPOLYLINE
  5
1E3
330
2
100
AcDbEntity
  8
PDF_Layer 1
 62
     7
420
 16777215
370
    70
100
AcDbPolyline
 90
        2
 70
     0
 43
0.0
 10
14.52620416666666
 20
6.207763888888888
 10
14.61149583333333
 20
6.207763888888888
  0
LWPOLYLINE
  5
1E4
330
2
100
AcDbEntity
  8
PDF_Layer 1
 62
     7
420
 16777215
370
    70
100
AcDbPolyline
 90
        2
 70
     0
 43
0.0
 10
14.61149027777777
 20
6.207763888888888
 10
14.69511527777777
 20
6.207763888888888
  0
LWPOLYLINE
  5
1E5
330
2
100
AcDbEntity
  8
PDF_Layer 1
 62
     7
420
 16777215
370
    70
100
AcDbPolyline
 90
        2
 70
     0
 43
0.0
 10
14.69510972222222
 20
6.207763888888888
 10
14.77620694444444
 20
6.207763888888888
  0
LWPOLYLINE
  5
1E6
330
2
100
AcDbEntity
  8
PDF_Layer 1
 62
     7
420
 16777215
370
    70
100
AcDbPolyline
 90
        2
 70
     0
 43
0.0
 10
14.77620416666666
 20
6.207763888888888
 10
14.85225972222222
 20
6.207763888888888
  0
LWPOLYLINE
  5
1E7
330
2
100
AcDbEntity
  8
PDF_Layer 1
 62
     7
420
 16777215
370
    70
100
AcDbPolyline
 90
        2
 70
     0
 43
0.0
 10
14.85225416666666
 20
6.207763888888888
 10
14.92332361111111
 20
6.207763888888888
  0
LWPOLYLINE
  5
1E8
330
2
100
AcDbEntity
  8
PDF_Layer 1
 62
     7
420
 16777215
370
    70
100
AcDbPolyline
 90
        2
 70
     0
 43
0.0
 10
14.92332638888889
 20
6.207763888888888
 10
14.98772916666666
 20
6.207763888888888
  0
LWPOLYLINE
  5
1E9
330
2
100
AcDbEntity
  8
PDF_Layer 1
 62
     7
420
 16777215
370
    70
100
AcDbPolyline
 90
        2
 70
     0
 43
0.0
 10
14.987725
 20
6.207763888888888
 10
15.04372499999999
 20
6.207763888888888
  0
LWPOLYLINE
  5
1EA
330
2
100
AcDbEntity
  8
PDF_Layer 1
 62
     7
420
 16777215
370
    70
100
AcDbPolyline
 90
        2
 70
     0
 43
0.0
 10
15.04372777777777
 20
6.207763888888888
 10
15.09136666666666
 20
6.207763888888888
  0
LWPOLYLINE
  5
1EB
330
2
100
AcDbEntity
  8
PDF_Layer 1
 62
     7
420
 16777215
370
    70
100
AcDbPolyline
 90
        3
 70
     0
 43
0.0
 10
15.0913625
 20
6.207763888888888
 10
15.12901527777778
 20
6.207763888888888
 10
15.15657083333333
 20
6.207763888888888
  0
LWPOLYLINE
  5
1ED
330
2
100
AcDbEntity
  8
PDF_Layer 1
 62
     7
420
 16777215
370
    70
100
AcDbPolyline
 90
        2
 70
     0
 43
0.0
 10
15.15657499999999
 20
6.207763888888888
 10
15.17915833333333
 20
6.207763888888888
  0
LWPOLYLINE
  5
1F1
330
2
100
AcDbEntity
  8
PDF_Layer 1
 62
     7
420
 16777215
370
    70
100
AcDbPolyline
 90
        8
 70
     1
 43
0.0
 10
14.97517361111113
 20
6.619115277777777
 42
-0.411240307268819
 10
14.82554861111111
 20
6.46944861111111
 10
0.7781791666666665
 20
6.469447222222226
 42
-0.4113951074339107
 10
0.628526388888889
 20
6.619113888888888
 10
0.628526388888889
 20
9.310363888888888
 42
-0.4113817892683887
 10
0.7781847222222222
 20
9.460029166666664
 10
14.82554583333333
 20
9.460029166666664
 42
-0.411240510310438
 10
14.97517916666666
 20
9.310363888888886
  0
LWPOLYLINE
  5
1F6
330
2
100
AcDbEntity
  8
PDF_Layer 1
 62
     7
420
 16777215
370
    70
100
AcDbPolyline
 90
        7
 70
     0
 43
0.0
 10
0.3685097222222222
 20
6.109130555555555
 10
0.3718708333333333
 20
6.109130555555555
 10
0.3752041666666666
 20
6.110797222222222
 10
0.3777041666666666
 20
6.11331111111111
 10
0.3802180555555555
 20
6.115797222222222
 10
0.3818847222222222
 20
6.119172222222222
 10
0.3827180555555555
 20
6.122491666666666
  0
LWPOLYLINE
  5
1F7
330
2
100
AcDbEntity
  8
PDF_Layer 1
 62
     7
420
 16777215
370
    70
100
AcDbPolyline
 90
       15
 70
     0
 43
0.0
 10
1.741305555555555
 20
6.201920833333333
 10
1.747152777777777
 20
6.192726388888888
 10
1.753013888888889
 20
6.183531944444444
 10
1.757194444444444
 20
6.174351388888888
 10
1.761375
 20
6.164295833333333
 10
1.764708333333333
 20
6.154268055555555
 10
1.768055555555555
 20
6.143406944444444
 10
1.769722222222222
 20
6.133379166666666
 10
1.771402777777777
 20
6.122490277777777
 10
1.772236111111111
 20
6.119170833333333
 10
1.773916666666666
 20
6.115809722222222
 10
1.775583333333333
 20
6.113309722222221
 10
1.778930555555555
 20
6.110795833333333
 10
1.782277777777777
 20
6.109129166666666
 10
1.785611111111111
 20
6.109129166666666
  0
LWPOLYLINE
  5
1F8
330
2
100
AcDbEntity
  8
PDF_Layer 1
 62
     7
420
 16777215
370
    70
100
AcDbPolyline
 90
        9
 70
     0
 43
0.0
 10
0.4128152777777778
 20
6.201918055555553
 10
0.4061347222222222
 20
6.192723611111109
 10
0.4011208333333333
 20
6.183529166666665
 10
0.3961069444444444
 20
6.174362499999998
 10
0.3919402777777777
 20
6.164293055555553
 10
0.3885791666666666
 20
6.154265277777776
 10
0.3860791666666666
 20
6.143404166666664
 10
0.3835791666666666
 20
6.133376388888887
 10
0.3827180555555555
 20
6.122487499999998
  0
LWPOLYLINE
  5
1FB
330
2
100
AcDbEntity
  8
PDF_Layer 1
 62
     7
420
 16777215
370
    70
100
AcDbPolyline
 90
        5
 70
     0
 43
0.0
 10
1.741312499999999
 20
6.201918055555553
 10
1.73879861111111
 20
6.204445833333331
 10
1.735451388888888
 20
6.206112499999998
 10
1.732937499999999
 20
6.206931944444442
 10
1.728770833333333
 20
6.207765277777776
  0
LWPOLYLINE
  5
1FC
330
2
100
AcDbEntity
  8
PDF_Layer 1
 62
     7
420
 16777215
370
    70
100
AcDbPolyline
 90
       13
 70
     0
 43
0.0
 10
0.4328888888888889
 20
6.207763888888888
 10
0.4362222222222222
 20
6.207763888888888
 10
0.4395694444444445
 20
6.20861111111111
 10
0.4420833333333334
 20
6.210291666666666
 10
0.4445972222222223
 20
6.212777777777777
 10
0.4462638888888889
 20
6.215305555555555
 42
0.0679245106402289
 10
0.5674916666666665
 20
6.54804861111111
 10
0.5791999999999998
 20
6.607395833333333
 10
0.5909083333333332
 20
6.666770833333332
 10
0.6009361111111109
 20
6.726145833333332
 10
0.6109638888888888
 20
6.785493055555555
 10
0.6201583333333332
 20
6.844868055555554
 10
0.6285333333333332
 20
6.904215277777777
  0
LWPOLYLINE
  5
1FD
330
2
100
AcDbEntity
  8
PDF_Layer 1
 62
     7
420
 16777215
370
    70
100
AcDbPolyline
 90
        7
 70
     0
 43
0.0
 10
1.605874999999999
 20
6.469448611111111
 42
0.0538467404272632
 10
1.707872222222222
 20
6.215305555555555
 10
1.709538888888888
 20
6.212777777777777
 10
1.712052777777777
 20
6.210291666666666
 10
1.714552777777777
 20
6.20861111111111
 10
1.717052777777777
 20
6.207763888888888
 10
1.720413888888888
 20
6.207763888888888
  0
CIRCLE
  5
201
330
2
100
AcDbEntity
  8
PDF_Layer 1
 62
     7
420
 16777215
370
    70
100
AcDbCircle
 10
1.076278354141397
 20
7.844707902843692
 30
0.0
 40
0.2093819153162042
  0
CIRCLE
  5
202
330
2
100
AcDbEntity
  8
PDF_Layer 1
 62
     7
420
 16777215
370
    70
100
AcDbCircle
 10
14.52646964018757
 20
7.845205395535763
 30
0.0
 40
0.2096140804265685
  0
LWPOLYLINE
  5
207
330
2
100
AcDbEntity
  8
PDF_Layer 1
 62
     7
420
 16777215
370
    70
100
AcDbPolyline
 90
        7
 70
     0
 43
0.0
 10
13.818075
 20
6.109130555555555
 10
13.82139444444444
 20
6.109130555555555
 10
13.82476944444444
 20
6.110797222222222
 10
13.82724166666666
 20
6.11331111111111
 10
13.82976944444444
 20
6.115797222222222
 10
13.83143611111111
 20
6.119172222222222
 10
13.83228333333333
 20
6.122491666666666
  0
LWPOLYLINE
  5
208
330
2
100
AcDbEntity
  8
PDF_Layer 1
 62
     7
420
 16777215
370
    70
100
AcDbPolyline
 90
       15
 70
     0
 43
0.0
 10
15.19084861111111
 20
6.201920833333333
 10
15.19669583333333
 20
6.192726388888888
 10
15.20259861111111
 20
6.183531944444444
 10
15.20758472222222
 20
6.174351388888888
 10
15.21176527777778
 20
6.164295833333333
 10
15.21508472222222
 20
6.154268055555555
 10
15.2176125
 20
6.143406944444444
 10
15.21927916666667
 20
6.133379166666666
 10
15.2209875
 20
6.122490277777777
 10
15.22180694444444
 20
6.119170833333333
 10
15.22345972222222
 20
6.115809722222222
 10
15.22516805555555
 20
6.113309722222221
 10
15.22850138888889
 20
6.110795833333333
 10
15.23182083333333
 20
6.109129166666666
 10
15.23519583333333
 20
6.109129166666666
  0
LWPOLYLINE
  5
209
330
2
100
AcDbEntity
  8
PDF_Layer 1
 62
     7
420
 16777215
370
    70
100
AcDbPolyline
 90
        9
 70
     0
 43
0.0
 10
13.86237222222222
 20
6.201918055555553
 10
13.856525
 20
6.192723611111109
 10
13.85067777777778
 20
6.183529166666665
 10
13.84563611111111
 20
6.174362499999998
 10
13.84145555555555
 20
6.164293055555553
 10
13.83813611111111
 20
6.154265277777776
 10
13.83560833333333
 20
6.143404166666664
 10
13.83315
 20
6.133376388888887
 10
13.83228888888889
 20
6.122487499999998
  0
LWPOLYLINE
  5
20C
330
2
100
AcDbEntity
  8
PDF_Layer 1
 62
     7
420
 16777215
370
    70
100
AcDbPolyline
 90
        5
 70
     0
 43
0.0
 10
15.19085
 20
6.201918055555553
 10
15.18837777777777
 20
6.204445833333331
 10
15.18586388888889
 20
6.206112499999998
 10
15.18253055555555
 20
6.206931944444442
 10
15.17915555555555
 20
6.207765277777776
  0
LWPOLYLINE
  5
20D
330
2
100
AcDbEntity
  8
PDF_Layer 1
 62
     7
420
 16777215
370
    70
100
AcDbPolyline
 90
        7
 70
     0
 43
0.0
 10
13.88243333333333
 20
6.207763888888888
 10
13.88580833333333
 20
6.207763888888888
 10
13.88912777777777
 20
6.20861111111111
 10
13.89165555555555
 20
6.210291666666666
 10
13.89418333333333
 20
6.212777777777777
 10
13.89583611111111
 20
6.215305555555555
 42
0.0517669701413411
 10
13.99780555555556
 20
6.46944444444444
  0
LWPOLYLINE
  5
20E
330
2
100
AcDbEntity
  8
PDF_Layer 1
 62
     7
420
 16777215
370
    70
100
AcDbPolyline
 90
       13
 70
     0
 43
0.0
 10
14.97517916666666
 20
6.904208333333333
 10
14.98355416666666
 20
6.84486111111111
 10
14.99191527777777
 20
6.785486111111111
 10
15.00194305555555
 20
6.726138888888888
 10
15.01277638888889
 20
6.666763888888888
 10
15.02452638888889
 20
6.607388888888888
 10
15.03621388888888
 20
6.548048611111112
 42
0.0681456020076192
 10
15.15743055555555
 20
6.215305555555555
 10
15.15909722222222
 20
6.212777777777777
 10
15.161625
 20
6.210291666666666
 10
15.164125
 20
6.20861111111111
 10
15.16747222222222
 20
6.207763888888888
 10
15.17079166666666
 20
6.207763888888888
  0
CIRCLE
  5
212
330
2
100
AcDbEntity
  8
PDF_Layer 1
 62
     7
420
 16777215
370
    70
100
AcDbCircle
 10
14.52639253097577
 20
7.845232002614479
 30
0.0
 40
0.2389202654095018
  0
CIRCLE
  5
217
330
2
100
AcDbEntity
  8
PDF_Layer 1
 62
     7
420
 16777215
370
    70
100
AcDbCircle
 10
1.076840371737734
 20
7.845243246742561
 30
0.0
 40
0.2389224071986328
  0
LWPOLYLINE
  5
218
330
2
100
AcDbEntity
  8
PDF_Layer 1
 62
     7
420
 16777215
370
    25
100
AcDbPolyline
 90
        2
 70
     0
 43
0.0
 10
0.628526388888889
 20
9.340454166666665
 10
0.628526388888889
 20
10.35124583333333
  0
LWPOLYLINE
  5
219
330
2
100
AcDbEntity
  8
PDF_Layer 1
 62
     7
420
 16777215
370
    25
100
AcDbPolyline
 90
        2
 70
     0
 43
0.0
 10
14.97517916666666
 20
9.340454166666665
 10
14.97517916666666
 20
10.35124583333333
  0
LWPOLYLINE
  5
21A
330
2
100
AcDbEntity
  8
PDF_Layer 1
 62
     7
420
 16777215
370
    25
100
AcDbPolyline
 90
        2
 70
     0
 43
0.0
 10
0.6907138888888889
 20
10.31734166666666
 10
14.91300555555555
 20
10.31734166666666
  0
LWPOLYLINE
  5
21B
330
2
100
AcDbEntity
  8
PDF_Layer 1
 62
     7
420
 16777215
370
    25
100
AcDbPolyline
 90
        2
 70
     0
 43
0.0
 10
14.85563194444444
 20
6.46944861111111
 10
15.76103472222222
 20
6.46944861111111
  0
LWPOLYLINE
  5
21C
330
2
100
AcDbEntity
  8
PDF_Layer 1
 62
     7
420
 16777215
370
    25
100
AcDbPolyline
 90
        3
 70
     0
 43
0.0
 10
16.46622916666667
 20
9.460029166666664
 10
14.85563194444444
 20
9.460029166666664
 10
15.76103472222222
 20
9.460029166666664
  0
LWPOLYLINE
  5
21D
330
2
100
AcDbEntity
  8
PDF_Layer 1
 62
     7
420
 16777215
370
    25
100
AcDbPolyline
 90
        2
 70
     0
 43
0.0
 10
15.72631805555555
 20
6.531636111111111
 10
15.72631805555555
 20
9.397844444444444
  0
LWPOLYLINE
  5
21E
330
2
100
AcDbEntity
  8
PDF_Layer 1
 62
     7
420
 16777215
370
    25
100
AcDbPolyline
 90
        2
 70
     0
 43
0.0
 10
15.27027777777778
 20
5.995429166666666
 10
16.46622222222222
 20
5.995429166666666
  0
LWPOLYLINE
  5
220
330
2
100
AcDbEntity
  8
PDF_Layer 1
 62
     7
420
 16777215
370
    25
100
AcDbPolyline
 90
        2
 70
     0
 43
0.0
 10
16.42656805555555
 20
6.057616666666667
 10
16.42656805555555
 20
9.397852777777778
  0
LWPOLYLINE
  5
221
330
2
100
AcDbEntity
  8
PDF_Layer 1
 62
     7
420
 16777215
370
    25
100
AcDbPolyline
 90
        2
 70
     0
 43
0.0
 10
1.289843055555555
 20
2.671319444444444
 10
1.353370833333333
 20
2.671319444444444
  0
LWPOLYLINE
  5
222
330
2
100
AcDbEntity
  8
PDF_Layer 1
 62
     7
420
 16777215
370
    25
100
AcDbPolyline
 90
        3
 70
     0
 43
0.0
 10
1.013105555555555
 20
2.671319444444444
 10
1.076647222222222
 20
2.671319444444444
 10
1.140188888888888
 20
2.671319444444444
  0
LWPOLYLINE
  5
223
330
2
100
AcDbEntity
  8
PDF_Layer 1
 62
     7
420
 16777215
370
    25
100
AcDbPolyline
 90
        2
 70
     0
 43
0.0
 10
1.170294444444444
 20
2.671319444444444
 10
1.259738888888888
 20
2.671319444444444
  0
LWPOLYLINE
  5
225
330
2
100
AcDbEntity
  8
PDF_Layer 1
 62
     7
420
 16777215
370
    25
100
AcDbPolyline
 90
        2
 70
     0
 43
0.0
 10
0.9830055555555555
 20
2.671319444444444
 10
0.8935611111111111
 20
2.671319444444444
  0
LWPOLYLINE
  5
226
330
2
100
AcDbEntity
  8
PDF_Layer 1
 62
     7
420
 16777215
370
    25
100
AcDbPolyline
 90
        2
 70
     0
 43
0.0
 10
0.8634513888888889
 20
2.671319444444444
 10
0.8007569444444445
 20
2.671319444444444
  0
LWPOLYLINE
  5
227
330
2
100
AcDbEntity
  8
PDF_Layer 1
 62
     7
420
 16777215
370
    25
100
AcDbPolyline
 90
        2
 70
     0
 43
0.0
 10
1.076647222222222
 20
2.458130555555555
 10
1.076647222222222
 20
2.394588888888889
  0
LWPOLYLINE
  5
228
330
2
100
AcDbEntity
  8
PDF_Layer 1
 62
     7
420
 16777215
370
    25
100
AcDbPolyline
 90
        3
 70
     0
 43
0.0
 10
1.076647222222222
 20
2.734847222222222
 10
1.076647222222222
 20
2.671319444444444
 10
1.076647222222222
 20
2.607791666666666
  0
LWPOLYLINE
  5
229
330
2
100
AcDbEntity
  8
PDF_Layer 1
 62
     7
420
 16777215
370
    25
100
AcDbPolyline
 90
        2
 70
     0
 43
0.0
 10
1.076647222222222
 20
2.577677777777777
 10
1.076647222222222
 20
2.488219444444444
  0
LWPOLYLINE
  5
22B
330
2
100
AcDbEntity
  8
PDF_Layer 1
 62
     7
420
 16777215
370
    25
100
AcDbPolyline
 90
        2
 70
     0
 43
0.0
 10
1.076647222222222
 20
2.764959722222222
 10
1.076647222222222
 20
2.854404166666666
  0
LWPOLYLINE
  5
22C
330
2
100
AcDbEntity
  8
PDF_Layer 1
 62
     7
420
 16777215
370
    25
100
AcDbPolyline
 90
        2
 70
     0
 43
0.0
 10
1.076647222222222
 20
2.884508333333333
 10
1.076647222222222
 20
2.948049999999999
  0
LWPOLYLINE
  5
22D
330
2
100
AcDbEntity
  8
PDF_Layer 1
 62
     7
420
 16777215
370
    25
100
AcDbPolyline
 90
        2
 70
     0
 43
0.0
 10
14.73940694444444
 20
2.671319444444444
 10
14.8029625
 20
2.671319444444444
  0
LWPOLYLINE
  5
22E
330
2
100
AcDbEntity
  8
PDF_Layer 1
 62
     7
420
 16777215
370
    25
100
AcDbPolyline
 90
        3
 70
     0
 43
0.0
 10
14.46264861111111
 20
2.671319444444444
 10
14.52620416666666
 20
2.671319444444444
 10
14.58975972222222
 20
2.671319444444444
  0
LWPOLYLINE
  5
22F
330
2
100
AcDbEntity
  8
PDF_Layer 1
 62
     7
420
 16777215
370
    25
100
AcDbPolyline
 90
        2
 70
     0
 43
0.0
 10
14.61985972222222
 20
2.671319444444444
 10
14.70930416666666
 20
2.671319444444444
  0
LWPOLYLINE
  5
231
330
2
100
AcDbEntity
  8
PDF_Layer 1
 62
     7
420
 16777215
370
    25
100
AcDbPolyline
 90
        2
 70
     0
 43
0.0
 10
14.43341805555555
 20
2.671319444444444
 10
14.34309861111111
 20
2.671319444444444
  0
LWPOLYLINE
  5
232
330
2
100
AcDbEntity
  8
PDF_Layer 1
 62
     7
420
 16777215
370
    25
100
AcDbPolyline
 90
        2
 70
     0
 43
0.0
 10
14.31386944444444
 20
2.671319444444444
 10
14.25031388888888
 20
2.671319444444444
  0
LWPOLYLINE
  5
233
330
2
100
AcDbEntity
  8
PDF_Layer 1
 62
     7
420
 16777215
370
    25
100
AcDbPolyline
 90
        2
 70
     0
 43
0.0
 10
14.52620416666666
 20
2.458130555555555
 10
14.52620416666666
 20
2.394588888888889
  0
LWPOLYLINE
  5
234
330
2
100
AcDbEntity
  8
PDF_Layer 1
 62
     7
420
 16777215
370
    25
100
AcDbPolyline
 90
        3
 70
     0
 43
0.0
 10
14.52620416666666
 20
2.734847222222222
 10
14.52620416666666
 20
2.671319444444444
 10
14.52620416666666
 20
2.607791666666666
  0
LWPOLYLINE
  5
235
330
2
100
AcDbEntity
  8
PDF_Layer 1
 62
     7
420
 16777215
370
    25
100
AcDbPolyline
 90
        2
 70
     0
 43
0.0
 10
14.52620416666666
 20
2.577677777777777
 10
14.52620416666666
 20
2.488219444444444
  0
LWPOLYLINE
  5
237
330
2
100
AcDbEntity
  8
PDF_Layer 1
 62
     7
420
 16777215
370
    25
100
AcDbPolyline
 90
        2
 70
     0
 43
0.0
 10
14.52620416666666
 20
2.764959722222222
 10
14.52620416666666
 20
2.854404166666666
  0
LWPOLYLINE
  5
238
330
2
100
AcDbEntity
  8
PDF_Layer 1
 62
     7
420
 16777215
370
    25
100
AcDbPolyline
 90
        2
 70
     0
 43
0.0
 10
14.52620416666666
 20
2.884508333333333
 10
14.52620416666666
 20
2.948049999999999
  0
LWPOLYLINE
  5
239
330
2
100
AcDbEntity
  8
PDF_Layer 1
 62
     7
420
 16777215
370
    25
100
AcDbPolyline
 90
        3
 70
     0
 43
0.0
 10
1.076647222222222
 20
4.099297222222222
 10
1.076647222222222
 20
4.054144444444443
 10
1.076647222222222
 20
4.009852777777776
  0
LWPOLYLINE
  5
23B
330
2
100
AcDbEntity
  8
PDF_Layer 1
 62
     7
420
 16777215
370
    25
100
AcDbPolyline
 90
        3
 70
     0
 43
0.0
 10
1.076647222222222
 20
4.009847222222221
 10
1.076647222222222
 20
3.934597222222221
 10
1.076647222222222
 20
3.860194444444443
  0
LWPOLYLINE
  5
23D
330
2
100
AcDbEntity
  8
PDF_Layer 1
 62
     7
420
 16777215
370
    25
100
AcDbPolyline
 90
        4
 70
     1
 43
0.0
 10
1.076647222222222
 20
3.769897222222221
 10
1.076647222222222
 20
3.815022222222221
 10
1.076647222222222
 20
3.860188888888888
 10
1.076647222222222
 20
3.815022222222221
  0
LWPOLYLINE
  5
241
330
2
100
AcDbEntity
  8
PDF_Layer 1
 62
     7
420
 16777215
370
    25
100
AcDbPolyline
 90
        2
 70
     0
 43
0.0
 10
1.076647222222222
 20
3.769897222222221
 10
1.076647222222222
 20
3.321758333333332
  0
LWPOLYLINE
  5
242
330
2
100
AcDbEntity
  8
PDF_Layer 1
 62
     7
420
 16777215
370
    25
100
AcDbPolyline
 90
        2
 70
     0
 43
0.0
 10
1.076647222222222
 20
3.291666666666666
 10
1.076647222222222
 20
3.202222222222221
  0
LWPOLYLINE
  5
243
330
2
100
AcDbEntity
  8
PDF_Layer 1
 62
     7
420
 16777215
370
    25
100
AcDbPolyline
 90
        2
 70
     0
 43
0.0
 10
1.076647222222222
 20
3.172105555555555
 10
1.076647222222222
 20
2.723980555555555
  0
LWPOLYLINE
  5
244
330
2
100
AcDbEntity
  8
PDF_Layer 1
 62
     7
420
 16777215
370
    25
100
AcDbPolyline
 90
        3
 70
     0
 43
0.0
 10
1.076647222222222
 20
2.72398611111111
 10
1.076647222222222
 20
2.678847222222222
 10
1.076647222222222
 20
2.633694444444444
  0
LWPOLYLINE
  5
246
330
2
100
AcDbEntity
  8
PDF_Layer 1
 62
     7
420
 16777215
370
    25
100
AcDbPolyline
 90
        3
 70
     0
 43
0.0
 10
14.52620416666666
 20
4.099297222222222
 10
14.52620416666666
 20
4.054144444444443
 10
14.52620416666666
 20
4.009852777777776
  0
LWPOLYLINE
  5
248
330
2
100
AcDbEntity
  8
PDF_Layer 1
 62
     7
420
 16777215
370
    25
100
AcDbPolyline
 90
        3
 70
     0
 43
0.0
 10
14.52620416666666
 20
4.009847222222221
 10
14.52620416666666
 20
3.934597222222221
 10
14.52620416666666
 20
3.860194444444443
  0
LWPOLYLINE
  5
24A
330
2
100
AcDbEntity
  8
PDF_Layer 1
 62
     7
420
 16777215
370
    25
100
AcDbPolyline
 90
        4
 70
     1
 43
0.0
 10
14.52620416666666
 20
3.769897222222221
 10
14.52620416666666
 20
3.815022222222221
 10
14.52620416666666
 20
3.860188888888888
 10
14.52620416666666
 20
3.815022222222221
  0
LWPOLYLINE
  5
24E
330
2
100
AcDbEntity
  8
PDF_Layer 1
 62
     7
420
 16777215
370
    25
100
AcDbPolyline
 90
        2
 70
     0
 43
0.0
 10
14.52620416666666
 20
3.769897222222221
 10
14.52620416666666
 20
3.321758333333332
  0
LWPOLYLINE
  5
24F
330
2
100
AcDbEntity
  8
PDF_Layer 1
 62
     7
420
 16777215
370
    25
100
AcDbPolyline
 90
        2
 70
     0
 43
0.0
 10
14.52620416666666
 20
3.291666666666666
 10
14.52620416666666
 20
3.202222222222221
  0
LWPOLYLINE
  5
250
330
2
100
AcDbEntity
  8
PDF_Layer 1
 62
     7
420
 16777215
370
    25
100
AcDbPolyline
 90
        2
 70
     0
 43
0.0
 10
14.52620416666666
 20
3.172105555555555
 10
14.52620416666666
 20
2.723980555555555
  0
LWPOLYLINE
  5
251
330
2
100
AcDbEntity
  8
PDF_Layer 1
 62
     7
420
 16777215
370
    25
100
AcDbPolyline
 90
        3
 70
     0
 43
0.0
 10
14.52620416666666
 20
2.72398611111111
 10
14.52620416666666
 20
2.678847222222222
 10
14.52620416666666
 20
2.633694444444444
  0
LWPOLYLINE
  5
253
330
2
100
AcDbEntity
  8
PDF_Layer 1
 62
     7
420
 16777215
370
    70
100
AcDbPolyline
 90
        2
 70
     0
 43
0.0
 10
14.66083472222222
 20
3.407049999999999
 10
14.66083472222222
 20
3.725577777777777
  0
LWPOLYLINE
  5
254
330
2
100
AcDbEntity
  8
PDF_Layer 1
 62
     7
420
 16777215
370
    70
100
AcDbPolyline
 90
        2
 70
     0
 43
0.0
 10
14.39158749999999
 20
3.725572222222222
 10
14.39158749999999
 20
3.407044444444444
  0
LWPOLYLINE
  5
255
330
2
100
AcDbEntity
  8
PDF_Layer 1
 62
     7
420
 16777215
370
    70
100
AcDbPolyline
 90
        2
 70
     0
 43
0.0
 10
1.211255555555555
 20
3.407049999999999
 10
1.211255555555555
 20
3.725577777777777
  0
LWPOLYLINE
  5
256
330
2
100
AcDbEntity
  8
PDF_Layer 1
 62
     7
420
 16777215
370
    70
100
AcDbPolyline
 90
        2
 70
     0
 43
0.0
 10
0.94205
 20
3.725572222222222
 10
0.94205
 20
3.407044444444444
  0
LWPOLYLINE
  5
257
330
2
100
AcDbEntity
  8
PDF_Layer 1
 62
     7
420
 16777215
370
    70
100
AcDbPolyline
 90
        7
 70
     0
 43
0.0
 10
1.3157625
 20
3.9045
 10
1.3157625
 20
3.934597222222221
 10
1.222943055555555
 20
3.964694444444443
 42
0.6727729449028592
 10
1.076641666666666
 20
4.32334722222222
 42
0.6699826726262703
 10
0.9303458333333335
 20
3.964694444444443
 10
0.8375347222222222
 20
3.934597222222221
 10
0.8417152777777777
 20
3.934597222222221
  0
LWPOLYLINE
  5
258
330
2
100
AcDbEntity
  8
PDF_Layer 1
 62
     7
420
 16777215
370
    70
100
AcDbPolyline
 90
        2
 70
     0
 43
0.0
 10
0.8375305555555554
 20
3.934597222222221
 10
0.8375305555555554
 20
3.904499999999998
  0
LWPOLYLINE
  5
25B
330
2
100
AcDbEntity
  8
PDF_Layer 1
 62
     7
420
 16777215
370
    70
100
AcDbPolyline
 90
        7
 70
     0
 43
0.0
 10
14.7653125
 20
3.9045
 10
14.7653125
 20
3.934597222222221
 10
14.67338194444444
 20
3.964694444444443
 42
0.6702877706708849
 10
14.5262
 20
4.323347222222247
 42
0.6701171704677927
 10
14.37989583333333
 20
3.964694444444443
 10
14.28710694444444
 20
3.934597222222221
 10
14.2912875
 20
3.934597222222221
  0
LWPOLYLINE
  5
25C
330
2
100
AcDbEntity
  8
PDF_Layer 1
 62
     7
420
 16777215
370
    70
100
AcDbPolyline
 90
        2
 70
     0
 43
0.0
 10
14.28710972222222
 20
3.934597222222221
 10
14.28710972222222
 20
3.904499999999998
  0
LWPOLYLINE
  5
25F
330
2
100
AcDbEntity
  8
PDF_Layer 1
 62
     7
420
 16777215
370
    70
100
AcDbPolyline
 90
        2
 70
     0
 43
0.0
 10
1.157741666666666
 20
2.693047222222222
 10
1.157741666666666
 20
2.690533333333333
  0
LWPOLYLINE
  5
260
330
2
100
AcDbEntity
  8
PDF_Layer 1
 62
     7
420
 16777215
370
    70
100
AcDbPolyline
 90
        2
 70
     0
 43
0.0
 10
1.157741666666666
 20
2.690537499999999
 10
1.157741666666666
 20
2.687204166666666
  0
LWPOLYLINE
  5
261
330
2
100
AcDbEntity
  8
PDF_Layer 1
 62
     7
420
 16777215
370
    70
100
AcDbPolyline
 90
        2
 70
     0
 43
0.0
 10
1.157741666666666
 20
2.687201388888888
 10
1.158574999999999
 20
2.684687499999999
  0
LWPOLYLINE
  5
262
330
2
100
AcDbEntity
  8
PDF_Layer 1
 62
     7
420
 16777215
370
    70
100
AcDbPolyline
 90
        4
 70
     0
 43
0.0
 10
1.158576388888889
 20
2.684693055555555
 10
1.158576388888889
 20
2.681359722222222
 42
-27.4468321066946
 10
1.156066666666666
 20
2.693047222222222
 10
1.157747222222222
 20
2.693047222222222
  0
LWPOLYLINE
  5
263
330
2
100
AcDbEntity
  8
PDF_Layer 1
 62
     7
420
 16777215
370
    70
100
AcDbPolyline
 90
        4
 70
     1
 43
0.0
 10
1.338331944444444
 20
3.217258333333333
 10
1.338331944444444
 20
2.125383333333333
 42
-0.2281698653743952
 10
0.8149555555555554
 20
2.125379166666666
 10
0.8149555555555554
 20
3.217254166666666
 42
-0.2282232313747658
  0
LWPOLYLINE
  5
266
330
2
100
AcDbEntity
  8
PDF_Layer 1
 62
     7
420
 16777215
370
    70
100
AcDbPolyline
 90
        2
 70
     0
 43
0.0
 10
14.6073
 20
2.693047222222222
 10
14.6073
 20
2.690533333333333
  0
LWPOLYLINE
  5
267
330
2
100
AcDbEntity
  8
PDF_Layer 1
 62
     7
420
 16777215
370
    70
100
AcDbPolyline
 90
        2
 70
     0
 43
0.0
 10
14.6073
 20
2.690537499999999
 10
14.60816111111111
 20
2.687204166666666
  0
LWPOLYLINE
  5
268
330
2
100
AcDbEntity
  8
PDF_Layer 1
 62
     7
420
 16777215
370
    70
100
AcDbPolyline
 90
        2
 70
     0
 43
0.0
 10
14.60816805555555
 20
2.687201388888888
 10
14.60816805555555
 20
2.684687499999999
  0
LWPOLYLINE
  5
269
330
2
100
AcDbEntity
  8
PDF_Layer 1
 62
     7
420
 16777215
370
    70
100
AcDbPolyline
 90
        4
 70
     0
 43
0.0
 10
14.60816805555555
 20
2.684693055555555
 10
14.60816805555555
 20
2.681359722222222
 42
-27.44238129689391
 10
14.60564444444444
 20
2.693047222222222
 10
14.60729722222222
 20
2.693047222222222
  0
LWPOLYLINE
  5
26A
330
2
100
AcDbEntity
  8
PDF_Layer 1
 62
     7
420
 16777215
370
    70
100
AcDbPolyline
 90
        4
 70
     1
 43
0.0
 10
14.26538055555555
 20
2.125379166666666
 10
14.26538194444445
 20
3.217258333333317
 42
-0.2285485227291347
 10
14.78789583333333
 20
3.217258333333333
 10
14.78789583333333
 20
2.125383333333333
 42
-0.2286122789312705
  0
LWPOLYLINE
  5
26D
330
2
100
AcDbEntity
  8
PDF_Layer 1
 62
     7
420
 16777215
370
    70
100
AcDbPolyline
 90
        2
 70
     0
 43
0.0
 10
14.52620416666666
 20
3.964694444444443
 10
14.49359305555555
 20
3.964694444444443
  0
LWPOLYLINE
  5
26E
330
2
100
AcDbEntity
  8
PDF_Layer 1
 62
     7
420
 16777215
370
    70
100
AcDbPolyline
 90
        2
 70
     0
 43
0.0
 10
14.49359861111111
 20
3.964694444444443
 10
14.46264027777778
 20
3.964694444444443
  0
LWPOLYLINE
  5
26F
330
2
100
AcDbEntity
  8
PDF_Layer 1
 62
     7
420
 16777215
370
    70
100
AcDbPolyline
 90
        2
 70
     0
 43
0.0
 10
14.46264583333333
 20
3.964694444444443
 10
14.43509027777778
 20
3.964694444444443
  0
LWPOLYLINE
  5
270
330
2
100
AcDbEntity
  8
PDF_Layer 1
 62
     7
420
 16777215
370
    70
100
AcDbPolyline
 90
        2
 70
     0
 43
0.0
 10
14.43508611111111
 20
3.964694444444443
 10
14.41165555555555
 20
3.964694444444443
  0
LWPOLYLINE
  5
271
330
2
100
AcDbEntity
  8
PDF_Layer 1
 62
     7
420
 16777215
370
    70
100
AcDbPolyline
 90
        2
 70
     0
 43
0.0
 10
14.41164861111111
 20
3.964694444444443
 10
14.39496805555555
 20
3.964694444444443
  0
LWPOLYLINE
  5
272
330
2
100
AcDbEntity
  8
PDF_Layer 1
 62
     7
420
 16777215
370
    70
100
AcDbPolyline
 90
        2
 70
     0
 43
0.0
 10
14.39496527777778
 20
3.964694444444443
 10
14.38407638888889
 20
3.964694444444443
  0
LWPOLYLINE
  5
273
330
2
100
AcDbEntity
  8
PDF_Layer 1
 62
     7
420
 16777215
370
    70
100
AcDbPolyline
 90
        2
 70
     0
 43
0.0
 10
14.3840736111111
 20
3.964694444444443
 10
14.37989305555555
 20
3.964694444444443
  0
LWPOLYLINE
  5
274
330
2
100
AcDbEntity
  8
PDF_Layer 1
 62
     7
420
 16777215
370
    70
100
AcDbPolyline
 90
        2
 70
     0
 43
0.0
 10
14.67338055555555
 20
3.964694444444443
 10
14.6692
 20
3.964694444444443
  0
LWPOLYLINE
  5
275
330
2
100
AcDbEntity
  8
PDF_Layer 1
 62
     7
420
 16777215
370
    70
100
AcDbPolyline
 90
        2
 70
     0
 43
0.0
 10
14.66920277777777
 20
3.964694444444443
 10
14.65831388888888
 20
3.964694444444443
  0
LWPOLYLINE
  5
276
330
2
100
AcDbEntity
  8
PDF_Layer 1
 62
     7
420
 16777215
370
    70
100
AcDbPolyline
 90
        2
 70
     0
 43
0.0
 10
14.65831111111111
 20
3.964694444444443
 10
14.64076944444444
 20
3.964694444444443
  0
LWPOLYLINE
  5
277
330
2
100
AcDbEntity
  8
PDF_Layer 1
 62
     7
420
 16777215
370
    70
100
AcDbPolyline
 90
        2
 70
     0
 43
0.0
 10
14.64077361111111
 20
3.964694444444443
 10
14.61819027777778
 20
3.964694444444443
  0
LWPOLYLINE
  5
278
330
2
100
AcDbEntity
  8
PDF_Layer 1
 62
     7
420
 16777215
370
    70
100
AcDbPolyline
 90
        2
 70
     0
 43
0.0
 10
14.61819166666666
 20
3.964694444444443
 10
14.58976111111111
 20
3.964694444444443
  0
LWPOLYLINE
  5
279
330
2
100
AcDbEntity
  8
PDF_Layer 1
 62
     7
420
 16777215
370
    70
100
AcDbPolyline
 90
        2
 70
     0
 43
0.0
 10
14.5897625
 20
3.964694444444443
 10
14.55881805555555
 20
3.964694444444443
  0
LWPOLYLINE
  5
27A
330
2
100
AcDbEntity
  8
PDF_Layer 1
 62
     7
420
 16777215
370
    70
100
AcDbPolyline
 90
        2
 70
     0
 43
0.0
 10
14.558825
 20
3.964694444444443
 10
14.5262
 20
3.964694444444443
  0
LWPOLYLINE
  5
27B
330
2
100
AcDbEntity
  8
PDF_Layer 1
 62
     7
420
 16777215
370
    70
100
AcDbPolyline
 90
        2
 70
     0
 43
0.0
 10
14.52620416666666
 20
3.934597222222221
 10
14.48523194444444
 20
3.934597222222221
  0
LWPOLYLINE
  5
27C
330
2
100
AcDbEntity
  8
PDF_Layer 1
 62
     7
420
 16777215
370
    70
100
AcDbPolyline
 90
        2
 70
     0
 43
0.0
 10
14.48522916666667
 20
3.934597222222221
 10
14.44510416666667
 20
3.934597222222221
  0
LWPOLYLINE
  5
27D
330
2
100
AcDbEntity
  8
PDF_Layer 1
 62
     7
420
 16777215
370
    70
100
AcDbPolyline
 90
        2
 70
     0
 43
0.0
 10
14.44510972222222
 20
3.934597222222221
 10
14.40665138888889
 20
3.934597222222221
  0
LWPOLYLINE
  5
27E
330
2
100
AcDbEntity
  8
PDF_Layer 1
 62
     7
420
 16777215
370
    70
100
AcDbPolyline
 90
        2
 70
     0
 43
0.0
 10
14.40665694444444
 20
3.934597222222221
 10
14.37319861111111
 20
3.934597222222221
  0
LWPOLYLINE
  5
27F
330
2
100
AcDbEntity
  8
PDF_Layer 1
 62
     7
420
 16777215
370
    70
100
AcDbPolyline
 90
        3
 70
     0
 43
0.0
 10
14.37319583333333
 20
3.934597222222221
 10
14.34309861111111
 20
3.934597222222221
 10
14.31970972222222
 20
3.934597222222221
  0
LWPOLYLINE
  5
281
330
2
100
AcDbEntity
  8
PDF_Layer 1
 62
     7
420
 16777215
370
    70
100
AcDbPolyline
 90
        2
 70
     0
 43
0.0
 10
14.31971527777777
 20
3.934597222222221
 10
14.30211805555555
 20
3.934597222222221
  0
LWPOLYLINE
  5
282
330
2
100
AcDbEntity
  8
PDF_Layer 1
 62
     7
420
 16777215
370
    70
100
AcDbPolyline
 90
        2
 70
     0
 43
0.0
 10
14.30212361111111
 20
3.934597222222221
 10
14.29129027777777
 20
3.934597222222221
  0
LWPOLYLINE
  5
284
330
2
100
AcDbEntity
  8
PDF_Layer 1
 62
     7
420
 16777215
370
    70
100
AcDbPolyline
 90
        2
 70
     0
 43
0.0
 10
14.7653125
 20
3.934597222222221
 10
14.76199305555555
 20
3.934597222222221
  0
LWPOLYLINE
  5
285
330
2
100
AcDbEntity
  8
PDF_Layer 1
 62
     7
420
 16777215
370
    70
100
AcDbPolyline
 90
        2
 70
     0
 43
0.0
 10
14.76199027777777
 20
3.934597222222221
 10
14.75110138888888
 20
3.934597222222221
  0
LWPOLYLINE
  5
286
330
2
100
AcDbEntity
  8
PDF_Layer 1
 62
     7
420
 16777215
370
    70
100
AcDbPolyline
 90
        2
 70
     0
 43
0.0
 10
14.75109861111111
 20
3.934597222222221
 10
14.73355694444444
 20
3.934597222222221
  0
LWPOLYLINE
  5
287
330
2
100
AcDbEntity
  8
PDF_Layer 1
 62
     7
420
 16777215
370
    70
100
AcDbPolyline
 90
        2
 70
     0
 43
0.0
 10
14.73356111111111
 20
3.934597222222221
 10
14.70931111111111
 20
3.934597222222221
  0
LWPOLYLINE
  5
288
330
2
100
AcDbEntity
  8
PDF_Layer 1
 62
     7
420
 16777215
370
    70
100
AcDbPolyline
 90
        2
 70
     0
 43
0.0
 10
14.70930972222222
 20
3.934597222222221
 10
14.68003194444444
 20
3.934597222222221
  0
LWPOLYLINE
  5
289
330
2
100
AcDbEntity
  8
PDF_Layer 1
 62
     7
420
 16777215
370
    70
100
AcDbPolyline
 90
        2
 70
     0
 43
0.0
 10
14.68002638888889
 20
3.934597222222221
 10
14.6457625
 20
3.934597222222221
  0
LWPOLYLINE
  5
28A
330
2
100
AcDbEntity
  8
PDF_Layer 1
 62
     7
420
 16777215
370
    70
100
AcDbPolyline
 90
        3
 70
     0
 43
0.0
 10
14.64576527777778
 20
3.934597222222221
 10
14.60816805555555
 20
3.934597222222221
 10
14.5679875
 20
3.934597222222221
  0
LWPOLYLINE
  5
28C
330
2
100
AcDbEntity
  8
PDF_Layer 1
 62
     7
420
 16777215
370
    70
100
AcDbPolyline
 90
        2
 70
     0
 43
0.0
 10
14.56799305555555
 20
3.934597222222221
 10
14.52620138888889
 20
3.934597222222221
  0
LWPOLYLINE
  5
28D
330
2
100
AcDbEntity
  8
PDF_Layer 1
 62
     7
420
 16777215
370
    70
100
AcDbPolyline
 90
        4
 70
     0
 43
0.0
 10
14.94090138888889
 20
3.725572222222222
 10
14.94509583333333
 20
3.725572222222222
 10
14.97517916666666
 20
3.755683333333333
 10
14.97517916666666
 20
3.875225
  0
LWPOLYLINE
  5
28E
330
2
100
AcDbEntity
  8
PDF_Layer 1
 62
     7
420
 16777215
370
    70
100
AcDbPolyline
 90
        2
 70
     0
 43
0.0
 10
14.96010972222222
 20
3.755683333333333
 10
14.97099861111111
 20
3.755683333333333
  0
LWPOLYLINE
  5
28F
330
2
100
AcDbEntity
  8
PDF_Layer 1
 62
     7
420
 16777215
370
    70
100
AcDbPolyline
 90
        2
 70
     0
 43
0.0
 10
14.97100138888889
 20
3.755683333333333
 10
14.97518194444444
 20
3.755683333333333
  0
LWPOLYLINE
  5
290
330
2
100
AcDbEntity
  8
PDF_Layer 1
 62
     7
420
 16777215
370
    70
100
AcDbPolyline
 90
        2
 70
     0
 43
0.0
 10
14.97517916666666
 20
3.875230555555555
 10
14.97099861111111
 20
3.875230555555555
  0
LWPOLYLINE
  5
291
330
2
100
AcDbEntity
  8
PDF_Layer 1
 62
     7
420
 16777215
370
    70
100
AcDbPolyline
 90
        2
 70
     0
 43
0.0
 10
14.97100138888889
 20
3.875230555555555
 10
14.9601125
 20
3.875230555555555
  0
LWPOLYLINE
  5
292
330
2
100
AcDbEntity
  8
PDF_Layer 1
 62
     7
420
 16777215
370
    70
100
AcDbPolyline
 90
        3
 70
     0
 43
0.0
 10
0.6318736111111111
 20
3.755683333333333
 10
0.628526388888889
 20
3.755683333333333
 10
0.628526388888889
 20
3.875225
  0
LWPOLYLINE
  5
294
330
2
100
AcDbEntity
  8
PDF_Layer 1
 62
     7
420
 16777215
370
    70
100
AcDbPolyline
 90
        2
 70
     0
 43
0.0
 10
0.6318694444444444
 20
3.755683333333333
 10
0.6435777777777778
 20
3.755683333333333
  0
LWPOLYLINE
  5
295
330
2
100
AcDbEntity
  8
PDF_Layer 1
 62
     7
420
 16777215
370
    70
100
AcDbPolyline
 90
        2
 70
     0
 43
0.0
 10
0.6435749999999999
 20
3.875230555555555
 10
0.6318666666666666
 20
3.875230555555555
  0
LWPOLYLINE
  5
296
330
2
100
AcDbEntity
  8
PDF_Layer 1
 62
     7
420
 16777215
370
    70
100
AcDbPolyline
 90
        2
 70
     0
 43
0.0
 10
0.6318694444444444
 20
3.875230555555555
 10
0.6285222222222222
 20
3.875230555555555
  0
LWPOLYLINE
  5
297
330
2
100
AcDbEntity
  8
PDF_Layer 1
 62
     7
420
 16777215
370
    70
100
AcDbPolyline
 90
        2
 70
     0
 43
0.0
 10
14.82554861111111
 20
3.725572222222222
 10
0.7781875000000032
 20
3.725572222222222
  0
LWPOLYLINE
  5
299
330
2
100
AcDbEntity
  8
PDF_Layer 1
 62
     7
420
 16777215
370
    70
100
AcDbPolyline
 90
        2
 70
     0
 43
0.0
 10
14.94090416666667
 20
3.725572222222222
 10
14.92916805555555
 20
3.725572222222222
  0
LWPOLYLINE
  5
29A
330
2
100
AcDbEntity
  8
PDF_Layer 1
 62
     7
420
 16777215
370
    70
100
AcDbPolyline
 90
        2
 70
     0
 43
0.0
 10
14.92917222222222
 20
3.725572222222222
 10
14.90996388888889
 20
3.725572222222222
  0
LWPOLYLINE
  5
29B
330
2
100
AcDbEntity
  8
PDF_Layer 1
 62
     7
420
 16777215
370
    70
100
AcDbPolyline
 90
        2
 70
     0
 43
0.0
 10
14.90996666666666
 20
3.725572222222222
 10
14.88485555555556
 20
3.725572222222222
  0
LWPOLYLINE
  5
29C
330
2
100
AcDbEntity
  8
PDF_Layer 1
 62
     7
420
 16777215
370
    70
100
AcDbPolyline
 90
        2
 70
     0
 43
0.0
 10
14.88486111111111
 20
3.725572222222222
 10
14.85643055555555
 20
3.725572222222222
  0
LWPOLYLINE
  5
29D
330
2
100
AcDbEntity
  8
PDF_Layer 1
 62
     7
420
 16777215
370
    70
100
AcDbPolyline
 90
        2
 70
     0
 43
0.0
 10
14.85643194444444
 20
3.725572222222222
 10
14.82554305555555
 20
3.725572222222222
  0
LWPOLYLINE
  5
29E
330
2
100
AcDbEntity
  8
PDF_Layer 1
 62
     7
420
 16777215
370
    70
100
AcDbPolyline
 90
        3
 70
     0
 43
0.0
 10
0.7781847222222222
 20
3.725572222222222
 10
0.7472402777777777
 20
3.725572222222222
 10
0.7179902777777777
 20
3.725572222222222
  0
LWPOLYLINE
  5
2A0
330
2
100
AcDbEntity
  8
PDF_Layer 1
 62
     7
420
 16777215
370
    70
100
AcDbPolyline
 90
        2
 70
     0
 43
0.0
 10
0.7179833333333333
 20
3.725572222222222
 10
0.6937333333333334
 20
3.725572222222222
  0
LWPOLYLINE
  5
2A1
330
2
100
AcDbEntity
  8
PDF_Layer 1
 62
     7
420
 16777215
370
    70
100
AcDbPolyline
 90
        2
 70
     0
 43
0.0
 10
0.6937388888888889
 20
3.725572222222222
 10
0.6745027777777777
 20
3.725572222222222
  0
LWPOLYLINE
  5
2A2
330
2
100
AcDbEntity
  8
PDF_Layer 1
 62
     7
420
 16777215
370
    70
100
AcDbPolyline
 90
        2
 70
     0
 43
0.0
 10
0.6745069444444445
 20
3.725572222222222
 10
0.6627986111111112
 20
3.725572222222222
  0
LWPOLYLINE
  5
2A3
330
2
100
AcDbEntity
  8
PDF_Layer 1
 62
     7
420
 16777215
370
    70
100
AcDbPolyline
 90
        2
 70
     0
 43
0.0
 10
0.662801388888889
 20
3.725572222222222
 10
0.6586208333333335
 20
3.725572222222222
  0
LWPOLYLINE
  5
2A4
330
2
100
AcDbEntity
  8
PDF_Layer 1
 62
     7
420
 16777215
370
    70
100
AcDbPolyline
 90
        2
 70
     0
 43
0.0
 10
0.6586236111111111
 20
3.9045
 10
0.6628041666666667
 20
3.9045
  0
LWPOLYLINE
  5
2A5
330
2
100
AcDbEntity
  8
PDF_Layer 1
 62
     7
420
 16777215
370
    70
100
AcDbPolyline
 90
        2
 70
     0
 43
0.0
 10
0.662801388888889
 20
3.9045
 10
0.6745097222222223
 20
3.9045
  0
LWPOLYLINE
  5
2A6
330
2
100
AcDbEntity
  8
PDF_Layer 1
 62
     7
420
 16777215
370
    70
100
AcDbPolyline
 90
        2
 70
     0
 43
0.0
 10
0.6745069444444445
 20
3.9045
 10
0.6937430555555557
 20
3.9045
  0
LWPOLYLINE
  5
2A7
330
2
100
AcDbEntity
  8
PDF_Layer 1
 62
     7
420
 16777215
370
    70
100
AcDbPolyline
 90
        2
 70
     0
 43
0.0
 10
0.6937388888888889
 20
3.9045
 10
0.7179888888888888
 20
3.9045
  0
LWPOLYLINE
  5
2A8
330
2
100
AcDbEntity
  8
PDF_Layer 1
 62
     7
420
 16777215
370
    70
100
AcDbPolyline
 90
        2
 70
     0
 43
0.0
 10
0.7179833333333333
 20
3.9045
 10
0.7472333333333334
 20
3.9045
  0
LWPOLYLINE
  5
2A9
330
2
100
AcDbEntity
  8
PDF_Layer 1
 62
     7
420
 16777215
370
    70
100
AcDbPolyline
 90
        3
 70
     0
 43
0.0
 10
0.7472402777777777
 20
3.9045
 10
0.7781847222222222
 20
3.9045
 10
14.82554583333333
 20
3.9045
  0
LWPOLYLINE
  5
2AB
330
2
100
AcDbEntity
  8
PDF_Layer 1
 62
     7
420
 16777215
370
    70
100
AcDbPolyline
 90
        2
 70
     0
 43
0.0
 10
14.82554861111111
 20
3.9045
 10
14.8564375
 20
3.9045
  0
LWPOLYLINE
  5
2AC
330
2
100
AcDbEntity
  8
PDF_Layer 1
 62
     7
420
 16777215
370
    70
100
AcDbPolyline
 90
        2
 70
     0
 43
0.0
 10
14.85643194444444
 20
3.9045
 10
14.88486249999999
 20
3.9045
  0
LWPOLYLINE
  5
2AD
330
2
100
AcDbEntity
  8
PDF_Layer 1
 62
     7
420
 16777215
370
    70
100
AcDbPolyline
 90
        2
 70
     0
 43
0.0
 10
14.88486111111111
 20
3.9045
 10
14.90997222222222
 20
3.9045
  0
LWPOLYLINE
  5
2AE
330
2
100
AcDbEntity
  8
PDF_Layer 1
 62
     7
420
 16777215
370
    70
100
AcDbPolyline
 90
        2
 70
     0
 43
0.0
 10
14.90996666666666
 20
3.9045
 10
14.929175
 20
3.9045
  0
LWPOLYLINE
  5
2AF
330
2
100
AcDbEntity
  8
PDF_Layer 1
 62
     7
420
 16777215
370
    70
100
AcDbPolyline
 90
        2
 70
     0
 43
0.0
 10
14.92917222222222
 20
3.9045
 10
14.94090833333333
 20
3.9045
  0
LWPOLYLINE
  5
2B0
330
2
100
AcDbEntity
  8
PDF_Layer 1
 62
     7
420
 16777215
370
    70
100
AcDbPolyline
 90
        2
 70
     0
 43
0.0
 10
14.94090416666667
 20
3.9045
 10
14.94509861111111
 20
3.9045
  0
LWPOLYLINE
  5
2B1
330
2
100
AcDbEntity
  8
PDF_Layer 1
 62
     7
420
 16777215
370
    70
100
AcDbPolyline
 90
        2
 70
     0
 43
0.0
 10
0.628526388888889
 20
3.875230555555555
 10
0.6586236111111111
 20
3.904494444444443
  0
LWPOLYLINE
  5
2B2
330
2
100
AcDbEntity
  8
PDF_Layer 1
 62
     7
420
 16777215
370
    70
100
AcDbPolyline
 90
        2
 70
     0
 43
0.0
 10
14.94509583333333
 20
3.9045
 10
14.97517916666667
 20
3.875236111111111
  0
LWPOLYLINE
  5
2B3
330
2
100
AcDbEntity
  8
PDF_Layer 1
 62
     7
420
 16777215
370
    70
100
AcDbPolyline
 90
        2
 70
     0
 43
0.0
 10
0.6586236111111111
 20
3.725572222222222
 10
0.628526388888889
 20
3.755683333333333
  0
LWPOLYLINE
  5
2B5
330
2
100
AcDbEntity
  8
PDF_Layer 1
 62
     7
420
 16777215
370
    70
100
AcDbPolyline
 90
        2
 70
     0
 43
0.0
 10
1.076647222222222
 20
3.934597222222221
 10
1.035688888888888
 20
3.934597222222221
  0
LWPOLYLINE
  5
2B6
330
2
100
AcDbEntity
  8
PDF_Layer 1
 62
     7
420
 16777215
370
    70
100
AcDbPolyline
 90
        2
 70
     0
 43
0.0
 10
1.035684722222222
 20
3.934597222222221
 10
0.9947124999999999
 20
3.934597222222221
  0
LWPOLYLINE
  5
2B7
330
2
100
AcDbEntity
  8
PDF_Layer 1
 62
     7
420
 16777215
370
    70
100
AcDbPolyline
 90
        2
 70
     0
 43
0.0
 10
0.9947097222222222
 20
3.934597222222221
 10
0.9570847222222221
 20
3.934597222222221
  0
LWPOLYLINE
  5
2B8
330
2
100
AcDbEntity
  8
PDF_Layer 1
 62
     7
420
 16777215
370
    70
100
AcDbPolyline
 90
        2
 70
     0
 43
0.0
 10
0.9570861111111113
 20
3.934597222222221
 10
0.9228083333333335
 20
3.934597222222221
  0
LWPOLYLINE
  5
2B9
330
2
100
AcDbEntity
  8
PDF_Layer 1
 62
     7
420
 16777215
370
    70
100
AcDbPolyline
 90
        2
 70
     0
 43
0.0
 10
0.9228111111111111
 20
3.934597222222221
 10
0.8935611111111111
 20
3.934597222222221
  0
LWPOLYLINE
  5
2BA
330
2
100
AcDbEntity
  8
PDF_Layer 1
 62
     7
420
 16777215
370
    70
100
AcDbPolyline
 90
        3
 70
     0
 43
0.0
 10
0.8935541666666665
 20
3.934597222222221
 10
0.8701375
 20
3.934597222222221
 10
0.8517486111111111
 20
3.934597222222221
  0
LWPOLYLINE
  5
2BC
330
2
100
AcDbEntity
  8
PDF_Layer 1
 62
     7
420
 16777215
370
    70
100
AcDbPolyline
 90
        2
 70
     0
 43
0.0
 10
0.8517458333333333
 20
3.934597222222221
 10
0.8417180555555555
 20
3.934597222222221
  0
LWPOLYLINE
  5
2BE
330
2
100
AcDbEntity
  8
PDF_Layer 1
 62
     7
420
 16777215
370
    70
100
AcDbPolyline
 90
        2
 70
     0
 43
0.0
 10
1.3157625
 20
3.934597222222221
 10
1.312415277777777
 20
3.934597222222221
  0
LWPOLYLINE
  5
2BF
330
2
100
AcDbEntity
  8
PDF_Layer 1
 62
     7
420
 16777215
370
    70
100
AcDbPolyline
 90
        2
 70
     0
 43
0.0
 10
1.312412499999999
 20
3.934597222222221
 10
1.301551388888888
 20
3.934597222222221
  0
LWPOLYLINE
  5
2C0
330
2
100
AcDbEntity
  8
PDF_Layer 1
 62
     7
420
 16777215
370
    70
100
AcDbPolyline
 90
        2
 70
     0
 43
0.0
 10
1.301547222222222
 20
3.934597222222221
 10
1.283977777777777
 20
3.934597222222221
  0
LWPOLYLINE
  5
2C1
330
2
100
AcDbEntity
  8
PDF_Layer 1
 62
     7
420
 16777215
370
    70
100
AcDbPolyline
 90
        2
 70
     0
 43
0.0
 10
1.283983333333333
 20
3.934597222222221
 10
1.259747222222222
 20
3.934597222222221
  0
LWPOLYLINE
  5
2C2
330
2
100
AcDbEntity
  8
PDF_Layer 1
 62
     7
420
 16777215
370
    70
100
AcDbPolyline
 90
        2
 70
     0
 43
0.0
 10
1.259745833333333
 20
3.934597222222221
 10
1.230468055555555
 20
3.934597222222221
  0
LWPOLYLINE
  5
2C3
330
2
100
AcDbEntity
  8
PDF_Layer 1
 62
     7
420
 16777215
370
    70
100
AcDbPolyline
 90
        2
 70
     0
 43
0.0
 10
1.230469444444444
 20
3.934597222222221
 10
1.196205555555555
 20
3.934597222222221
  0
LWPOLYLINE
  5
2C4
330
2
100
AcDbEntity
  8
PDF_Layer 1
 62
     7
420
 16777215
370
    70
100
AcDbPolyline
 90
        3
 70
     0
 43
0.0
 10
1.196201388888888
 20
3.934597222222221
 10
1.158576388888889
 20
3.934597222222221
 10
1.1184375
 20
3.934597222222221
  0
LWPOLYLINE
  5
2C6
330
2
100
AcDbEntity
  8
PDF_Layer 1
 62
     7
420
 16777215
370
    70
100
AcDbPolyline
 90
        2
 70
     0
 43
0.0
 10
1.118441666666666
 20
3.934597222222221
 10
1.076649999999999
 20
3.934597222222221
  0
LWPOLYLINE
  5
2C7
330
2
100
AcDbEntity
  8
PDF_Layer 1
 62
     7
420
 16777215
370
    70
100
AcDbPolyline
 90
        2
 70
     0
 43
0.0
 10
1.076647222222222
 20
3.964694444444443
 10
1.044036111111111
 20
3.964694444444443
  0
LWPOLYLINE
  5
2C8
330
2
100
AcDbEntity
  8
PDF_Layer 1
 62
     7
420
 16777215
370
    70
100
AcDbPolyline
 90
        2
 70
     0
 43
0.0
 10
1.044040277777777
 20
3.964694444444443
 10
1.013095833333333
 20
3.964694444444443
  0
LWPOLYLINE
  5
2C9
330
2
100
AcDbEntity
  8
PDF_Layer 1
 62
     7
420
 16777215
370
    70
100
AcDbPolyline
 90
        2
 70
     0
 43
0.0
 10
1.013102777777777
 20
3.964694444444443
 10
0.9855194444444446
 20
3.964694444444443
  0
LWPOLYLINE
  5
2CA
330
2
100
AcDbEntity
  8
PDF_Layer 1
 62
     7
420
 16777215
370
    70
100
AcDbPolyline
 90
        2
 70
     0
 43
0.0
 10
0.9855208333333333
 20
3.964694444444443
 10
0.9620902777777779
 20
3.964694444444443
  0
LWPOLYLINE
  5
2CB
330
2
100
AcDbEntity
  8
PDF_Layer 1
 62
     7
420
 16777215
370
    70
100
AcDbPolyline
 90
        2
 70
     0
 43
0.0
 10
0.9620972222222221
 20
3.964694444444443
 10
0.9445416666666666
 20
3.964694444444443
  0
LWPOLYLINE
  5
2CC
330
2
100
AcDbEntity
  8
PDF_Layer 1
 62
     7
420
 16777215
370
    70
100
AcDbPolyline
 90
        2
 70
     0
 43
0.0
 10
0.9445458333333332
 20
3.964694444444443
 10
0.9336847222222221
 20
3.964694444444443
  0
LWPOLYLINE
  5
2CD
330
2
100
AcDbEntity
  8
PDF_Layer 1
 62
     7
420
 16777215
370
    70
100
AcDbPolyline
 90
        2
 70
     0
 43
0.0
 10
0.9336819444444444
 20
3.964694444444443
 10
0.930348611111111
 20
3.964694444444443
  0
LWPOLYLINE
  5
2CE
330
2
100
AcDbEntity
  8
PDF_Layer 1
 62
     7
420
 16777215
370
    70
100
AcDbPolyline
 90
        2
 70
     0
 43
0.0
 10
1.222947222222222
 20
3.964694444444443
 10
1.219613888888888
 20
3.964694444444443
  0
LWPOLYLINE
  5
2CF
330
2
100
AcDbEntity
  8
PDF_Layer 1
 62
     7
420
 16777215
370
    70
100
AcDbPolyline
 90
        2
 70
     0
 43
0.0
 10
1.21961111111111
 20
3.964694444444443
 10
1.208749999999999
 20
3.964694444444443
  0
LWPOLYLINE
  5
2D0
330
2
100
AcDbEntity
  8
PDF_Layer 1
 62
     7
420
 16777215
370
    70
100
AcDbPolyline
 90
        2
 70
     0
 43
0.0
 10
1.208747222222221
 20
3.964694444444443
 10
1.191177777777777
 20
3.964694444444443
  0
LWPOLYLINE
  5
2D1
330
2
100
AcDbEntity
  8
PDF_Layer 1
 62
     7
420
 16777215
370
    70
100
AcDbPolyline
 90
        2
 70
     0
 43
0.0
 10
1.191181944444444
 20
3.964694444444443
 10
1.167765277777777
 20
3.964694444444443
  0
LWPOLYLINE
  5
2D2
330
2
100
AcDbEntity
  8
PDF_Layer 1
 62
     7
420
 16777215
370
    70
100
AcDbPolyline
 90
        2
 70
     0
 43
0.0
 10
1.167772222222222
 20
3.964694444444443
 10
1.140188888888888
 20
3.964694444444443
  0
LWPOLYLINE
  5
2D3
330
2
100
AcDbEntity
  8
PDF_Layer 1
 62
     7
420
 16777215
370
    70
100
AcDbPolyline
 90
        2
 70
     0
 43
0.0
 10
1.140191666666666
 20
3.964694444444443
 10
1.109261111111111
 20
3.964694444444443
  0
LWPOLYLINE
  5
2D4
330
2
100
AcDbEntity
  8
PDF_Layer 1
 62
     7
420
 16777215
370
    70
100
AcDbPolyline
 90
        2
 70
     0
 43
0.0
 10
1.109259722222222
 20
3.964694444444443
 10
1.07664861111111
 20
3.964694444444443
  0
CIRCLE
  5
2D5
330
2
100
AcDbEntity
  8
PDF_Layer 1
 62
     7
420
 16777215
370
    70
100
AcDbCircle
 10
1.076780251710923
 20
2.671154508222548
 30
0.0
 40
0.7481364331368905
  0
CIRCLE
  5
2D6
330
2
100
AcDbEntity
  8
PDF_Layer 1
 62
     7
420
 16777215
370
    70
100
AcDbCircle
 10
14.52634540165585
 20
2.671140118135263
 30
0.0
 40
0.7481226753921141
  0
CIRCLE
  5
2DE
330
2
100
AcDbEntity
  8
PDF_Layer 1
 62
     7
420
 16777215
370
    70
100
AcDbCircle
 10
1.077187862123793
 20
2.208061598648656
 30
0.0
 40
0.0747080320518903
  0
CIRCLE
  5
2DF
330
2
100
AcDbEntity
  8
PDF_Layer 1
 62
     7
420
 16777215
370
    70
100
AcDbCircle
 10
1.077281295727029
 20
2.671557811510681
 30
0.0
 40
0.1732619237967071
  0
CIRCLE
  5
2E0
330
2
100
AcDbEntity
  8
PDF_Layer 1
 62
     7
420
 16777215
370
    70
100
AcDbCircle
 10
1.077190564443867
 20
3.135248532107366
 30
0.0
 40
0.0747090747369474
  0
CIRCLE
  5
2E1
330
2
100
AcDbEntity
  8
PDF_Layer 1
 62
     7
420
 16777215
370
    70
100
AcDbCircle
 10
1.076750184246647
 20
2.671363995997305
 30
0.0
 40
0.7473192615257706
  0
ARC
  5
2E2
330
2
100
AcDbEntity
  8
PDF_Layer 1
 62
     7
420
 16777215
370
    70
100
AcDbCircle
 10
1.102514850427387
 20
2.671320833333334
 30
0.0
 40
0.2943158375551353
100
AcDbArc
 50
167.6993679189943
 51
192.3006320810064
  0
ARC
  5
2E3
330
2
100
AcDbEntity
  8
PDF_Layer 1
 62
     7
420
 16777215
370
    70
100
AcDbCircle
 10
1.083935880483791
 20
2.671316666666664
 30
0.0
 40
0.2620092012263465
100
AcDbArc
 50
346.1541878512444
 51
13.84581214875678
  0
CIRCLE
  5
2E4
330
2
100
AcDbEntity
  8
PDF_Layer 1
 62
     7
420
 16777215
370
    70
100
AcDbCircle
 10
1.076976117673287
 20
2.671050234376508
 30
0.0
 40
0.6350808838300809
  0
CIRCLE
  5
2E5
330
2
100
AcDbEntity
  8
PDF_Layer 1
 62
     7
420
 16777215
370
    70
100
AcDbCircle
 10
14.52626518607135
 20
2.671172768426366
 30
0.0
 40
0.747388994987988
  0
ARC
  5
2E6
330
2
100
AcDbEntity
  8
PDF_Layer 1
 62
     7
420
 16777215
370
    70
100
AcDbCircle
 10
14.51881361315365
 20
2.671320833333333
 30
0.0
 40
0.2610742784192203
100
AcDbArc
 50
166.1036113972641
 51
193.8963886027359
  0
ARC
  5
2E7
330
2
100
AcDbEntity
  8
PDF_Layer 1
 62
     7
420
 16777215
370
    70
100
AcDbCircle
 10
14.53252973251043
 20
2.671316666666717
 30
0.0
 40
0.262951154433856
100
AcDbArc
 50
346.204769905473
 51
13.79523009450557
  0
CIRCLE
  5
2E8
330
2
100
AcDbEntity
  8
PDF_Layer 1
 62
     7
420
 16777215
370
    70
100
AcDbCircle
 10
14.52655021002849
 20
2.671043037736777
 30
0.0
 40
0.635070683456155
  0
CIRCLE
  5
2EC
330
2
100
AcDbEntity
  8
PDF_Layer 1
 62
     7
420
 16777215
370
    70
100
AcDbCircle
 10
14.52667582393346
 20
2.207762597114277
 30
0.0
 40
0.0747793825311583
  0
CIRCLE
  5
2ED
330
2
100
AcDbEntity
  8
PDF_Layer 1
 62
     7
420
 16777215
370
    70
100
AcDbCircle
 10
14.52667606565103
 20
3.134947518891943
 30
0.0
 40
0.0747794735736935
  0
CIRCLE
  5
2EE
330
2
100
AcDbEntity
  8
PDF_Layer 1
 62
     7
420
 16777215
370
    70
100
AcDbCircle
 10
14.52683351026166
 20
2.671544432949914
 30
0.0
 40
0.1732541358238863
  0
LWPOLYLINE
  5
2EF
330
2
100
AcDbEntity
  8
PDF_Layer 1
 62
     7
420
 16777215
370
    25
100
AcDbPolyline
 90
        2
 70
     0
 43
0.0
 10
14.55630138888889
 20
4.323349999999999
 10
15.91531527777777
 20
4.323349999999999
  0
LWPOLYLINE
  5
2F0
330
2
100
AcDbEntity
  8
PDF_Layer 1
 62
     7
420
 16777215
370
    25
100
AcDbPolyline
 90
        2
 70
     0
 43
0.0
 10
14.55630138888889
 20
1.923895833333333
 10
15.91531527777777
 20
1.923895833333333
  0
LWPOLYLINE
  5
2F1
330
2
100
AcDbEntity
  8
PDF_Layer 1
 62
     7
420
 16777215
370
    25
100
AcDbPolyline
 90
        2
 70
     0
 43
0.0
 10
15.87877083333333
 20
4.261162499999999
 10
15.87877083333333
 20
1.986065277777777
  0
LWPOLYLINE
  5
2F2
330
2
100
AcDbEntity
  8
PDF_Layer 1
 62
     7
420
 16777215
370
    25
100
AcDbPolyline
 90
        2
 70
     0
 43
0.0
 10
1.076647222222222
 20
2.428859722222222
 10
1.076647222222222
 20
1.739123611111111
  0
LWPOLYLINE
  5
2F3
330
2
100
AcDbEntity
  8
PDF_Layer 1
 62
     7
420
 16777215
370
    25
100
AcDbPolyline
 90
        2
 70
     0
 43
0.0
 10
14.52620416666666
 20
2.397094444444444
 10
14.52620416666666
 20
1.739122222222222
  0
LWPOLYLINE
  5
2F4
330
2
100
AcDbEntity
  8
PDF_Layer 1
 62
     7
420
 16777215
370
    25
100
AcDbPolyline
 90
        2
 70
     0
 43
0.0
 10
1.139255555555555
 20
1.773858333333333
 10
14.46403333333333
 20
1.773858333333333
  0
LWPOLYLINE
  5
2F5
330
2
100
AcDbEntity
  8
PDF_Layer 1
 62
     7
420
 16777215
370
    70
100
AcDbPolyline
 90
        2
 70
     0
 43
0.0
 10
7.831936111111111
 20
3.725572222222222
 10
7.964033333333333
 20
3.725572222222222
  0
LWPOLYLINE
  5
2F6
330
2
100
AcDbEntity
  8
PDF_Layer 1
 62
     7
420
 16777215
370
    70
100
AcDbPolyline
 90
        2
 70
     0
 43
0.0
 10
7.831936111111111
 20
3.9045
 10
7.964033333333333
 20
3.9045
  0
LWPOLYLINE
  5
2F7
330
2
100
AcDbEntity
  8
PDF_Layer 1
 62
     7
420
 16777215
370
    25
100
AcDbPolyline
 90
        2
 70
     0
 43
0.0
 10
7.874579166666666
 20
3.977538888888889
 10
7.874579166666666
 20
4.084247222222222
  0
LWPOLYLINE
  5
2F8
330
2
100
AcDbEntity
  8
PDF_Layer 1
 62
     7
420
 16777215
370
    25
100
AcDbPolyline
 90
        2
 70
     0
 43
0.0
 10
7.874579166666666
 20
3.652655555555554
 10
7.874579166666666
 20
3.27996111111111
  0
LWPOLYLINE
  5
2F9
330
2
100
AcDbEntity
  8
PDF_Layer 1
 62
     7
420
 16777215
370
    25
100
AcDbPolyline
 90
        2
 70
     0
 43
0.0
 10
7.874579166666666
 20
3.9045
 10
7.874579166666666
 20
3.725569444444444
  0
LWPOLYLINE
  5
2FA
330
2
100
AcDbEntity
  8
PDF_Layer 1
 62
     7
420
 16777215
370
    25
100
AcDbPolyline
 90
        2
 70
     0
 43
0.0
 10
2.638284722222222
 20
3.399115277777777
 10
1.822256944444444
 20
3.018656944444444
  0
LWPOLYLINE
  5
2FB
330
2
100
AcDbEntity
  8
PDF_Layer 1
 62
     7
420
 16777215
370
    25
100
AcDbPolyline
 90
        2
 70
     0
 43
0.0
 10
0.3357402777777778
 20
2.325723611111111
 10
0.2026291666666667
 20
2.2639875
  0
LWPOLYLINE
  5
2FC
330
2
100
AcDbEntity
  8
PDF_Layer 1
 62
     7
420
 16777215
370
    25
100
AcDbPolyline
 90
        2
 70
     0
 43
0.0
 10
0.3994416666666667
 20
2.356133333333332
 10
1.753858333333333
 20
2.987341666666666
  0
MTEXT
  5
2FD
330
2
100
AcDbEntity
  8
PDF_Text
 62
     7
420
 16777215
100
AcDbMText
 10
7.30651111111111
 20
10.39888888888889
 30
0.0
 40
0.2982584635416666
 41
0.0
 46
0.0
 71
     7
 72
     5
  1
480
  7
PDF Arial
 73
     1
 44
1.0
  0
MTEXT
  5
2FE
330
2
100
AcDbEntity
  8
PDF_Text
 62
     7
420
 16777215
100
AcDbMText
 10
7.452344444444443
 20
1.850277777777777
 30
0.0
 40
0.2982584635416666
 41
0.0
 46
0.0
 71
     7
 72
     5
  1
450
  7
PDF Arial
 73
     1
 44
1.0
  0
MTEXT
  5
2FF
330
2
100
AcDbEntity
  8
PDF_Text
 62
     7
420
 16777215
100
AcDbMText
 10
7.839852777777778
 20
3.342068055555555
 30
0.0
 40
0.2982584635416666
 41
0.0
 46
0.0
 71
     7
 72
     5
  1
6
  7
PDF Arial
 11
0.0000000000000001
 21
1.0
 31
0.0
 73
     1
 44
1.0
  0
MTEXT
  5
300
330
2
100
AcDbEntity
  8
PDF_Text
 62
     7
420
 16777215
100
AcDbMText
 10
15.80735277777777
 20
2.916234722222222
 30
0.0
 40
0.2982584635416666
 41
0.0
 46
0.0
 71
     7
 72
     5
  1
80
  7
PDF Arial
 11
0.0000000000000001
 21
1.0
 31
0.0
 73
     1
 44
1.0
  0
MTEXT
  5
301
330
2
100
AcDbEntity
  8
PDF_Text
 62
     7
420
 16777215
100
AcDbMText
 10
15.67233194444444
 20
7.600179166666666
 30
0.0
 40
0.2982584635416666
 41
0.0
 46
0.0
 71
     7
 72
     5
  1
100
  7
PDF Arial
 11
0.0000000000000001
 21
1.0
 31
0.0
 73
     1
 44
1.0
  0
MTEXT
  5
302
330
2
100
AcDbEntity
  8
PDF_Text
 62
     7
420
 16777215
100
AcDbMText
 10
16.37691527777777
 20
7.3772625
 30
0.0
 40
0.2982584635416666
 41
0.0
 46
0.0
 71
     7
 72
     5
  1
116
  7
PDF Arial
 11
0.0000000000000001
 21
1.0
 31
0.0
 73
     1
 44
1.0
  0
MTEXT
  5
303
330
2
100
AcDbEntity
  8
PDF_Text
 62
     7
420
 16777215
100
AcDbMText
 10
1.862209856944445
 20
3.107809420833333
 30
0.0
 40
0.2982584635416666
 41
0.0
 46
0.0
 71
     7
 72
     5
  1
Ø50
  7
PDF Arial
 11
0.9088100907901328
 21
0.417210041679285
 31
0.0
 73
     1
 44
1.0
  0
VIEWPORT
  5
4A
330
C
100
AcDbEntity
 67
     1
  8
0
100
AcDbViewport
 10
17.24759499286355
 20
11.49745669559334
 30
0.0
 40
36.33732196730226
 41
27.12504315869042
 68
     1
 69
     1
 12
17.24759499286355
 22
11.49745669559334
 13
0.0
 23
0.0
 14
0.5
 24
0.5
 15
0.5
 25
0.5
 16
0.0
 26
0.0
 36
1.0
 17
0.0
 27
0.0
 37
0.0
 42
50.0
 43
0.0
 44
0.0
 45
27.12504315869042
 50
0.0
 51
0.0
 72
  1000
 90
    32864
  1

281
     0
 71
     1
 74
     0
110
0.0
120
0.0
130
0.0
111
1.0
121
0.0
131
0.0
112
0.0
122
1.0
132
0.0
 79
     0
146
0.0
170
     0
 61
     5
348
88
292
     1
282
     1
141
0.0
142
0.0
 63
   250
421
  3355443
  0
ENDSEC
  0
SECTION
  2
OBJECTS
  0
DICTIONARY
  5
7
330
0
100
AcDbDictionary
281
     1
  3
ACAD_CIP_PREVIOUS_PRODUCT_INFO
350
CD
  3
ACAD_COLOR
350
55
  3
ACAD_DETAILVIEWSTYLE
350
C5
  3
ACAD_GROUP
350
1F
  3
ACAD_LAYOUT
350
B
  3
ACAD_MATERIAL
350
54
  3
ACAD_MLEADERSTYLE
350
C1
  3
ACAD_MLINESTYLE
350
20
  3
ACAD_PLOTSETTINGS
350
21
  3
ACAD_PLOTSTYLENAME
350
6
  3
ACAD_SCALELIST
350
AF
  3
ACAD_SECTIONVIEWSTYLE
350
C3
  3
ACAD_TABLESTYLE
350
93
  3
ACAD_VISUALSTYLE
350
82
  3
ACDB_RECOMPOSE_DATA
350
329
  3
AcDbVariableDictionary
350
9B
  0
DICTIONARY
  5
305
330
4
100
AcDbDictionary
280
     1
281
     1
  3
ADSK_XREC_LAYER_RECONCILED
360
306
  0
DICTIONARY
  5
307
330
25
100
AcDbDictionary
280
     1
281
     1
  3
ADSK_XREC_LAYER_RECONCILED
360
308
  0
DICTIONARY
  5
309
330
CE
100
AcDbDictionary
280
     1
281
     1
  3
ADSK_XREC_LAYER_RECONCILED
360
30A
  0
DICTIONARY
  5
30B
330
DF
100
AcDbDictionary
280
     1
281
     1
  3
ADSK_XREC_LAYER_RECONCILED
360
30C
  0
XRECORD
  5
CD
102
{ACAD_REACTORS
330
7
102
}
330
7
100
AcDbXrecord
280
     1
300
ACD
300
2017
300
ACD_F_S
  0
DICTIONARY
  5
55
102
{ACAD_REACTORS
330
7
102
}
330
7
100
AcDbDictionary
281
     1
  0
DICTIONARY
  5
C5
102
{ACAD_REACTORS
330
7
102
}
330
7
100
AcDbDictionary
281
     1
  3
Imperial24
350
C6
  0
DICTIONARY
  5
1F
102
{ACAD_REACTORS
330
7
102
}
330
7
100
AcDbDictionary
281
     1
  0
DICTIONARY
  5
B
102
{ACAD_REACTORS
330
7
102
}
330
7
100
AcDbDictionary
281
     1
  3
Generic 24in x 36in Title Block
350
F
  3
Model
350
A
  0
DICTIONARY
  5
54
102
{ACAD_REACTORS
330
7
102
}
330
7
100
AcDbDictionary
281
     1
  3
ByBlock
350
80
  3
ByLayer
350
7F
  3
Global
350
81
  0
DICTIONARY
  5
C1
102
{ACAD_REACTORS
330
7
102
}
330
7
100
AcDbDictionary
281
     1
  3
Standard
350
C2
  0
DICTIONARY
  5
20
102
{ACAD_REACTORS
330
7
102
}
330
7
100
AcDbDictionary
281
     1
  3
Standard
350
22
  0
DICTIONARY
  5
21
102
{ACAD_REACTORS
330
7
102
}
330
7
100
AcDbDictionary
281
     1
  0
ACDBDICTIONARYWDFLT
  5
6
102
{ACAD_REACTORS
330
7
102
}
330
7
100
AcDbDictionary
281
     1
  3
Normal
350
5
100
AcDbDictionaryWithDefault
340
5
  0
DICTIONARY
  5
AF
102
{ACAD_REACTORS
330
7
102
}
330
7
100
AcDbDictionary
281
     1
  3
A0
350
B0
  3
A1
350
B1
  3
A2
350
B2
  3
A3
350
B3
  3
A4
350
B4
  3
A5
350
B5
  3
A6
350
B6
  3
A7
350
B7
  3
A8
350
B8
  3
A9
350
B9
  3
B0
350
BA
  3
B1
350
BB
  3
B2
350
BC
  3
B3
350
BD
  3
B4
350
BE
  3
B5
350
BF
  3
B6
350
C0
  0
DICTIONARY
  5
C3
102
{ACAD_REACTORS
330
7
102
}
330
7
100
AcDbDictionary
281
     1
  3
Imperial24
350
C4
  0
DICTIONARY
  5
93
102
{ACAD_REACTORS
330
7
102
}
330
7
100
AcDbDictionary
281
     1
  3
Standard
350
94
  0
DICTIONARY
  5
82
102
{ACAD_REACTORS
330
7
102
}
330
7
100
AcDbDictionary
281
     1
  3
2dWireframe
350
88
  3
3D Hidden
350
8A
  3
3dWireframe
350
89
  3
Basic
350
87
  3
Brighten
350
8E
  3
ColorChange
350
92
  3
Conceptual
350
8B
  3
Dim
350
8D
  3
EdgeColorOff
350
AE
  3
Facepattern
350
91
  3
Flat
350
83
  3
FlatWithEdges
350
84
  3
Gouraud
350
85
  3
GouraudWithEdges
350
86
  3
Hidden
350
A6
  3
JitterOff
350
AC
  3
Linepattern
350
90
  3
OverhangOff
350
AD
  3
Realistic
350
8C
  3
Shaded
350
AB
  3
Shaded with edges
350
AA
  3
Shades of Gray
350
A7
  3
Sketchy
350
A8
  3
Thicken
350
8F
  3
Wireframe
350
A5
  3
X-Ray
350
A9
  0
XRECORD
  5
329
102
{ACAD_REACTORS
330
7
102
}
330
7
100
AcDbXrecord
280
     1
 90
        1
330
94
330
C4
330
C6
  0
DICTIONARY
  5
9B
102
{ACAD_REACTORS
330
7
102
}
330
7
100
AcDbDictionary
281
     1
  3
CANNOSCALE
350
31F
  3
CMLEADERSTYLE
350
31B
  3
CTABLESTYLE
350
9C
  3
CVIEWDETAILSTYLE
350
31C
  3
CVIEWSECTIONSTYLE
350
31D
  3
LAYEREVAL
350
321
  3
LAYERNOTIFY
350
322
  3
LIGHTINGUNITS
350
320
  3
MSLTSCALE
350
31E
  0
XRECORD
  5
306
102
{ACAD_REACTORS
330
305
102
}
330
305
100
AcDbXrecord
280
     1
290
     1
  0
XRECORD
  5
308
102
{ACAD_REACTORS
330
307
102
}
330
307
100
AcDbXrecord
280
     1
290
     1
  0
XRECORD
  5
30A
102
{ACAD_REACTORS
330
309
102
}
330
309
100
AcDbXrecord
280
     1
290
     1
  0
XRECORD
  5
30C
102
{ACAD_REACTORS
330
30B
102
}
330
30B
100
AcDbXrecord
280
     1
290
     1
  0
ACDBDETAILVIEWSTYLE
  5
C6
102
{ACAD_XDICTIONARY
360
327
102
}
102
{ACAD_REACTORS
330
C5
102
}
330
C5
100
AcDbModelDocViewStyle
 70
     0
  3
Imperial24
290
     0
100
AcDbDetailViewStyle
 70
     0
 71
     0
 90
        3
 71
     1
340
12
 62
   256
 40
0.24
340
0
 62
   256
 40
0.24
300

 40
0.36
280
     3
 71
     2
340
8
 90
       25
 62
   256
 71
     3
340
12
 62
   256
 40
0.24
 90
        1
 40
0.75
 90
        1
300
%<\AcVar ViewType \f "%tc1">% %<\AcVar ViewDetailId>%\PSCALE %<\AcVar ViewScale \f "%sn">%
 71
     4
340
8
 90
       25
 62
   256
340
8
 90
       25
 62
   256
280
     0
  0
LAYOUT
  5
F
102
{ACAD_REACTORS
330
B
102
}
330
B
100
AcDbPlotSettings
  1

  2
none_device
  4
ARCH_D_(24.00_x_36.00_Inches)
  6

 40
6.4
 41
19.1
 42
6.4
 43
19.1
 44
609.5999755859375
 45
914.4000244140626
 46
6.095999999999999
 47
-0.254
 48
0.0
 49
0.0
140
0.0
141
0.0
142
1.0
143
1.0
 70
   692
 72
     0
 73
     1
 74
     1
  7

 75
    16
147
1.0
 76
     0
 77
     2
 78
   300
148
0.2650993882970653
149
0.268587724897764
100
AcDbLayout
  1
Generic 24in x 36in Title Block
 70
     1
 71
     1
 10
-0.7524054877282309
 20
-0.5025428238148726
 11
35.24759547345533
 21
23.49745621500156
 12
0.0
 22
0.0
 32
0.0
 14
1.000000000000000E+20
 24
1.000000000000000E+20
 34
1.000000000000000E+20
 15
-1.000000000000000E+20
 25
-1.000000000000000E+20
 35
-1.000000000000000E+20
146
0.0
 13
0.0
 23
0.0
 33
0.0
 16
1.0
 26
0.0
 36
0.0
 17
0.0
 27
1.0
 37
0.0
 76
     0
330
C
331
4A
  0
LAYOUT
  5
A
102
{ACAD_REACTORS
330
B
102
}
330
B
100
AcDbPlotSettings
  1

  2
none_device
  4
Letter_(8.50_x_11.00_Inches)
  6

 40
6.349999904632568
 41
6.349999904632568
 42
6.350006103515625
 43
6.350006103515625
 44
215.8999938964844
 45
279.3999938964844
 46
20.37045378159827
 47
10.87052656611426
 48
0.0
 49
0.0
140
0.0
141
0.0
142
1.0
143
3.59932905303845
 70
 11956
 72
     0
 73
     1
 74
     1
  7

 75
     0
147
0.2778295580271631
 76
     0
 77
     2
 78
   300
148
5.106903281790129
149
0.2718425107115592
100
AcDbLayout
  1
Model
 70
     1
 71
     0
 10
0.0
 20
0.0
 11
12.0
 21
9.0
 12
0.0
 22
0.0
 32
0.0
 14
0.0
 24
0.0
 34
0.0
 15
0.0
 25
0.0
 35
0.0
146
0.0
 13
0.0
 23
0.0
 33
0.0
 16
1.0
 26
0.0
 36
0.0
 17
0.0
 27
1.0
 37
0.0
 76
     0
330
2
331
7D
  0
MATERIAL
  5
80
102
{ACAD_REACTORS
330
54
102
}
330
54
100
AcDbMaterial
  1
ByBlock
 73
     1
 78
     1
172
     1
176
     1
270
     1
274
     1
 94
       63
  0
MATERIAL
  5
7F
102
{ACAD_REACTORS
330
54
102
}
330
54
100
AcDbMaterial
  1
ByLayer
 73
     1
 78
     1
172
     1
176
     1
270
     1
274
     1
 94
       63
  0
MATERIAL
  5
81
102
{ACAD_REACTORS
330
54
102
}
330
54
100
AcDbMaterial
  1
Global
 73
     1
 78
     1
172
     1
176
     1
270
     1
274
     1
 94
       63
  0
MLEADERSTYLE
  5
C2
102
{ACAD_REACTORS
330
C1
102
}
330
C1
100
AcDbMLeaderStyle
179
     2
170
     2
171
     1
172
     0
 90
        2
 40
0.0
 41
0.0
173
     1
 91
-1056964608
340
15
 92
       -2
290
     1
 42
0.09
291
     1
 43
0.36
  3
Standard
 44
0.18
300

342
12
174
     1
178
     6
175
     1
176
     0
 93
-1056964608
 45
0.18
292
     0
297
     0
 46
0.18
 94
-1056964608
 47
1.0
 49
1.0
140
1.0
293
     1
141
0.0
294
     1
177
     0
142
1.0
295
     1
296
     0
143
0.125
271
     0
272
     9
273
     9
298
     1
  0
MLINESTYLE
  5
22
102
{ACAD_REACTORS
330
20
102
}
330
20
100
AcDbMlineStyle
  2
STANDARD
 70
     0
  3

 62
   256
 51
90.0
 52
90.0
 71
     2
 49
0.5
 62
   256
  6
BYLAYER
 49
-0.5
 62
   256
  6
BYLAYER
  0
ACDBPLACEHOLDER
  5
5
102
{ACAD_REACTORS
330
6
102
}
330
6
  0
SCALE
  5
B0
102
{ACAD_REACTORS
330
AF
102
}
330
AF
100
AcDbScale
 70
     0
300
1:1
140
1.0
141
1.0
290
     1
  0
SCALE
  5
B1
102
{ACAD_REACTORS
330
AF
102
}
330
AF
100
AcDbScale
 70
     0
300
1/128" = 1'-0"
140
0.0078125
141
12.0
290
     0
  0
SCALE
  5
B2
102
{ACAD_REACTORS
330
AF
102
}
330
AF
100
AcDbScale
 70
     0
300
1/64" = 1'-0"
140
0.015625
141
12.0
290
     0
  0
SCALE
  5
B3
102
{ACAD_REACTORS
330
AF
102
}
330
AF
100
AcDbScale
 70
     0
300
1/32" = 1'-0"
140
0.03125
141
12.0
290
     0
  0
SCALE
  5
B4
102
{ACAD_REACTORS
330
AF
102
}
330
AF
100
AcDbScale
 70
     0
300
1/16" = 1'-0"
140
0.0625
141
12.0
290
     0
  0
SCALE
  5
B5
102
{ACAD_REACTORS
330
AF
102
}
330
AF
100
AcDbScale
 70
     0
300
3/32" = 1'-0"
140
0.09375
141
12.0
290
     0
  0
SCALE
  5
B6
102
{ACAD_REACTORS
330
AF
102
}
330
AF
100
AcDbScale
 70
     0
300
1/8" = 1'-0"
140
0.125
141
12.0
290
     0
  0
SCALE
  5
B7
102
{ACAD_REACTORS
330
AF
102
}
330
AF
100
AcDbScale
 70
     0
300
3/16" = 1'-0"
140
0.1875
141
12.0
290
     0
  0
SCALE
  5
B8
102
{ACAD_REACTORS
330
AF
102
}
330
AF
100
AcDbScale
 70
     0
300
1/4" = 1'-0"
140
0.25
141
12.0
290
     0
  0
SCALE
  5
B9
102
{ACAD_REACTORS
330
AF
102
}
330
AF
100
AcDbScale
 70
     0
300
3/8" = 1'-0"
140
0.375
141
12.0
290
     0
  0
SCALE
  5
BA
102
{ACAD_REACTORS
330
AF
102
}
330
AF
100
AcDbScale
 70
     0
300
1/2" = 1'-0"
140
0.5
141
12.0
290
     0
  0
SCALE
  5
BB
102
{ACAD_REACTORS
330
AF
102
}
330
AF
100
AcDbScale
 70
     0
300
3/4" = 1'-0"
140
0.75
141
12.0
290
     0
  0
SCALE
  5
BC
102
{ACAD_REACTORS
330
AF
102
}
330
AF
100
AcDbScale
 70
     0
300
1" = 1'-0"
140
1.0
141
12.0
290
     0
  0
SCALE
  5
BD
102
{ACAD_REACTORS
330
AF
102
}
330
AF
100
AcDbScale
 70
     0
300
1-1/2" = 1'-0"
140
1.5
141
12.0
290
     0
  0
SCALE
  5
BE
102
{ACAD_REACTORS
330
AF
102
}
330
AF
100
AcDbScale
 70
     0
300
3" = 1'-0"
140
3.0
141
12.0
290
     0
  0
SCALE
  5
BF
102
{ACAD_REACTORS
330
AF
102
}
330
AF
100
AcDbScale
 70
     0
300
6" = 1'-0"
140
6.0
141
12.0
290
     0
  0
SCALE
  5
C0
102
{ACAD_REACTORS
330
AF
102
}
330
AF
100
AcDbScale
 70
     0
300
1'-0" = 1'-0"
140
12.0
141
12.0
290
     0
  0
ACDBSECTIONVIEWSTYLE
  5
C4
102
{ACAD_XDICTIONARY
360
325
102
}
102
{ACAD_REACTORS
330
C3
102
}
330
C3
100
AcDbModelDocViewStyle
 70
     0
  3
Imperial24
290
     0
100
AcDbSectionViewStyle
 70
     0
 71
     0
 90
       78
 71
     1
340
12
 62
   256
 40
0.24
340
0
340
0
 62
   256
 40
0.24
300
I, O, Q, S, X, Z
 40
0.48
 90
        3
 40
0.18
 90
        1
 71
     2
340
8
 90
       25
 62
   256
340
8
 90
       50
 62
   256
 40
0.24
 40
0.0
 40
0.24
 71
     3
340
12
 62
   256
 40
0.24
 90
        1
 40
0.75
 90
        1
300
%<\AcVar ViewType \f "%tc1">% %<\AcVar ViewSectionStartId>%-%<\AcVar ViewSectionEndId>%\PSCALE %<\AcVar ViewScale \f "%sn">%
 71
     4
 62
   256
 62
   257
300
ANSI31
 40
1.0
 90
        0
290
     0
290
     0
 90
        6
 40
0.0
 40
1.570796326794896
 40
0.2617993877991494
 40
1.308996938995747
 40
-0.2617993877991494
 40
1.832595714594046
  0
TABLESTYLE
  5
94
102
{ACAD_XDICTIONARY
360
323
102
}
102
{ACAD_REACTORS
330
93
102
}
330
93
100
AcDbTableStyle
280
     0
  3
Standard
 70
     0
 71
     0
 40
0.06
 41
0.06
280
     0
281
     0
  7
Standard
140
0.18
170
     2
 62
     0
 63
     7
283
     0
 90
      512
 91
        0
  1

274
    -2
284
     1
 64
     0
275
    -2
285
     1
 65
     0
276
    -2
286
     1
 66
     0
277
    -2
287
     1
 67
     0
278
    -2
288
     1
 68
     0
279
    -2
289
     1
 69
     0
  7
Standard
140
0.25
170
     5
 62
     0
 63
     7
283
     0
 90
      512
 91
        0
  1

274
    -2
284
     1
 64
     0
275
    -2
285
     1
 65
     0
276
    -2
286
     1
 66
     0
277
    -2
287
     1
 67
     0
278
    -2
288
     1
 68
     0
279
    -2
289
     1
 69
     0
  7
Standard
140
0.18
170
     5
 62
     0
 63
     7
283
     0
 90
      512
 91
        0
  1

274
    -2
284
     1
 64
     0
275
    -2
285
     1
 65
     0
276
    -2
286
     1
 66
     0
277
    -2
287
     1
 67
     0
278
    -2
288
     1
 68
     0
279
    -2
289
     1
 69
     0
  0
VISUALSTYLE
  5
88
102
{ACAD_REACTORS
330
82
102
}
330
82
100
AcDbVisualStyle
  2
2dWireframe
 70
     4
177
     3
291
     0
 70
    58
 90
        0
176
     1
 90
        2
176
     1
 90
        1
176
     1
 90
        0
176
     1
 40
0.6
176
     1
 40
30.0
176
     1
 62
     7
420
 16777215
176
     1
 90
        1
176
     1
 90
        4
176
     1
 62
     7
176
     1
 62
   257
176
     1
 90
        1
176
     1
 90
        1
176
     1
 40
1.0
176
     1
 90
        0
176
     1
 62
   257
176
     1
 40
1.0
176
     1
 90
        1
176
     1
 90
        6
176
     1
 90
        2
176
     1
 62
     7
176
     1
 90
        5
176
     1
 90
        0
176
     1
 90
        0
176
     1
290
     0
176
     1
 90
        1
176
     1
 40
0.0
176
     1
 90
        0
176
     1
290
     1
176
     1
290
     1
176
     1
290
     0
176
     1
290
     0
176
     1
290
     0
176
     1
290
     0
176
     1
290
     0
176
     1
290
     0
176
     1
290
     0
176
     1
 90
       50
176
     1
 40
0.0
176
     1
 40
1.0
176
     1
 90
        0
176
     1
 62
    18
420
        0
176
     1
 90
       50
176
     1
 90
        3
176
     1
 62
     5
420
      255
176
     1
290
     0
176
     1
 90
       50
176
     1
 90
       50
176
     1
 90
       50
176
     1
290
     0
176
     1
 90
       50
176
     1
 62
   256
176
     0
 40
1.0
176
     0
 90
        2
176
     1
  1
strokes_ogs.tif
176
     1
290
     0
176
     1
 40
1.0
176
     1
 40
1.0
176
     1
  0
VISUALSTYLE
  5
8A
102
{ACAD_REACTORS
330
82
102
}
330
82
100
AcDbVisualStyle
  2
3D Hidden
 70
     6
177
     3
291
     0
 70
    58
 90
        1
176
     1
 90
        2
176
     1
 90
        2
176
     1
 90
        0
176
     1
 40
0.6
176
     1
 40
30.0
176
     1
 62
     7
420
 16777215
176
     1
 90
        2
176
     1
 90
       10
176
     1
 62
     7
176
     1
 62
   257
176
     1
 90
        2
176
     1
 90
        2
176
     1
 40
40.0
176
     1
 90
        0
176
     1
 62
   257
176
     1
 40
1.0
176
     1
 90
        1
176
     1
 90
        6
176
     1
 90
        2
176
     1
 62
     7
176
     1
 90
        3
176
     1
 90
        0
176
     1
 90
        0
176
     1
290
     0
176
     1
 90
        1
176
     1
 40
0.0
176
     1
 90
        0
176
     1
290
     0
176
     1
290
     1
176
     1
290
     1
176
     1
290
     0
176
     1
290
     0
176
     1
290
     0
176
     1
290
     0
176
     1
290
     0
176
     1
290
     0
176
     1
 90
       50
176
     1
 40
0.0
176
     1
 40
1.0
176
     1
 90
        0
176
     1
 62
    18
420
        0
176
     1
 90
       50
176
     1
 90
        3
176
     1
 62
     5
420
      255
176
     1
290
     0
176
     1
 90
       50
176
     1
 90
       50
176
     1
 90
       50
176
     1
290
     0
176
     1
 90
       50
176
     1
 62
   256
176
     0
 40
1.0
176
     0
 90
        2
176
     1
  1
strokes_ogs.tif
176
     1
290
     0
176
     1
 40
1.0
176
     1
 40
1.0
176
     1
  0
VISUALSTYLE
  5
89
102
{ACAD_REACTORS
330
82
102
}
330
82
100
AcDbVisualStyle
  2
3dWireframe
 70
     5
177
     3
291
     0
 70
    58
 90
        0
176
     1
 90
        2
176
     1
 90
        1
176
     1
 90
        0
176
     1
 40
0.6
176
     1
 40
30.0
176
     1
 62
     7
420
 16777215
176
     1
 90
        1
176
     1
 90
        4
176
     1
 62
     7
176
     1
 62
   257
176
     1
 90
        1
176
     1
 90
        1
176
     1
 40
1.0
176
     1
 90
        0
176
     1
 62
   257
176
     1
 40
1.0
176
     1
 90
        1
176
     1
 90
        6
176
     1
 90
        2
176
     1
 62
     7
176
     1
 90
        5
176
     1
 90
        0
176
     1
 90
        0
176
     1
290
     0
176
     1
 90
        1
176
     1
 40
0.0
176
     1
 90
        0
176
     1
290
     0
176
     1
290
     1
176
     1
290
     1
176
     1
290
     0
176
     1
290
     0
176
     1
290
     0
176
     1
290
     0
176
     1
290
     0
176
     1
290
     0
176
     1
 90
       50
176
     1
 40
0.0
176
     1
 40
1.0
176
     1
 90
        0
176
     1
 62
    18
420
        0
176
     1
 90
       50
176
     1
 90
        3
176
     1
 62
     5
420
      255
176
     1
290
     0
176
     1
 90
       50
176
     1
 90
       50
176
     1
 90
       50
176
     1
290
     0
176
     1
 90
       50
176
     1
 62
   256
176
     0
 40
1.0
176
     0
 90
        2
176
     1
  1
strokes_ogs.tif
176
     1
290
     0
176
     1
 40
1.0
176
     1
 40
1.0
176
     1
  0
VISUALSTYLE
  5
87
102
{ACAD_REACTORS
330
82
102
}
330
82
100
AcDbVisualStyle
  2
Basic
 70
     7
177
     3
291
     1
 70
    58
 90
        1
176
     1
 90
        0
176
     1
 90
        1
176
     1
 90
        0
176
     1
 40
0.6
176
     1
 40
30.0
176
     1
 62
     7
420
 16777215
176
     1
 90
        0
176
     1
 90
        4
176
     1
 62
     7
176
     1
 62
   257
176
     1
 90
        1
176
     1
 90
        1
176
     1
 40
1.0
176
     1
 90
        8
176
     1
 62
     7
176
     1
 40
1.0
176
     1
 90
        1
176
     1
 90
        6
176
     1
 90
        2
176
     1
 62
     7
176
     1
 90
        5
176
     1
 90
        0
176
     1
 90
        0
176
     1
290
     0
176
     1
 90
        1
176
     1
 40
0.0
176
     1
 90
        0
176
     1
290
     0
176
     1
290
     1
176
     1
290
     1
176
     1
290
     0
176
     1
290
     0
176
     1
290
     0
176
     1
290
     0
176
     1
290
     0
176
     1
290
     0
176
     1
 90
       50
176
     1
 40
0.0
176
     1
 40
1.0
176
     1
 90
        0
176
     1
 62
    18
420
        0
176
     1
 90
       50
176
     1
 90
        3
176
     1
 62
     5
420
      255
176
     1
290
     0
176
     1
 90
       50
176
     1
 90
       50
176
     1
 90
       50
176
     1
290
     0
176
     1
 90
       50
176
     1
 62
   256
176
     0
 40
1.0
176
     0
 90
        2
176
     1
  1
strokes_ogs.tif
176
     1
290
     0
176
     1
 40
1.0
176
     1
 40
1.0
176
     1
  0
VISUALSTYLE
  5
8E
102
{ACAD_REACTORS
330
82
102
}
330
82
100
AcDbVisualStyle
  2
Brighten
 70
    12
177
     3
291
     1
 70
    58
 90
        2
176
     1
 90
        2
176
     1
 90
        1
176
     1
 90
        0
176
     1
 40
0.6
176
     1
 40
30.0
176
     1
 62
     7
420
 16777215
176
     1
 90
        1
176
     1
 90
        4
176
     1
 62
     7
176
     1
 62
   257
176
     1
 90
        1
176
     1
 90
        1
176
     1
 40
1.0
176
     1
 90
        8
176
     1
 62
     7
176
     1
 40
1.0
176
     1
 90
        1
176
     1
 90
        6
176
     1
 90
        2
176
     1
 62
     7
176
     1
 90
        5
176
     1
 90
        0
176
     1
 90
        0
176
     1
290
     0
176
     1
 90
        1
176
     1
 40
50.0
176
     1
 90
        0
176
     1
290
     0
176
     1
290
     1
176
     1
290
     1
176
     1
290
     0
176
     1
290
     0
176
     1
290
     0
176
     1
290
     0
176
     1
290
     0
176
     1
290
     0
176
     1
 90
       50
176
     1
 40
0.0
176
     1
 40
1.0
176
     1
 90
        0
176
     1
 62
    18
420
        0
176
     1
 90
       50
176
     1
 90
        3
176
     1
 62
     5
420
      255
176
     1
290
     0
176
     1
 90
       50
176
     1
 90
       50
176
     1
 90
       50
176
     1
290
     0
176
     1
 90
       50
176
     1
 62
   256
176
     0
 40
1.0
176
     0
 90
        2
176
     1
  1
strokes_ogs.tif
176
     1
290
     0
176
     1
 40
1.0
176
     1
 40
1.0
176
     1
  0
VISUALSTYLE
  5
92
102
{ACAD_REACTORS
330
82
102
}
330
82
100
AcDbVisualStyle
  2
ColorChange
 70
    16
177
     3
291
     1
 70
    58
 90
        2
176
     1
 90
        2
176
     1
 90
        3
176
     1
 90
        0
176
     1
 40
0.6
176
     1
 40
30.0
176
     1
 62
     8
420
  8421504
176
     1
 90
        1
176
     1
 90
        4
176
     1
 62
     7
176
     1
 62
   257
176
     1
 90
        1
176
     1
 90
        1
176
     1
 40
1.0
176
     1
 90
        8
176
     1
 62
     8
420
  8421504
176
     1
 40
1.0
176
     1
 90
        1
176
     1
 90
        6
176
     1
 90
        2
176
     1
 62
     7
176
     1
 90
        5
176
     1
 90
        0
176
     1
 90
        0
176
     1
290
     0
176
     1
 90
        1
176
     1
 40
0.0
176
     1
 90
        0
176
     1
290
     0
176
     1
290
     1
176
     1
290
     1
176
     1
290
     0
176
     1
290
     0
176
     1
290
     0
176
     1
290
     0
176
     1
290
     0
176
     1
290
     0
176
     1
 90
       50
176
     1
 40
0.0
176
     1
 40
1.0
176
     1
 90
        0
176
     1
 62
    18
420
        0
176
     1
 90
       50
176
     1
 90
        3
176
     1
 62
     5
420
      255
176
     1
290
     0
176
     1
 90
       50
176
     1
 90
       50
176
     1
 90
       50
176
     1
290
     0
176
     1
 90
       50
176
     1
 62
   256
176
     0
 40
1.0
176
     0
 90
        2
176
     1
  1
strokes_ogs.tif
176
     1
290
     0
176
     1
 40
1.0
176
     1
 40
1.0
176
     1
  0
VISUALSTYLE
  5
8B
102
{ACAD_REACTORS
330
82
102
}
330
82
100
AcDbVisualStyle
  2
Conceptual
 70
     9
177
     3
291
     0
 70
    58
 90
        3
176
     1
 90
        2
176
     1
 90
        1
176
     1
 90
        0
176
     1
 40
0.6
176
     1
 40
30.0
176
     1
 62
     7
420
 16777215
176
     1
 90
        2
176
     1
 90
        2
176
     1
 62
     7
176
     1
 62
   257
176
     1
 90
        1
176
     1
 90
        1
176
     1
 40
40.0
176
     1
 90
        8
176
     1
 62
     7
176
     1
 40
1.0
176
     1
 90
        1
176
     1
 90
        6
176
     1
 90
        2
176
     1
 62
     7
176
     1
 90
        5
176
     1
 90
        0
176
     1
 90
        0
176
     1
290
     0
176
     1
 90
        1
176
     1
 40
0.0
176
     1
 90
        0
176
     1
290
     0
176
     1
290
     1
176
     1
290
     1
176
     1
290
     0
176
     1
290
     0
176
     1
290
     0
176
     1
290
     0
176
     1
290
     0
176
     1
290
     0
176
     1
 90
       50
176
     1
 40
0.0
176
     1
 40
1.0
176
     1
 90
        0
176
     1
 62
    18
420
        0
176
     1
 90
       50
176
     1
 90
        3
176
     1
 62
     5
420
      255
176
     1
290
     0
176
     1
 90
       50
176
     1
 90
       50
176
     1
 90
       50
176
     1
290
     0
176
     1
 90
       50
176
     1
 62
   256
176
     0
 40
1.0
176
     0
 90
        2
176
     1
  1
strokes_ogs.tif
176
     1
290
     0
176
     1
 40
1.0
176
     1
 40
1.0
176
     1
  0
VISUALSTYLE
  5
8D
102
{ACAD_REACTORS
330
82
102
}
330
82
100
AcDbVisualStyle
  2
Dim
 70
    11
177
     3
291
     1
 70
    58
 90
        2
176
     1
 90
        2
176
     1
 90
        1
176
     1
 90
        0
176
     1
 40
0.6
176
     1
 40
30.0
176
     1
 62
     7
420
 16777215
176
     1
 90
        1
176
     1
 90
        4
176
     1
 62
     7
176
     1
 62
   257
176
     1
 90
        1
176
     1
 90
        1
176
     1
 40
1.0
176
     1
 90
        8
176
     1
 62
     7
176
     1
 40
1.0
176
     1
 90
        1
176
     1
 90
        6
176
     1
 90
        2
176
     1
 62
     7
176
     1
 90
        5
176
     1
 90
        0
176
     1
 90
        0
176
     1
290
     0
176
     1
 90
        1
176
     1
 40
-50.0
176
     1
 90
        0
176
     1
290
     0
176
     1
290
     1
176
     1
290
     1
176
     1
290
     0
176
     1
290
     0
176
     1
290
     0
176
     1
290
     0
176
     1
290
     0
176
     1
290
     0
176
     1
 90
       50
176
     1
 40
0.0
176
     1
 40
1.0
176
     1
 90
        0
176
     1
 62
    18
420
        0
176
     1
 90
       50
176
     1
 90
        3
176
     1
 62
     5
420
      255
176
     1
290
     0
176
     1
 90
       50
176
     1
 90
       50
176
     1
 90
       50
176
     1
290
     0
176
     1
 90
       50
176
     1
 62
   256
176
     0
 40
1.0
176
     0
 90
        2
176
     1
  1
strokes_ogs.tif
176
     1
290
     0
176
     1
 40
1.0
176
     1
 40
1.0
176
     1
  0
VISUALSTYLE
  5
AE
102
{ACAD_REACTORS
330
82
102
}
330
82
100
AcDbVisualStyle
  2
EdgeColorOff
 70
    22
177
     3
291
     1
 70
    58
 90
        2
176
     0
 90
        2
176
     0
 90
        0
176
     0
 90
        0
176
     0
 40
0.6
176
     0
 40
30.0
176
     0
 62
     7
420
 16777215
176
     0
 90
        1
176
     0
 90
        4
176
     0
 62
     7
176
     0
 62
   257
176
     0
 90
        1
176
     0
 90
        1
176
     0
 40
1.0
176
     0
 90
        8
176
     2
 62
     7
176
     0
 40
1.0
176
     0
 90
        1
176
     0
 90
        6
176
     0
 90
        2
176
     0
 62
     7
176
     0
 90
        5
176
     0
 90
        0
176
     0
 90
        0
176
     0
290
     0
176
     0
 90
        1
176
     0
 40
0.0
176
     0
 90
        0
176
     0
290
     0
176
     0
290
     1
176
     0
290
     1
176
     0
290
     0
176
     0
290
     0
176
     0
290
     0
176
     0
290
     0
176
     0
290
     0
176
     0
290
     0
176
     0
 90
       50
176
     0
 40
0.0
176
     0
 40
1.0
176
     0
 90
        0
176
     0
 62
    18
420
        0
176
     0
 90
       50
176
     0
 90
        3
176
     0
 62
     5
420
      255
176
     0
290
     0
176
     0
 90
       50
176
     0
 90
       50
176
     0
 90
       50
176
     0
290
     0
176
     0
 90
       50
176
     0
 62
   256
176
     0
 40
1.0
176
     0
 90
        2
176
     0
  1
strokes_ogs.tif
176
     0
290
     0
176
     0
 40
1.0
176
     0
 40
1.0
176
     0
  0
VISUALSTYLE
  5
91
102
{ACAD_REACTORS
330
82
102
}
330
82
100
AcDbVisualStyle
  2
Facepattern
 70
    15
177
     3
291
     1
 70
    58
 90
        2
176
     1
 90
        2
176
     1
 90
        1
176
     1
 90
        0
176
     1
 40
0.6
176
     1
 40
30.0
176
     1
 62
     7
420
 16777215
176
     1
 90
        1
176
     1
 90
        4
176
     1
 62
     7
176
     1
 62
   257
176
     1
 90
        1
176
     1
 90
        1
176
     1
 40
1.0
176
     1
 90
        8
176
     1
 62
     7
176
     1
 40
1.0
176
     1
 90
        1
176
     1
 90
        6
176
     1
 90
        2
176
     1
 62
     7
176
     1
 90
        5
176
     1
 90
        0
176
     1
 90
        0
176
     1
290
     0
176
     1
 90
        1
176
     1
 40
0.0
176
     1
 90
        0
176
     1
290
     0
176
     1
290
     1
176
     1
290
     1
176
     1
290
     0
176
     1
290
     0
176
     1
290
     0
176
     1
290
     0
176
     1
290
     0
176
     1
290
     0
176
     1
 90
       50
176
     1
 40
0.0
176
     1
 40
1.0
176
     1
 90
        0
176
     1
 62
    18
420
        0
176
     1
 90
       50
176
     1
 90
        3
176
     1
 62
     5
420
      255
176
     1
290
     0
176
     1
 90
       50
176
     1
 90
       50
176
     1
 90
       50
176
     1
290
     0
176
     1
 90
       50
176
     1
 62
   256
176
     0
 40
1.0
176
     0
 90
        2
176
     1
  1
strokes_ogs.tif
176
     1
290
     0
176
     1
 40
1.0
176
     1
 40
1.0
176
     1
  0
VISUALSTYLE
  5
83
102
{ACAD_REACTORS
330
82
102
}
330
82
100
AcDbVisualStyle
  2
Flat
 70
     0
177
     3
291
     1
 70
    58
 90
        2
176
     1
 90
        1
176
     1
 90
        1
176
     1
 90
        2
176
     1
 40
0.6
176
     1
 40
30.0
176
     1
 62
     7
420
 16777215
176
     1
 90
        0
176
     1
 90
        4
176
     1
 62
     7
176
     1
 62
   257
176
     1
 90
        1
176
     1
 90
        1
176
     1
 40
1.0
176
     1
 90
        8
176
     1
 62
     7
176
     1
 40
1.0
176
     1
 90
        1
176
     1
 90
        6
176
     1
 90
        2
176
     1
 62
     7
176
     1
 90
        5
176
     1
 90
        0
176
     1
 90
        0
176
     1
290
     0
176
     1
 90
        1
176
     1
 40
0.0
176
     1
 90
        0
176
     1
290
     0
176
     1
290
     1
176
     1
290
     1
176
     1
290
     0
176
     1
290
     0
176
     1
290
     0
176
     1
290
     0
176
     1
290
     0
176
     1
290
     0
176
     1
 90
       50
176
     1
 40
0.0
176
     1
 40
1.0
176
     1
 90
        0
176
     1
 62
    18
420
        0
176
     1
 90
       50
176
     1
 90
        3
176
     1
 62
     5
420
      255
176
     1
290
     0
176
     1
 90
       50
176
     1
 90
       50
176
     1
 90
       50
176
     1
290
     0
176
     1
 90
       50
176
     1
 62
   256
176
     0
 40
1.0
176
     0
 90
        2
176
     1
  1
strokes_ogs.tif
176
     1
290
     0
176
     1
 40
1.0
176
     1
 40
1.0
176
     1
  0
VISUALSTYLE
  5
84
102
{ACAD_REACTORS
330
82
102
}
330
82
100
AcDbVisualStyle
  2
FlatWithEdges
 70
     1
177
     3
291
     1
 70
    58
 90
        2
176
     1
 90
        1
176
     1
 90
        1
176
     1
 90
        2
176
     1
 40
0.6
176
     1
 40
30.0
176
     1
 62
     7
420
 16777215
176
     1
 90
        1
176
     1
 90
        4
176
     1
 62
     7
176
     1
 62
   257
176
     1
 90
        1
176
     1
 90
        1
176
     1
 40
1.0
176
     1
 90
        0
176
     1
 62
   257
176
     1
 40
1.0
176
     1
 90
        1
176
     1
 90
        6
176
     1
 90
        2
176
     1
 62
     7
176
     1
 90
        5
176
     1
 90
        0
176
     1
 90
        0
176
     1
290
     0
176
     1
 90
        1
176
     1
 40
0.0
176
     1
 90
        0
176
     1
290
     0
176
     1
290
     1
176
     1
290
     1
176
     1
290
     0
176
     1
290
     0
176
     1
290
     0
176
     1
290
     0
176
     1
290
     0
176
     1
290
     0
176
     1
 90
       50
176
     1
 40
0.0
176
     1
 40
1.0
176
     1
 90
        0
176
     1
 62
    18
420
        0
176
     1
 90
       50
176
     1
 90
        3
176
     1
 62
     5
420
      255
176
     1
290
     0
176
     1
 90
       50
176
     1
 90
       50
176
     1
 90
       50
176
     1
290
     0
176
     1
 90
       50
176
     1
 62
   256
176
     0
 40
1.0
176
     0
 90
        2
176
     1
  1
strokes_ogs.tif
176
     1
290
     0
176
     1
 40
1.0
176
     1
 40
1.0
176
     1
  0
VISUALSTYLE
  5
85
102
{ACAD_REACTORS
330
82
102
}
330
82
100
AcDbVisualStyle
  2
Gouraud
 70
     2
177
     3
291
     1
 70
    58
 90
        2
176
     1
 90
        2
176
     1
 90
        1
176
     1
 90
        2
176
     1
 40
0.6
176
     1
 40
30.0
176
     1
 62
     7
420
 16777215
176
     1
 90
        0
176
     1
 90
        4
176
     1
 62
     7
176
     1
 62
   257
176
     1
 90
        1
176
     1
 90
        1
176
     1
 40
1.0
176
     1
 90
        0
176
     1
 62
     7
176
     1
 40
1.0
176
     1
 90
        1
176
     1
 90
        6
176
     1
 90
        2
176
     1
 62
     7
176
     1
 90
        5
176
     1
 90
        0
176
     1
 90
        0
176
     1
290
     0
176
     1
 90
        1
176
     1
 40
0.0
176
     1
 90
        0
176
     1
290
     0
176
     1
290
     1
176
     1
290
     1
176
     1
290
     0
176
     1
290
     0
176
     1
290
     0
176
     1
290
     0
176
     1
290
     0
176
     1
290
     0
176
     1
 90
       50
176
     1
 40
0.0
176
     1
 40
1.0
176
     1
 90
        0
176
     1
 62
    18
420
        0
176
     1
 90
       50
176
     1
 90
        3
176
     1
 62
     5
420
      255
176
     1
290
     0
176
     1
 90
       50
176
     1
 90
       50
176
     1
 90
       50
176
     1
290
     0
176
     1
 90
       50
176
     1
 62
   256
176
     0
 40
1.0
176
     0
 90
        2
176
     1
  1
strokes_ogs.tif
176
     1
290
     0
176
     1
 40
1.0
176
     1
 40
1.0
176
     1
  0
VISUALSTYLE
  5
86
102
{ACAD_REACTORS
330
82
102
}
330
82
100
AcDbVisualStyle
  2
GouraudWithEdges
 70
     3
177
     3
291
     1
 70
    58
 90
        2
176
     1
 90
        2
176
     1
 90
        1
176
     1
 90
        2
176
     1
 40
0.6
176
     1
 40
30.0
176
     1
 62
     7
420
 16777215
176
     1
 90
        1
176
     1
 90
        4
176
     1
 62
     7
176
     1
 62
   257
176
     1
 90
        1
176
     1
 90
        1
176
     1
 40
1.0
176
     1
 90
        0
176
     1
 62
   257
176
     1
 40
1.0
176
     1
 90
        1
176
     1
 90
        6
176
     1
 90
        2
176
     1
 62
     7
176
     1
 90
        5
176
     1
 90
        0
176
     1
 90
        0
176
     1
290
     0
176
     1
 90
        1
176
     1
 40
0.0
176
     1
 90
        0
176
     1
290
     0
176
     1
290
     1
176
     1
290
     1
176
     1
290
     0
176
     1
290
     0
176
     1
290
     0
176
     1
290
     0
176
     1
290
     0
176
     1
290
     0
176
     1
 90
       50
176
     1
 40
0.0
176
     1
 40
1.0
176
     1
 90
        0
176
     1
 62
    18
420
        0
176
     1
 90
       50
176
     1
 90
        3
176
     1
 62
     5
420
      255
176
     1
290
     0
176
     1
 90
       50
176
     1
 90
       50
176
     1
 90
       50
176
     1
290
     0
176
     1
 90
       50
176
     1
 62
   256
176
     0
 40
1.0
176
     0
 90
        2
176
     1
  1
strokes_ogs.tif
176
     1
290
     0
176
     1
 40
1.0
176
     1
 40
1.0
176
     1
  0
VISUALSTYLE
  5
A6
102
{ACAD_REACTORS
330
82
102
}
330
82
100
AcDbVisualStyle
  2
Hidden
 70
     6
177
     3
291
     0
 70
    58
 90
        1
176
     1
 90
        2
176
     1
 90
        2
176
     1
 90
        0
176
     1
 40
0.6
176
     1
 40
30.0
176
     1
 62
     7
420
 16777215
176
     1
 90
        2
176
     1
 90
        2
176
     1
 62
     7
176
     1
 62
   257
176
     1
 90
        2
176
     1
 90
        1
176
     1
 40
40.0
176
     1
 90
        0
176
     1
 62
   257
176
     1
 40
1.0
176
     1
 90
        1
176
     1
 90
        6
176
     1
 90
        2
176
     1
 62
     7
176
     1
 90
        3
176
     1
 90
        0
176
     1
 90
        0
176
     1
290
     0
176
     1
 90
        1
176
     1
 40
0.0
176
     1
 90
        0
176
     1
290
     0
176
     1
290
     1
176
     1
290
     1
176
     1
290
     0
176
     1
290
     0
176
     1
290
     0
176
     1
290
     0
176
     1
290
     0
176
     1
290
     0
176
     1
 90
       50
176
     1
 40
0.0
176
     1
 40
1.0
176
     1
 90
        0
176
     1
 62
    18
420
        0
176
     1
 90
       50
176
     1
 90
        3
176
     1
 62
     5
420
      255
176
     1
290
     0
176
     1
 90
       50
176
     1
 90
       50
176
     1
 90
       50
176
     1
290
     0
176
     1
 90
       50
176
     1
 62
   256
176
     0
 40
1.0
176
     0
 90
        2
176
     1
  1
strokes_ogs.tif
176
     1
290
     0
176
     1
 40
1.0
176
     1
 40
1.0
176
     1
  0
VISUALSTYLE
  5
AC
102
{ACAD_REACTORS
330
82
102
}
330
82
100
AcDbVisualStyle
  2
JitterOff
 70
    20
177
     3
291
     1
 70
    58
 90
        2
176
     0
 90
        2
176
     0
 90
        0
176
     0
 90
        0
176
     0
 40
0.6
176
     0
 40
30.0
176
     0
 62
     7
420
 16777215
176
     0
 90
        1
176
     0
 90
        4
176
     0
 62
     7
176
     0
 62
   257
176
     0
 90
        1
176
     0
 90
        1
176
     0
 40
1.0
176
     0
 90
       10
176
     2
 62
     7
176
     0
 40
1.0
176
     0
 90
        1
176
     0
 90
        6
176
     0
 90
        2
176
     0
 62
     7
176
     0
 90
        5
176
     0
 90
        0
176
     0
 90
        0
176
     0
290
     0
176
     0
 90
        1
176
     0
 40
0.0
176
     0
 90
        0
176
     0
290
     0
176
     0
290
     1
176
     0
290
     1
176
     0
290
     0
176
     0
290
     0
176
     0
290
     0
176
     0
290
     0
176
     0
290
     0
176
     0
290
     0
176
     0
 90
       50
176
     0
 40
0.0
176
     0
 40
1.0
176
     0
 90
        0
176
     0
 62
    18
420
        0
176
     0
 90
       50
176
     0
 90
        3
176
     0
 62
     5
420
      255
176
     0
290
     0
176
     0
 90
       50
176
     0
 90
       50
176
     0
 90
       50
176
     0
290
     0
176
     0
 90
       50
176
     0
 62
   256
176
     0
 40
1.0
176
     0
 90
        2
176
     0
  1
strokes_ogs.tif
176
     0
290
     0
176
     0
 40
1.0
176
     0
 40
1.0
176
     0
  0
VISUALSTYLE
  5
90
102
{ACAD_REACTORS
330
82
102
}
330
82
100
AcDbVisualStyle
  2
Linepattern
 70
    14
177
     3
291
     1
 70
    58
 90
        2
176
     1
 90
        2
176
     1
 90
        1
176
     1
 90
        0
176
     1
 40
0.6
176
     1
 40
30.0
176
     1
 62
     7
420
 16777215
176
     1
 90
        1
176
     1
 90
        4
176
     1
 62
     7
176
     1
 62
   257
176
     1
 90
        7
176
     1
 90
        7
176
     1
 40
1.0
176
     1
 90
        8
176
     1
 62
     7
176
     1
 40
1.0
176
     1
 90
        1
176
     1
 90
        6
176
     1
 90
        2
176
     1
 62
     7
176
     1
 90
        5
176
     1
 90
        0
176
     1
 90
        0
176
     1
290
     0
176
     1
 90
        1
176
     1
 40
0.0
176
     1
 90
        0
176
     1
290
     0
176
     1
290
     1
176
     1
290
     1
176
     1
290
     0
176
     1
290
     0
176
     1
290
     0
176
     1
290
     0
176
     1
290
     0
176
     1
290
     0
176
     1
 90
       50
176
     1
 40
0.0
176
     1
 40
1.0
176
     1
 90
        0
176
     1
 62
    18
420
        0
176
     1
 90
       50
176
     1
 90
        3
176
     1
 62
     5
420
      255
176
     1
290
     0
176
     1
 90
       50
176
     1
 90
       50
176
     1
 90
       50
176
     1
290
     0
176
     1
 90
       50
176
     1
 62
   256
176
     0
 40
1.0
176
     0
 90
        2
176
     1
  1
strokes_ogs.tif
176
     1
290
     0
176
     1
 40
1.0
176
     1
 40
1.0
176
     1
  0
VISUALSTYLE
  5
AD
102
{ACAD_REACTORS
330
82
102
}
330
82
100
AcDbVisualStyle
  2
OverhangOff
 70
    21
177
     3
291
     1
 70
    58
 90
        2
176
     0
 90
        2
176
     0
 90
        0
176
     0
 90
        0
176
     0
 40
0.6
176
     0
 40
30.0
176
     0
 62
     7
420
 16777215
176
     0
 90
        1
176
     0
 90
        4
176
     0
 62
     7
176
     0
 62
   257
176
     0
 90
        1
176
     0
 90
        1
176
     0
 40
1.0
176
     0
 90
        9
176
     2
 62
     7
176
     0
 40
1.0
176
     0
 90
        1
176
     0
 90
        6
176
     0
 90
        2
176
     0
 62
     7
176
     0
 90
        5
176
     0
 90
        0
176
     0
 90
        0
176
     0
290
     0
176
     0
 90
        1
176
     0
 40
0.0
176
     0
 90
        0
176
     0
290
     0
176
     0
290
     1
176
     0
290
     1
176
     0
290
     0
176
     0
290
     0
176
     0
290
     0
176
     0
290
     0
176
     0
290
     0
176
     0
290
     0
176
     0
 90
       50
176
     0
 40
0.0
176
     0
 40
1.0
176
     0
 90
        0
176
     0
 62
    18
420
        0
176
     0
 90
       50
176
     0
 90
        3
176
     0
 62
     5
420
      255
176
     0
290
     0
176
     0
 90
       50
176
     0
 90
       50
176
     0
 90
       50
176
     0
290
     0
176
     0
 90
       50
176
     0
 62
   256
176
     0
 40
1.0
176
     0
 90
        2
176
     0
  1
strokes_ogs.tif
176
     0
290
     0
176
     0
 40
1.0
176
     0
 40
1.0
176
     0
  0
VISUALSTYLE
  5
8C
102
{ACAD_REACTORS
330
82
102
}
330
82
100
AcDbVisualStyle
  2
Realistic
 70
     8
177
     3
291
     0
 70
    58
 90
        2
176
     1
 90
        2
176
     1
 90
        1
176
     1
 90
        0
176
     1
 40
0.6
176
     1
 40
30.0
176
     1
 62
     7
420
 16777215
176
     1
 90
        1
176
     1
 90
        0
176
     1
 62
     7
176
     1
 62
   257
176
     1
 90
        1
176
     1
 90
        1
176
     1
 40
1.0
176
     1
 90
        8
176
     1
 62
     7
176
     1
 40
1.0
176
     1
 90
        1
176
     1
 90
        6
176
     1
 90
        2
176
     1
 62
     7
176
     1
 90
        5
176
     1
 90
        0
176
     1
 90
        0
176
     1
290
     0
176
     1
 90
       13
176
     1
 40
0.0
176
     1
 90
        0
176
     1
290
     0
176
     1
290
     1
176
     1
290
     1
176
     1
290
     0
176
     1
290
     0
176
     1
290
     0
176
     1
290
     0
176
     1
290
     0
176
     1
290
     0
176
     1
 90
       50
176
     1
 40
0.0
176
     1
 40
1.0
176
     1
 90
        0
176
     1
 62
    18
420
        0
176
     1
 90
       50
176
     1
 90
        3
176
     1
 62
     5
420
      255
176
     1
290
     0
176
     1
 90
       50
176
     1
 90
       50
176
     1
 90
       50
176
     1
290
     0
176
     1
 90
       50
176
     1
 62
   256
176
     0
 40
1.0
176
     0
 90
        2
176
     1
  1
strokes_ogs.tif
176
     1
290
     0
176
     1
 40
1.0
176
     1
 40
1.0
176
     1
  0
VISUALSTYLE
  5
AB
102
{ACAD_REACTORS
330
82
102
}
330
82
100
AcDbVisualStyle
  2
Shaded
 70
    27
177
     3
291
     0
 70
    58
 90
        2
176
     1
 90
        2
176
     1
 90
        1
176
     1
 90
        2
176
     1
 40
0.6
176
     1
 40
30.0
176
     1
 62
     7
420
 16777215
176
     1
 90
        0
176
     1
 90
        4
176
     1
 62
     7
176
     1
 62
   257
176
     1
 90
        1
176
     1
 90
        1
176
     1
 40
1.0
176
     1
 90
        8
176
     1
 62
   257
176
     1
 40
1.0
176
     1
 90
        1
176
     1
 90
        6
176
     1
 90
        2
176
     1
 62
     8
420
  7895160
176
     1
 90
        3
176
     1
 90
        0
176
     1
 90
        0
176
     1
290
     0
176
     1
 90
        5
176
     1
 40
0.0
176
     1
 90
        0
176
     1
290
     0
176
     1
290
     1
176
     1
290
     1
176
     1
290
     0
176
     1
290
     0
176
     1
290
     0
176
     1
290
     0
176
     1
290
     0
176
     1
290
     0
176
     1
 90
       50
176
     1
 40
0.0
176
     1
 40
1.0
176
     1
 90
        0
176
     1
 62
    18
420
        0
176
     1
 90
       50
176
     1
 90
        3
176
     1
 62
     5
420
      255
176
     1
290
     0
176
     1
 90
       50
176
     1
 90
       50
176
     1
 90
       50
176
     1
290
     0
176
     1
 90
       50
176
     1
 62
   256
176
     0
 40
1.0
176
     0
 90
        2
176
     1
  1
strokes_ogs.tif
176
     1
290
     0
176
     1
 40
1.0
176
     1
 40
1.0
176
     1
  0
VISUALSTYLE
  5
AA
102
{ACAD_REACTORS
330
82
102
}
330
82
100
AcDbVisualStyle
  2
Shaded with edges
 70
    26
177
     3
291
     0
 70
    58
 90
        2
176
     1
 90
        2
176
     1
 90
        1
176
     1
 90
        2
176
     1
 40
0.6
176
     1
 40
30.0
176
     1
 62
     7
420
 16777215
176
     1
 90
        1
176
     1
 90
        2
176
     1
 62
     7
176
     1
 62
   257
176
     1
 90
        2
176
     1
 90
        1
176
     1
 40
1.0
176
     1
 90
        8
176
     1
 62
   257
176
     1
 40
1.0
176
     1
 90
        1
176
     1
 90
        6
176
     1
 90
        2
176
     1
 62
     7
176
     1
 90
        3
176
     1
 90
        0
176
     1
 90
        0
176
     1
290
     0
176
     1
 90
        5
176
     1
 40
0.0
176
     1
 90
        0
176
     1
290
     0
176
     1
290
     1
176
     1
290
     1
176
     1
290
     0
176
     1
290
     0
176
     1
290
     0
176
     1
290
     0
176
     1
290
     0
176
     1
290
     0
176
     1
 90
       50
176
     1
 40
0.0
176
     1
 40
1.0
176
     1
 90
        0
176
     1
 62
    18
420
        0
176
     1
 90
       50
176
     1
 90
        3
176
     1
 62
     5
420
      255
176
     1
290
     0
176
     1
 90
       50
176
     1
 90
       50
176
     1
 90
       50
176
     1
290
     0
176
     1
 90
       50
176
     1
 62
   256
176
     0
 40
1.0
176
     0
 90
        2
176
     1
  1
strokes_ogs.tif
176
     1
290
     0
176
     1
 40
1.0
176
     1
 40
1.0
176
     1
  0
VISUALSTYLE
  5
A7
102
{ACAD_REACTORS
330
82
102
}
330
82
100
AcDbVisualStyle
  2
Shades of Gray
 70
    23
177
     3
291
     0
 70
    58
 90
        2
176
     1
 90
        2
176
     1
 90
        3
176
     1
 90
        0
176
     1
 40
0.6
176
     1
 40
30.0
176
     1
 62
     7
420
 16777215
176
     1
 90
        2
176
     1
 90
        2
176
     1
 62
     7
176
     1
 62
     7
176
     1
 90
        1
176
     1
 90
        1
176
     1
 40
40.0
176
     1
 90
        8
176
     1
 62
     7
176
     1
 40
1.0
176
     1
 90
        1
176
     1
 90
        6
176
     1
 90
        2
176
     1
 62
     7
176
     1
 90
        3
176
     1
 90
        0
176
     1
 90
        0
176
     1
290
     0
176
     1
 90
        1
176
     1
 40
0.0
176
     1
 90
        0
176
     1
290
     0
176
     1
290
     1
176
     1
290
     1
176
     1
290
     0
176
     1
290
     0
176
     1
290
     0
176
     1
290
     0
176
     1
290
     0
176
     1
290
     0
176
     1
 90
       50
176
     1
 40
0.0
176
     1
 40
1.0
176
     1
 90
        0
176
     1
 62
    18
420
        0
176
     1
 90
       50
176
     1
 90
        3
176
     1
 62
     5
420
      255
176
     1
290
     0
176
     1
 90
       50
176
     1
 90
       50
176
     1
 90
       50
176
     1
290
     0
176
     1
 90
       50
176
     1
 62
   256
176
     0
 40
1.0
176
     0
 90
        2
176
     1
  1
strokes_ogs.tif
176
     1
290
     0
176
     1
 40
1.0
176
     1
 40
1.0
176
     1
  0
VISUALSTYLE
  5
A8
102
{ACAD_REACTORS
330
82
102
}
330
82
100
AcDbVisualStyle
  2
Sketchy
 70
    24
177
     3
291
     0
 70
    58
 90
        1
176
     1
 90
        2
176
     1
 90
        2
176
     1
 90
        0
176
     1
 40
0.6
176
     1
 40
30.0
176
     1
 62
     7
420
 16777215
176
     1
 90
        2
176
     1
 90
        2
176
     1
 62
     7
176
     1
 62
     7
176
     1
 90
        1
176
     1
 90
        1
176
     1
 40
40.0
176
     1
 90
       11
176
     1
 62
     7
176
     1
 40
1.0
176
     1
 90
        1
176
     1
 90
        6
176
     1
 90
        2
176
     1
 62
     7
176
     1
 90
        6
176
     1
 90
        0
176
     1
 90
        0
176
     1
290
     0
176
     1
 90
        1
176
     1
 40
0.0
176
     1
 90
        0
176
     1
290
     0
176
     1
290
     1
176
     1
290
     1
176
     1
290
     0
176
     1
290
     0
176
     1
290
     0
176
     1
290
     0
176
     1
290
     0
176
     1
290
     0
176
     1
 90
       50
176
     1
 40
0.0
176
     1
 40
1.0
176
     1
 90
        0
176
     1
 62
    18
420
        0
176
     1
 90
       50
176
     1
 90
        3
176
     1
 62
     5
420
      255
176
     1
290
     0
176
     1
 90
       50
176
     1
 90
       50
176
     1
 90
       50
176
     1
290
     0
176
     1
 90
       50
176
     1
 62
   256
176
     0
 40
1.0
176
     0
 90
        2
176
     1
  1
strokes_ogs.tif
176
     1
290
     0
176
     1
 40
1.0
176
     1
 40
1.0
176
     1
  0
VISUALSTYLE
  5
8F
102
{ACAD_REACTORS
330
82
102
}
330
82
100
AcDbVisualStyle
  2
Thicken
 70
    13
177
     3
291
     1
 70
    58
 90
        2
176
     1
 90
        2
176
     1
 90
        1
176
     1
 90
        0
176
     1
 40
0.6
176
     1
 40
30.0
176
     1
 62
     7
420
 16777215
176
     1
 90
        1
176
     1
 90
        4
176
     1
 62
     7
176
     1
 62
   257
176
     1
 90
        1
176
     1
 90
        1
176
     1
 40
1.0
176
     1
 90
       12
176
     1
 62
     7
176
     1
 40
1.0
176
     1
 90
        1
176
     1
 90
        6
176
     1
 90
        2
176
     1
 62
     7
176
     1
 90
        5
176
     1
 90
        0
176
     1
 90
        0
176
     1
290
     0
176
     1
 90
        1
176
     1
 40
0.0
176
     1
 90
        0
176
     1
290
     0
176
     1
290
     1
176
     1
290
     1
176
     1
290
     0
176
     1
290
     0
176
     1
290
     0
176
     1
290
     0
176
     1
290
     0
176
     1
290
     0
176
     1
 90
       50
176
     1
 40
0.0
176
     1
 40
1.0
176
     1
 90
        0
176
     1
 62
    18
420
        0
176
     1
 90
       50
176
     1
 90
        3
176
     1
 62
     5
420
      255
176
     1
290
     0
176
     1
 90
       50
176
     1
 90
       50
176
     1
 90
       50
176
     1
290
     0
176
     1
 90
       50
176
     1
 62
   256
176
     0
 40
1.0
176
     0
 90
        2
176
     1
  1
strokes_ogs.tif
176
     1
290
     0
176
     1
 40
1.0
176
     1
 40
1.0
176
     1
  0
VISUALSTYLE
  5
A5
102
{ACAD_REACTORS
330
82
102
}
330
82
100
AcDbVisualStyle
  2
Wireframe
 70
     5
177
     3
291
     0
 70
    58
 90
        0
176
     1
 90
        2
176
     1
 90
        0
176
     1
 90
        0
176
     1
 40
0.6
176
     1
 40
30.0
176
     1
 62
     7
420
 16777215
176
     1
 90
        1
176
     1
 90
        4
176
     1
 62
     7
176
     1
 62
   257
176
     1
 90
        1
176
     1
 90
        1
176
     1
 40
1.0
176
     1
 90
        0
176
     1
 62
   257
176
     1
 40
1.0
176
     1
 90
        1
176
     1
 90
        6
176
     1
 90
        2
176
     1
 62
     7
176
     1
 90
        3
176
     1
 90
        0
176
     1
 90
        0
176
     1
290
     0
176
     1
 90
        1
176
     1
 40
0.0
176
     1
 90
        0
176
     1
290
     0
176
     1
290
     1
176
     1
290
     1
176
     1
290
     0
176
     1
290
     0
176
     1
290
     0
176
     1
290
     0
176
     1
290
     0
176
     1
290
     0
176
     1
 90
       50
176
     1
 40
0.0
176
     1
 40
1.0
176
     1
 90
        0
176
     1
 62
    18
420
        0
176
     1
 90
       50
176
     1
 90
        3
176
     1
 62
     5
420
      255
176
     1
290
     0
176
     1
 90
       50
176
     1
 90
       50
176
     1
 90
       50
176
     1
290
     0
176
     1
 90
       50
176
     1
 62
   256
176
     0
 40
1.0
176
     0
 90
        2
176
     1
  1
strokes_ogs.tif
176
     1
290
     0
176
     1
 40
1.0
176
     1
 40
1.0
176
     1
  0
VISUALSTYLE
  5
A9
102
{ACAD_REACTORS
330
82
102
}
330
82
100
AcDbVisualStyle
  2
X-Ray
 70
    25
177
     3
291
     0
 70
    58
 90
        2
176
     1
 90
        2
176
     1
 90
        1
176
     1
 90
        1
176
     1
 40
0.5
176
     1
 40
30.0
176
     1
 62
     7
420
 16777215
176
     1
 90
        1
176
     1
 90
        0
176
     1
 62
     7
176
     1
 62
   257
176
     1
 90
        1
176
     1
 90
        1
176
     1
 40
1.0
176
     1
 90
        8
176
     1
 62
     7
176
     1
 40
1.0
176
     1
 90
        1
176
     1
 90
        6
176
     1
 90
        2
176
     1
 62
     7
176
     1
 90
        3
176
     1
 90
        0
176
     1
 90
        0
176
     1
290
     0
176
     1
 90
       13
176
     1
 40
0.0
176
     1
 90
        0
176
     1
290
     0
176
     1
290
     1
176
     1
290
     1
176
     1
290
     0
176
     1
290
     0
176
     1
290
     0
176
     1
290
     0
176
     1
290
     0
176
     1
290
     0
176
     1
 90
       50
176
     1
 40
0.0
176
     1
 40
1.0
176
     1
 90
        0
176
     1
 62
    18
420
        0
176
     1
 90
       50
176
     1
 90
        3
176
     1
 62
     5
420
      255
176
     1
290
     0
176
     1
 90
       50
176
     1
 90
       50
176
     1
 90
       50
176
     1
290
     0
176
     1
 90
       50
176
     1
 62
   256
176
     0
 40
1.0
176
     0
 90
        2
176
     1
  1
strokes_ogs.tif
176
     1
290
     0
176
     1
 40
1.0
176
     1
 40
1.0
176
     1
  0
DICTIONARYVAR
  5
31F
102
{ACAD_REACTORS
330
9B
102
}
330
9B
100
DictionaryVariables
280
     0
  1
1:1
  0
DICTIONARYVAR
  5
31B
102
{ACAD_REACTORS
330
9B
102
}
330
9B
100
DictionaryVariables
280
     0
  1
STANDARD
  0
DICTIONARYVAR
  5
9C
102
{ACAD_REACTORS
330
9B
102
}
330
9B
100
DictionaryVariables
280
     0
  1
STANDARD
  0
DICTIONARYVAR
  5
31C
102
{ACAD_REACTORS
330
9B
102
}
330
9B
100
DictionaryVariables
280
     0
  1
Imperial24
  0
DICTIONARYVAR
  5
31D
102
{ACAD_REACTORS
330
9B
102
}
330
9B
100
DictionaryVariables
280
     0
  1
Imperial24
  0
DICTIONARYVAR
  5
321
102
{ACAD_REACTORS
330
9B
102
}
330
9B
100
DictionaryVariables
280
     0
  1
1
  0
DICTIONARYVAR
  5
322
102
{ACAD_REACTORS
330
9B
102
}
330
9B
100
DictionaryVariables
280
     0
  1
15
  0
DICTIONARYVAR
  5
320
102
{ACAD_REACTORS
330
9B
102
}
330
9B
100
DictionaryVariables
280
     0
  1
0
  0
DICTIONARYVAR
  5
31E
102
{ACAD_REACTORS
330
9B
102
}
330
9B
100
DictionaryVariables
280
     0
  1
0
  0
DICTIONARY
  5
327
330
C6
100
AcDbDictionary
280
     1
281
     1
  3
ACAD_XREC_ROUNDTRIP
360
328
  0
DICTIONARY
  5
325
330
C4
100
AcDbDictionary
280
     1
281
     1
  3
ACAD_XREC_ROUNDTRIP
360
326
  0
DICTIONARY
  5
323
330
94
100
AcDbDictionary
280
     1
281
     1
  3
ACAD_ROUNDTRIP_2008_TABLESTYLE_CELLSTYLEMAP
360
324
  0
XRECORD
  5
328
102
{ACAD_REACTORS
330
327
102
}
330
327
100
AcDbXrecord
280
     1
102
DISPLAYNAME
  1
Imperial24
102
FLAGS
 90
        0
  0
XRECORD
  5
326
102
{ACAD_REACTORS
330
325
102
}
330
325
100
AcDbXrecord
280
     1
102
DISPLAYNAME
  1
Imperial24
102
FLAGS
 90
        0
  0
CELLSTYLEMAP
  5
324
102
{ACAD_REACTORS
330
323
102
}
330
323
100
AcDbCellStyleMap
 90
        3
300
CELLSTYLE
  1
TABLEFORMAT_BEGIN
 90
        5
170
     1
 91
        0
 92
    32768
 62
   257
 93
        1
300
CONTENTFORMAT
  1
CONTENTFORMAT_BEGIN
 90
        0
 91
        0
 92
      512
 93
        0
300

 40
0.0
140
1.0
 94
        5
 62
     0
340
12
144
0.25
309
CONTENTFORMAT_END
171
     0
 94
        6
 95
        1
302
GRIDFORMAT
  1
GRIDFORMAT_BEGIN
 90
        0
 91
        1
 62
     0
 92
       -2
340
0
 93
        0
 40
0.045
309
GRIDFORMAT_END
 95
        2
302
GRIDFORMAT
  1
GRIDFORMAT_BEGIN
 90
        0
 91
        1
 62
     0
 92
       -2
340
0
 93
        0
 40
0.045
309
GRIDFORMAT_END
 95
        4
302
GRIDFORMAT
  1
GRIDFORMAT_BEGIN
 90
        0
 91
        1
 62
     0
 92
       -2
340
0
 93
        0
 40
0.045
309
GRIDFORMAT_END
 95
        8
302
GRIDFORMAT
  1
GRIDFORMAT_BEGIN
 90
        0
 91
        1
 62
     0
 92
       -2
340
0
 93
        0
 40
0.045
309
GRIDFORMAT_END
 95
       16
302
GRIDFORMAT
  1
GRIDFORMAT_BEGIN
 90
        0
 91
        1
 62
     0
 92
       -2
340
0
 93
        0
 40
0.045
309
GRIDFORMAT_END
 95
       32
302
GRIDFORMAT
  1
GRIDFORMAT_BEGIN
 90
        0
 91
        1
 62
     0
 92
       -2
340
0
 93
        0
 40
0.045
309
GRIDFORMAT_END
309
TABLEFORMAT_END
  1
CELLSTYLE_BEGIN
 90
        1
 91
        1
300
_TITLE
309
CELLSTYLE_END
300
CELLSTYLE
  1
TABLEFORMAT_BEGIN
 90
        5
170
     1
 91
        0
 92
        0
 62
   257
 93
        1
300
CONTENTFORMAT
  1
CONTENTFORMAT_BEGIN
 90
        0
 91
        0
 92
      512
 93
        0
300

 40
0.0
140
1.0
 94
        5
 62
     0
340
12
144
0.18
309
CONTENTFORMAT_END
171
     0
 94
        6
 95
        1
302
GRIDFORMAT
  1
GRIDFORMAT_BEGIN
 90
        0
 91
        1
 62
     0
 92
       -2
340
0
 93
        0
 40
0.045
309
GRIDFORMAT_END
 95
        2
302
GRIDFORMAT
  1
GRIDFORMAT_BEGIN
 90
        0
 91
        1
 62
     0
 92
       -2
340
0
 93
        0
 40
0.045
309
GRIDFORMAT_END
 95
        4
302
GRIDFORMAT
  1
GRIDFORMAT_BEGIN
 90
        0
 91
        1
 62
     0
 92
       -2
340
0
 93
        0
 40
0.045
309
GRIDFORMAT_END
 95
        8
302
GRIDFORMAT
  1
GRIDFORMAT_BEGIN
 90
        0
 91
        1
 62
     0
 92
       -2
340
0
 93
        0
 40
0.045
309
GRIDFORMAT_END
 95
       16
302
GRIDFORMAT
  1
GRIDFORMAT_BEGIN
 90
        0
 91
        1
 62
     0
 92
       -2
340
0
 93
        0
 40
0.045
309
GRIDFORMAT_END
 95
       32
302
GRIDFORMAT
  1
GRIDFORMAT_BEGIN
 90
        0
 91
        1
 62
     0
 92
       -2
340
0
 93
        0
 40
0.045
309
GRIDFORMAT_END
309
TABLEFORMAT_END
  1
CELLSTYLE_BEGIN
 90
        2
 91
        1
300
_HEADER
309
CELLSTYLE_END
300
CELLSTYLE
  1
TABLEFORMAT_BEGIN
 90
        5
170
     1
 91
        0
 92
        0
 62
   257
 93
        1
300
CONTENTFORMAT
  1
CONTENTFORMAT_BEGIN
 90
        0
 91
        0
 92
      512
 93
        0
300

 40
0.0
140
1.0
 94
        2
 62
     0
340
12
144
0.18
309
CONTENTFORMAT_END
171
     0
 94
        6
 95
        1
302
GRIDFORMAT
  1
GRIDFORMAT_BEGIN
 90
        0
 91
        1
 62
     0
 92
       -2
340
0
 93
        0
 40
0.045
309
GRIDFORMAT_END
 95
        2
302
GRIDFORMAT
  1
GRIDFORMAT_BEGIN
 90
        0
 91
        1
 62
     0
 92
       -2
340
0
 93
        0
 40
0.045
309
GRIDFORMAT_END
 95
        4
302
GRIDFORMAT
  1
GRIDFORMAT_BEGIN
 90
        0
 91
        1
 62
     0
 92
       -2
340
0
 93
        0
 40
0.045
309
GRIDFORMAT_END
 95
        8
302
GRIDFORMAT
  1
GRIDFORMAT_BEGIN
 90
        0
 91
        1
 62
     0
 92
       -2
340
0
 93
        0
 40
0.045
309
GRIDFORMAT_END
 95
       16
302
GRIDFORMAT
  1
GRIDFORMAT_BEGIN
 90
        0
 91
        1
 62
     0
 92
       -2
340
0
 93
        0
 40
0.045
309
GRIDFORMAT_END
 95
       32
302
GRIDFORMAT
  1
GRIDFORMAT_BEGIN
 90
        0
 91
        1
 62
     0
 92
       -2
340
0
 93
        0
 40
0.045
309
GRIDFORMAT_END
309
TABLEFORMAT_END
  1
CELLSTYLE_BEGIN
 90
        3
 91
        2
300
_DATA
309
CELLSTYLE_END
  0
ENDSEC
  0
EOF
