  0
SECTION
  2
HEADER
  9
$ACADVER
  1
AC1027
  9
$ACADMAINTVER
 70
   125
  9
$DWGCODEPAGE
  3
ANSI_1252
  9
$LASTSAVEDBY
  1
fleminab
  9
$REQUIREDVERSIONS
160
                 0
  9
$INSBASE
 10
0.0
 20
0.0
 30
0.0
  9
$EXTMIN
 10
0.5261707975836885
 20
2.49848180146823
 30
-0.0000000349181948
  9
$EXTMAX
 10
6.590833807014107
 20
4.962702301836586
 30
0.0000000814935746
  9
$LIMMIN
 10
0.0
 20
0.0
  9
$LIMMAX
 10
12.0
 20
9.0
  9
$ORTHOMODE
 70
     0
  9
$REGENMODE
 70
     1
  9
$FILLMODE
 70
     1
  9
$QTEXTMODE
 70
     0
  9
$MIRRTEXT
 70
     0
  9
$LTSCALE
 40
1.0
  9
$ATTMODE
 70
     1
  9
$TEXTSIZE
 40
0.2
  9
$TRACEWID
 40
0.05
  9
$TEXTSTYLE
  7
Standard
  9
$CLAYER
  8
0
  9
$CELTYPE
  6
ByLayer
  9
$CECOLOR
 62
   256
  9
$CELTSCALE
 40
1.0
  9
$DISPSILH
 70
     0
  9
$DIMSCALE
 40
1.0
  9
$DIMASZ
 40
0.18
  9
$DIMEXO
 40
0.0625
  9
$DIMDLI
 40
0.38
  9
$DIMRND
 40
0.0
  9
$DIMDLE
 40
0.0
  9
$DIMEXE
 40
0.18
  9
$DIMTP
 40
0.0
  9
$DIMTM
 40
0.0
  9
$DIMTXT
 40
0.18
  9
$DIMCEN
 40
0.09
  9
$DIMTSZ
 40
0.0
  9
$DIMTOL
 70
     0
  9
$DIMLIM
 70
     0
  9
$DIMTIH
 70
     1
  9
$DIMTOH
 70
     1
  9
$DIMSE1
 70
     0
  9
$DIMSE2
 70
     0
  9
$DIMTAD
 70
     0
  9
$DIMZIN
 70
     0
  9
$DIMBLK
  1

  9
$DIMASO
 70
     1
  9
$DIMSHO
 70
     1
  9
$DIMPOST
  1

  9
$DIMAPOST
  1

  9
$DIMALT
 70
     0
  9
$DIMALTD
 70
     2
  9
$DIMALTF
 40
25.4
  9
$DIMLFAC
 40
1.0
  9
$DIMTOFL
 70
     0
  9
$DIMTVP
 40
0.0
  9
$DIMTIX
 70
     0
  9
$DIMSOXD
 70
     0
  9
$DIMSAH
 70
     0
  9
$DIMBLK1
  1

  9
$DIMBLK2
  1

  9
$DIMSTYLE
  2
Standard
  9
$DIMCLRD
 70
     0
  9
$DIMCLRE
 70
     0
  9
$DIMCLRT
 70
     0
  9
$DIMTFAC
 40
1.0
  9
$DIMGAP
 40
0.09
  9
$DIMJUST
 70
     0
  9
$DIMSD1
 70
     0
  9
$DIMSD2
 70
     0
  9
$DIMTOLJ
 70
     1
  9
$DIMTZIN
 70
     0
  9
$DIMALTZ
 70
     0
  9
$DIMALTTZ
 70
     0
  9
$DIMUPT
 70
     0
  9
$DIMDEC
 70
     4
  9
$DIMTDEC
 70
     4
  9
$DIMALTU
 70
     2
  9
$DIMALTTD
 70
     2
  9
$DIMTXSTY
  7
Standard
  9
$DIMAUNIT
 70
     0
  9
$DIMADEC
 70
     0
  9
$DIMALTRND
 40
0.0
  9
$DIMAZIN
 70
     0
  9
$DIMDSEP
 70
    46
  9
$DIMATFIT
 70
     3
  9
$DIMFRAC
 70
     0
  9
$DIMLDRBLK
  1

  9
$DIMLUNIT
 70
     2
  9
$DIMLWD
 70
    -2
  9
$DIMLWE
 70
    -2
  9
$DIMTMOVE
 70
     0
  9
$DIMFXL
 40
1.0
  9
$DIMFXLON
 70
     0
  9
$DIMJOGANG
 40
0.7853981633974483
  9
$DIMTFILL
 70
     0
  9
$DIMTFILLCLR
 70
     0
  9
$DIMARCSYM
 70
     0
  9
$DIMLTYPE
  6

  9
$DIMLTEX1
  6

  9
$DIMLTEX2
  6

  9
$DIMTXTDIRECTION
 70
     0
  9
$LUNITS
 70
     2
  9
$LUPREC
 70
     4
  9
$SKETCHINC
 40
0.1
  9
$FILLETRAD
 40
0.0
  9
$AUNITS
 70
     0
  9
$AUPREC
 70
     0
  9
$MENU
  1
.
  9
$ELEVATION
 40
0.0
  9
$PELEVATION
 40
0.0
  9
$THICKNESS
 40
0.0
  9
$LIMCHECK
 70
     0
  9
$CHAMFERA
 40
0.0
  9
$CHAMFERB
 40
0.0
  9
$CHAMFERC
 40
0.0
  9
$CHAMFERD
 40
0.0
  9
$SKPOLY
 70
     0
  9
$TDCREATE
 40
2458220.550567130
  9
$TDUCREATE
 40
2458220.133900463
  9
$TDUPDATE
 40
2458220.551435185
  9
$TDUUPDATE
 40
2458220.134768519
  9
$TDINDWG
 40
0.0008680556
  9
$TDUSRTIMER
 40
0.0008680556
  9
$USRTIMER
 70
     1
  9
$ANGBASE
 50
0.0
  9
$ANGDIR
 70
     0
  9
$PDMODE
 70
     0
  9
$PDSIZE
 40
0.0
  9
$PLINEWID
 40
0.0
  9
$SPLFRAME
 70
     0
  9
$SPLINETYPE
 70
     6
  9
$SPLINESEGS
 70
     8
  9
$HANDSEED
  5
2D5
  9
$SURFTAB1
 70
     6
  9
$SURFTAB2
 70
     6
  9
$SURFTYPE
 70
     6
  9
$SURFU
 70
     6
  9
$SURFV
 70
     6
  9
$UCSBASE
  2

  9
$UCSNAME
  2

  9
$UCSORG
 10
0.0
 20
0.0
 30
0.0
  9
$UCSXDIR
 10
1.0
 20
0.0
 30
0.0
  9
$UCSYDIR
 10
0.0
 20
1.0
 30
0.0
  9
$UCSORTHOREF
  2

  9
$UCSORTHOVIEW
 70
     0
  9
$UCSORGTOP
 10
0.0
 20
0.0
 30
0.0
  9
$UCSORGBOTTOM
 10
0.0
 20
0.0
 30
0.0
  9
$UCSORGLEFT
 10
0.0
 20
0.0
 30
0.0
  9
$UCSORGRIGHT
 10
0.0
 20
0.0
 30
0.0
  9
$UCSORGFRONT
 10
0.0
 20
0.0
 30
0.0
  9
$UCSORGBACK
 10
0.0
 20
0.0
 30
0.0
  9
$PUCSBASE
  2

  9
$PUCSNAME
  2

  9
$PUCSORG
 10
0.0
 20
0.0
 30
0.0
  9
$PUCSXDIR
 10
1.0
 20
0.0
 30
0.0
  9
$PUCSYDIR
 10
0.0
 20
1.0
 30
0.0
  9
$PUCSORTHOREF
  2

  9
$PUCSORTHOVIEW
 70
     0
  9
$PUCSORGTOP
 10
0.0
 20
0.0
 30
0.0
  9
$PUCSORGBOTTOM
 10
0.0
 20
0.0
 30
0.0
  9
$PUCSORGLEFT
 10
0.0
 20
0.0
 30
0.0
  9
$PUCSORGRIGHT
 10
0.0
 20
0.0
 30
0.0
  9
$PUCSORGFRONT
 10
0.0
 20
0.0
 30
0.0
  9
$PUCSORGBACK
 10
0.0
 20
0.0
 30
0.0
  9
$USERI1
 70
     0
  9
$USERI2
 70
     0
  9
$USERI3
 70
     0
  9
$USERI4
 70
     0
  9
$USERI5
 70
     0
  9
$USERR1
 40
0.0
  9
$USERR2
 40
0.0
  9
$USERR3
 40
0.0
  9
$USERR4
 40
0.0
  9
$USERR5
 40
0.0
  9
$WORLDVIEW
 70
     1
  9
$SHADEDGE
 70
     3
  9
$SHADEDIF
 70
    70
  9
$TILEMODE
 70
     1
  9
$MAXACTVP
 70
    64
  9
$PINSBASE
 10
0.0
 20
0.0
 30
0.0
  9
$PLIMCHECK
 70
     0
  9
$PEXTMIN
 10
1.000000000000000E+20
 20
1.000000000000000E+20
 30
1.000000000000000E+20
  9
$PEXTMAX
 10
-1.000000000000000E+20
 20
-1.000000000000000E+20
 30
-1.000000000000000E+20
  9
$PLIMMIN
 10
-0.7524054877282309
 20
-0.5025428238148726
  9
$PLIMMAX
 10
35.24759547345533
 20
23.49745621500156
  9
$UNITMODE
 70
     0
  9
$VISRETAIN
 70
     1
  9
$PLINEGEN
 70
     0
  9
$PSLTSCALE
 70
     1
  9
$TREEDEPTH
 70
  3020
  9
$CMLSTYLE
  2
Standard
  9
$CMLJUST
 70
     0
  9
$CMLSCALE
 40
1.0
  9
$PROXYGRAPHICS
 70
     1
  9
$MEASUREMENT
 70
     0
  9
$CELWEIGHT
370
    -1
  9
$ENDCAPS
280
     0
  9
$JOINSTYLE
280
     0
  9
$LWDISPLAY
290
     0
  9
$INSUNITS
 70
     1
  9
$HYPERLINKBASE
  1

  9
$STYLESHEET
  1

  9
$XEDIT
290
     1
  9
$CEPSNTYPE
380
     0
  9
$PSTYLEMODE
290
     1
  9
$FINGERPRINTGUID
  2
{2345A7C8-EF72-A74A-BF06-79FB42CC385C}
  9
$VERSIONGUID
  2
{4A5940E4-933E-D245-8E39-FD8C1B224483}
  9
$EXTNAMES
290
     1
  9
$PSVPSCALE
 40
0.0
  9
$OLESTARTUP
290
     0
  9
$SORTENTS
280
   127
  9
$INDEXCTL
280
     0
  9
$HIDETEXT
280
     0
  9
$XCLIPFRAME
280
     0
  9
$HALOGAP
280
     0
  9
$OBSCOLOR
 70
   257
  9
$OBSLTYPE
280
     0
  9
$INTERSECTIONDISPLAY
280
     0
  9
$INTERSECTIONCOLOR
 70
   257
  9
$DIMASSOC
280
     1
  9
$PROJECTNAME
  1

  9
$CAMERADISPLAY
290
     0
  9
$LENSLENGTH
 40
50.0
  9
$CAMERAHEIGHT
 40
0.0
  9
$STEPSPERSEC
 40
2.0
  9
$STEPSIZE
 40
6.0
  9
$3DDWFPREC
 40
2.0
  9
$PSOLWIDTH
 40
0.25
  9
$PSOLHEIGHT
 40
4.0
  9
$LOFTANG1
 40
1.570796326794896
  9
$LOFTANG2
 40
1.570796326794896
  9
$LOFTMAG1
 40
0.0
  9
$LOFTMAG2
 40
0.0
  9
$LOFTPARAM
 70
     7
  9
$LOFTNORMALS
280
     1
  9
$LATITUDE
 40
37.795
  9
$LONGITUDE
 40
-122.394
  9
$NORTHDIRECTION
 40
0.0
  9
$TIMEZONE
 70
 -8000
  9
$LIGHTGLYPHDISPLAY
280
     1
  9
$TILEMODELIGHTSYNCH
280
     1
  9
$CMATERIAL
347
7F
  9
$SOLIDHIST
280
     1
  9
$SHOWHIST
280
     1
  9
$DWFFRAME
280
     2
  9
$DGNFRAME
280
     0
  9
$REALWORLDSCALE
290
     1
  9
$INTERFERECOLOR
 62
     1
  9
$INTERFEREOBJVS
345
8C
  9
$INTERFEREVPVS
346
A5
  9
$CSHADOW
280
     0
  9
$SHADOWPLANELOCATION
 40
0.0
  0
ENDSEC
  0
SECTION
  2
CLASSES
  0
CLASS
  1
ACDBDICTIONARYWDFLT
  2
AcDbDictionaryWithDefault
  3
ObjectDBX Classes
 90
        0
 91
        1
280
     0
281
     0
  0
CLASS
  1
PLOTSETTINGS
  2
AcDbPlotSettings
  3
ObjectDBX Classes
 90
        0
 91
        0
280
     0
281
     0
  0
CLASS
  1
MATERIAL
  2
AcDbMaterial
  3
ObjectDBX Classes
 90
     1153
 91
        3
280
     0
281
     0
  0
CLASS
  1
VISUALSTYLE
  2
AcDbVisualStyle
  3
ObjectDBX Classes
 90
     4095
 91
       26
280
     0
281
     0
  0
CLASS
  1
TABLESTYLE
  2
AcDbTableStyle
  3
ObjectDBX Classes
 90
     4095
 91
        1
280
     0
281
     0
  0
CLASS
  1
DICTIONARYVAR
  2
AcDbDictionaryVar
  3
ObjectDBX Classes
 90
        0
 91
       17
280
     0
281
     0
  0
CLASS
  1
SCALE
  2
AcDbScale
  3
ObjectDBX Classes
 90
     1153
 91
       17
280
     0
281
     0
  0
CLASS
  1
MLEADERSTYLE
  2
AcDbMLeaderStyle
  3
ACDB_MLEADERSTYLE_CLASS
 90
     4095
 91
        1
280
     0
281
     0
  0
CLASS
  1
ACDBSECTIONVIEWSTYLE
  2
AcDbSectionViewStyle
  3
ObjectDBX Classes
 90
     1025
 91
        1
280
     0
281
     0
  0
CLASS
  1
ACDBDETAILVIEWSTYLE
  2
AcDbDetailViewStyle
  3
ObjectDBX Classes
 90
     1025
 91
        1
280
     0
281
     0
  0
CLASS
  1
IMAGEDEF
  2
AcDbRasterImageDef
  3
ISM
 90
        0
 91
        2
280
     0
281
     0
  0
CLASS
  1
IMAGEDEF_REACTOR
  2
AcDbRasterImageDefReactor
  3
ISM
 90
        1
 91
        2
280
     0
281
     0
  0
CLASS
  1
IMAGE
  2
AcDbRasterImage
  3
ISM
 90
     2175
 91
        2
280
     0
281
     1
  0
CLASS
  1
RASTERVARIABLES
  2
AcDbRasterVariables
  3
ISM
 90
        0
 91
        1
280
     0
281
     0
  0
CLASS
  1
CELLSTYLEMAP
  2
AcDbCellStyleMap
  3
ObjectDBX Classes
 90
     1152
 91
        1
280
     0
281
     0
  0
ENDSEC
  0
SECTION
  2
TABLES
  0
TABLE
  2
VPORT
  5
19
330
0
100
AcDbSymbolTable
 70
     1
1001
ACAD
1000
DbSaveVer
1071
        5
  0
VPORT
  5
7D
330
19
100
AcDbSymbolTableRecord
100
AcDbViewportTableRecord
  2
*Active
 70
     0
 10
0.0
 20
0.0
 11
1.0
 21
1.0
 12
3.558502302298897
 22
3.730592051652408
 13
0.0
 23
0.0
 14
0.5
 24
0.5
 15
0.5
 25
0.5
 16
0.0
 26
0.0
 36
1.0
 17
0.0
 27
0.0
 37
0.0
 40
2.653452397072004
 41
2.292712066905615
 42
50.0
 43
0.0
 44
0.0
 50
0.0
 51
0.0
 71
     0
 72
  1000
 73
     1
 74
     3
 75
     0
 76
     0
 77
     0
 78
     0
281
     0
 65
     1
110
0.0
120
0.0
130
0.0
111
1.0
121
0.0
131
0.0
112
0.0
122
1.0
132
0.0
 79
     0
146
0.0
348
88
 60
     3
 61
     5
292
     1
282
     1
141
0.0
142
0.0
 63
   250
421
  3355443
1001
ACAD_NAV_VCDISPLAY
1070
     3
  0
ENDTAB
  0
TABLE
  2
LTYPE
  5
14
330
0
100
AcDbSymbolTable
 70
     1
  0
LTYPE
  5
15
330
14
100
AcDbSymbolTableRecord
100
AcDbLinetypeTableRecord
  2
ByBlock
 70
     0
  3

 72
    65
 73
     0
 40
0.0
  0
LTYPE
  5
16
330
14
100
AcDbSymbolTableRecord
100
AcDbLinetypeTableRecord
  2
ByLayer
 70
     0
  3

 72
    65
 73
     0
 40
0.0
  0
LTYPE
  5
8
330
14
100
AcDbSymbolTableRecord
100
AcDbLinetypeTableRecord
  2
Continuous
 70
     0
  3
Solid line
 72
    65
 73
     0
 40
0.0
  0
ENDTAB
  0
TABLE
  2
LAYER
  5
10
330
0
100
AcDbSymbolTable
 70
     6
  0
LAYER
  5
4
102
{ACAD_XDICTIONARY
360
2AC
102
}
330
10
100
AcDbSymbolTableRecord
100
AcDbLayerTableRecord
  2
0
 70
     0
 62
     7
  6
Continuous
370
    -3
390
5
347
81
348
0
  0
LAYER
  5
25
102
{ACAD_XDICTIONARY
360
2AE
102
}
330
10
100
AcDbSymbolTableRecord
100
AcDbLayerTableRecord
  2
Title Block
 70
     0
 62
     7
  6
Continuous
370
    -3
390
5
347
81
348
0
  0
LAYER
  5
CE
102
{ACAD_XDICTIONARY
360
2B0
102
}
330
10
100
AcDbSymbolTableRecord
100
AcDbLayerTableRecord
  2
PDF_Geometry
 70
     0
 62
   250
420
  2301728
  6
Continuous
370
    -3
390
5
347
81
348
0
  0
LAYER
  5
CF
102
{ACAD_XDICTIONARY
360
2B2
102
}
330
10
100
AcDbSymbolTableRecord
100
AcDbLayerTableRecord
  2
PDF_Solid Fills
 70
     0
 62
   250
420
  2301728
  6
Continuous
370
    -3
390
5
347
81
348
0
  0
LAYER
  5
EB
102
{ACAD_XDICTIONARY
360
2B4
102
}
330
10
100
AcDbSymbolTableRecord
100
AcDbLayerTableRecord
  2
PDF_Images
 70
     0
 62
     7
  6
Continuous
370
    -3
390
5
347
81
348
0
  0
LAYER
  5
F5
102
{ACAD_XDICTIONARY
360
2B6
102
}
330
10
100
AcDbSymbolTableRecord
100
AcDbLayerTableRecord
  2
PDF_Text
 70
     0
 62
   250
420
  2301728
  6
Continuous
370
    -3
390
5
347
81
348
0
  0
ENDTAB
  0
TABLE
  2
STYLE
  5
11
330
0
100
AcDbSymbolTable
 70
     4
  0
STYLE
  5
12
330
11
100
AcDbSymbolTableRecord
100
AcDbTextStyleTableRecord
  2
Standard
 70
     0
 40
0.0
 41
1.0
 50
0.0
 71
     0
 42
0.2
  3
txt
  4

  0
STYLE
  5
27
330
11
100
AcDbSymbolTableRecord
100
AcDbTextStyleTableRecord
  2
Roman
 70
     0
 40
0.0
 41
1.0
 50
0.0
 71
     0
 42
0.2
  3
ROMANS.SHX
  4

  0
STYLE
  5
F4
330
11
100
AcDbSymbolTableRecord
100
AcDbTextStyleTableRecord
  2
PDF Arial Bold
 70
     0
 40
0.0
 41
1.0
 50
0.0
 71
     0
 42
0.2
  3
arialbd.ttf
  4

1001
ACAD
1000
Arial
1071
 33554466
  0
STYLE
  5
F7
330
11
100
AcDbSymbolTableRecord
100
AcDbTextStyleTableRecord
  2
PDF Arial
 70
     0
 40
0.0
 41
1.0
 50
0.0
 71
     0
 42
0.2
  3
arial.ttf
  4

1001
ACAD
1000
Arial
1071
       34
  0
ENDTAB
  0
TABLE
  2
VIEW
  5
17
330
0
100
AcDbSymbolTable
 70
     0
  0
ENDTAB
  0
TABLE
  2
UCS
  5
18
330
0
100
AcDbSymbolTable
 70
     0
  0
ENDTAB
  0
TABLE
  2
APPID
  5
1B
330
0
100
AcDbSymbolTable
 70
     2
  0
APPID
  5
1C
330
1B
100
AcDbSymbolTableRecord
100
AcDbRegAppTableRecord
  2
ACAD
 70
     0
  0
APPID
  5
2B8
330
1B
100
AcDbSymbolTableRecord
100
AcDbRegAppTableRecord
  2
ACAD_NAV_VCDISPLAY
 70
     0
  0
ENDTAB
  0
TABLE
  2
DIMSTYLE
  5
1D
330
0
100
AcDbSymbolTable
 70
     1
100
AcDbDimStyleTable
 71
     0
  0
DIMSTYLE
105
23
330
1D
100
AcDbSymbolTableRecord
100
AcDbDimStyleTableRecord
  2
Standard
 70
     0
340
12
  0
ENDTAB
  0
TABLE
  2
BLOCK_RECORD
  5
1
330
0
100
AcDbSymbolTable
 70
     0
  0
BLOCK_RECORD
  5
2
330
1
100
AcDbSymbolTableRecord
100
AcDbBlockTableRecord
  2
*Model_Space
340
A
 70
     0
280
     1
281
     0
  0
BLOCK_RECORD
  5
C
330
1
100
AcDbSymbolTableRecord
100
AcDbBlockTableRecord
  2
*Paper_Space
340
F
 70
     0
280
     1
281
     0
  0
ENDTAB
  0
ENDSEC
  0
SECTION
  2
BLOCKS
  0
BLOCK
  5
3
330
2
100
AcDbEntity
  8
0
100
AcDbBlockBegin
  2
*Model_Space
 70
     2
 10
0.0
 20
0.0
 30
0.0
  3
*Model_Space
  1

  0
ENDBLK
  5
9
330
2
100
AcDbEntity
  8
0
100
AcDbBlockEnd
  0
BLOCK
  5
D
330
C
100
AcDbEntity
 67
     1
  8
0
100
AcDbBlockBegin
  2
*Paper_Space
 70
     0
 10
0.0
 20
0.0
 30
0.0
  3
*Paper_Space
  1

  0
ENDBLK
  5
E
330
C
100
AcDbEntity
 67
     1
  8
0
100
AcDbBlockEnd
  0
ENDSEC
  0
SECTION
  2
ENTITIES
  0
SOLID
  5
D0
330
2
100
AcDbEntity
  8
PDF_Solid Fills
 62
     7
420
 16777215
440
 33554559
370
    13
100
AcDbTrace
 10
5.607949999999999
 20
3.562075
 30
0.0
 11
5.626991666666666
 21
3.570158333333333
 31
0.0
 12
5.626991666666666
 22
3.607213888888888
 32
0.0
 13
5.646033333333333
 23
3.562075
 33
0.0
  0
SOLID
  5
D1
330
2
100
AcDbEntity
  8
PDF_Solid Fills
 62
     7
420
 16777215
440
 33554559
370
    13
100
AcDbTrace
 10
5.607949999999999
 20
3.081373611111111
 30
0.0
 11
5.626991666666666
 21
3.073290277777778
 31
0.0
 12
5.626991666666666
 22
3.036234722222222
 32
0.0
 13
5.646033333333333
 23
3.081373611111111
 33
0.0
  0
SOLID
  5
D2
330
2
100
AcDbEntity
  8
PDF_Solid Fills
 62
     7
420
 16777215
440
 33554559
370
    13
100
AcDbTrace
 10
1.914091666666666
 20
4.801473611111109
 30
0.0
 11
1.906008333333332
 21
4.820515277777776
 31
0.0
 12
1.868952777777777
 22
4.820515277777776
 32
0.0
 13
1.914091666666666
 23
4.839556944444443
 33
0.0
  0
SOLID
  5
D3
330
2
100
AcDbEntity
  8
PDF_Solid Fills
 62
     7
420
 16777215
440
 33554559
370
    13
100
AcDbTrace
 10
4.192529166666666
 20
4.801473611111109
 30
0.0
 11
4.2006125
 21
4.820515277777776
 31
0.0
 12
4.237668055555555
 22
4.820515277777776
 32
0.0
 13
4.192529166666666
 23
4.839556944444443
 33
0.0
  0
SOLID
  5
D4
330
2
100
AcDbEntity
  8
PDF_Solid Fills
 62
     7
420
 16777215
440
 33554559
370
    13
100
AcDbTrace
 10
0.8837180555555555
 20
4.3586
 30
0.0
 11
0.9027597222222222
 21
4.366683333333333
 31
0.0
 12
0.9027597222222222
 22
4.403738888888889
 32
0.0
 13
0.921801388888889
 23
4.3586
 33
0.0
  0
SOLID
  5
D5
330
2
100
AcDbEntity
  8
PDF_Solid Fills
 62
     7
420
 16777215
440
 33554559
370
    13
100
AcDbTrace
 10
0.8837180555555555
 20
3.652343055555554
 30
0.0
 11
0.9027597222222222
 21
3.644259722222221
 31
0.0
 12
0.9027597222222222
 22
3.607204166666666
 32
0.0
 13
0.921801388888889
 23
3.652343055555554
 33
0.0
  0
SOLID
  5
D6
330
2
100
AcDbEntity
  8
PDF_Solid Fills
 62
     7
420
 16777215
440
 33554559
370
    13
100
AcDbTrace
 10
1.477786111111111
 20
2.738454166666666
 30
0.0
 11
1.469702777777777
 21
2.757495833333333
 31
0.0
 12
1.432647222222222
 22
2.757495833333333
 32
0.0
 13
1.477786111111111
 23
2.776537499999999
 33
0.0
  0
SOLID
  5
D7
330
2
100
AcDbEntity
  8
PDF_Solid Fills
 62
     7
420
 16777215
440
 33554559
370
    13
100
AcDbTrace
 10
2.260802777777777
 20
2.738454166666666
 30
0.0
 11
2.26888611111111
 21
2.757495833333333
 31
0.0
 12
2.305927777777777
 22
2.757495833333333
 32
0.0
 13
2.260802777777777
 23
2.776537499999999
 33
0.0
  0
SOLID
  5
D8
330
2
100
AcDbEntity
  8
PDF_Solid Fills
 62
     7
420
 16777215
440
 33554559
370
    13
100
AcDbTrace
 10
1.12026111111111
 20
2.500102777777777
 30
0.0
 11
1.112177777777777
 21
2.519144444444444
 31
0.0
 12
1.075122222222222
 22
2.519144444444444
 32
0.0
 13
1.12026111111111
 23
2.538186111111111
 33
0.0
  0
SOLID
  5
D9
330
2
100
AcDbEntity
  8
PDF_Solid Fills
 62
     7
420
 16777215
440
 33554559
370
    13
100
AcDbTrace
 10
2.260802777777777
 20
2.500102777777777
 30
0.0
 11
2.26888611111111
 21
2.519144444444444
 31
0.0
 12
2.305927777777777
 22
2.519144444444444
 32
0.0
 13
2.260802777777777
 23
2.538186111111111
 33
0.0
  0
SOLID
  5
DA
330
2
100
AcDbEntity
  8
PDF_Solid Fills
 62
     7
420
 16777215
440
 33554559
370
    13
100
AcDbTrace
 10
0.6487333333333334
 20
4.3586
 30
0.0
 11
0.667775
 21
4.366683333333333
 31
0.0
 12
0.667775
 22
4.403738888888889
 32
0.0
 13
0.6868166666666668
 23
4.3586
 33
0.0
  0
SOLID
  5
DB
330
2
100
AcDbEntity
  8
PDF_Solid Fills
 62
     7
420
 16777215
440
 33554559
370
    13
100
AcDbTrace
 10
0.6487333333333334
 20
3.081373611111111
 30
0.0
 11
0.667775
 21
3.073290277777778
 31
0.0
 12
0.667775
 22
3.036234722222222
 32
0.0
 13
0.6868166666666668
 23
3.081373611111111
 33
0.0
  0
LWPOLYLINE
  5
F8
330
2
100
AcDbEntity
  8
PDF_Geometry
 62
     7
420
 16777215
370
    40
100
AcDbPolyline
 90
        2
 70
     0
 43
0.0
 10
1.629259722222221
 20
3.409255555555555
 10
1.629259722222221
 20
3.552005555555555
  0
LWPOLYLINE
  5
F9
330
2
100
AcDbEntity
  8
PDF_Geometry
 62
     7
420
 16777215
370
    40
100
AcDbPolyline
 90
        3
 70
     0
 43
0.0
 10
1.732273611111111
 20
3.488708333333333
 10
1.629259722222221
 20
3.488708333333333
 10
1.629259722222221
 20
3.552
  0
LWPOLYLINE
  5
FA
330
2
100
AcDbEntity
  8
PDF_Geometry
 62
     7
420
 16777215
370
    40
100
AcDbPolyline
 90
        2
 70
     0
 43
0.0
 10
1.732276388888888
 20
3.488708333333333
 10
1.732276388888888
 20
3.552
  0
LWPOLYLINE
  5
FB
330
2
100
AcDbEntity
  8
PDF_Geometry
 62
     7
420
 16777215
370
    40
100
AcDbPolyline
 90
        3
 70
     0
 43
0.0
 10
1.957843055555555
 20
3.488708333333333
 10
1.75314861111111
 20
3.488708333333333
 10
1.75314861111111
 20
3.552
  0
LWPOLYLINE
  5
FC
330
2
100
AcDbEntity
  8
PDF_Geometry
 62
     7
420
 16777215
370
    40
100
AcDbPolyline
 90
        2
 70
     0
 43
0.0
 10
1.957834722222222
 20
3.488708333333333
 10
1.957834722222222
 20
3.552
  0
LWPOLYLINE
  5
FD
330
2
100
AcDbEntity
  8
PDF_Geometry
 62
     7
420
 16777215
370
    40
100
AcDbPolyline
 90
        3
 70
     0
 43
0.0
 10
2.081720833333333
 20
3.488708333333333
 10
1.978706944444444
 20
3.488708333333333
 10
1.978706944444444
 20
3.552
  0
LWPOLYLINE
  5
FE
330
2
100
AcDbEntity
  8
PDF_Geometry
 62
     7
420
 16777215
370
    40
100
AcDbPolyline
 90
        2
 70
     0
 43
0.0
 10
2.081722222222222
 20
3.488708333333333
 10
2.081722222222222
 20
3.552
  0
LWPOLYLINE
  5
FF
330
2
100
AcDbEntity
  8
PDF_Geometry
 62
     7
420
 16777215
370
    40
100
AcDbPolyline
 90
        3
 70
     0
 43
0.0
 10
1.629263888888889
 20
3.409255555555555
 10
2.081722222222222
 20
3.409255555555555
 10
2.081722222222222
 20
3.552005555555555
  0
LWPOLYLINE
  5
101
330
2
100
AcDbEntity
  8
PDF_Geometry
 62
     7
420
 16777215
370
    40
100
AcDbPolyline
 90
        3
 70
     0
 43
0.0
 10
4.011431944444443
 20
3.488713888888888
 10
4.011431944444443
 20
3.409255555555555
 10
4.463890277777776
 20
3.409255555555555
  0
LWPOLYLINE
  5
105
330
2
100
AcDbEntity
  8
PDF_Geometry
 62
     7
420
 16777215
370
    40
100
AcDbPolyline
 90
        2
 70
     0
 43
0.0
 10
4.011431944444443
 20
3.488708333333333
 10
4.035668055555554
 20
3.488708333333333
  0
LWPOLYLINE
  5
106
330
2
100
AcDbEntity
  8
PDF_Geometry
 62
     7
420
 16777215
370
    40
100
AcDbPolyline
 90
        3
 70
     0
 43
0.0
 10
4.0477875
 20
3.552
 10
4.0477875
 20
3.488708333333333
 10
4.225537499999999
 20
3.488708333333333
  0
LWPOLYLINE
  5
107
330
2
100
AcDbEntity
  8
PDF_Geometry
 62
     7
420
 16777215
370
    40
100
AcDbPolyline
 90
        3
 70
     0
 43
0.0
 10
4.249783333333333
 20
3.552
 10
4.249783333333333
 20
3.488708333333333
 10
4.427533333333332
 20
3.488708333333333
  0
LWPOLYLINE
  5
108
330
2
100
AcDbEntity
  8
PDF_Geometry
 62
     7
420
 16777215
370
    40
100
AcDbPolyline
 90
        3
 70
     0
 43
0.0
 10
4.438979166666666
 20
3.5695
 10
4.438979166666666
 20
3.488708333333333
 10
4.463895833333332
 20
3.488708333333333
  0
LWPOLYLINE
  5
109
330
2
100
AcDbEntity
  8
PDF_Geometry
 62
     7
420
 16777215
370
    40
100
AcDbPolyline
 90
        2
 70
     0
 43
0.0
 10
4.438979166666666
 20
3.55199861111111
 10
4.427534722222221
 20
3.55199861111111
  0
LWPOLYLINE
  5
10A
330
2
100
AcDbEntity
  8
PDF_Geometry
 62
     7
420
 16777215
370
    40
100
AcDbPolyline
 90
        2
 70
     0
 43
0.0
 10
2.081722222222222
 20
3.55199861111111
 10
2.081722222222222
 20
3.55199861111111
  0
LWPOLYLINE
  5
10B
330
2
100
AcDbEntity
  8
PDF_Geometry
 62
     7
420
 16777215
370
    40
100
AcDbPolyline
 90
        3
 70
     0
 43
0.0
 10
1.994193055555555
 20
3.56074861111111
 10
1.978706944444444
 20
3.55199861111111
 10
1.957831944444444
 20
3.55199861111111
  0
LWPOLYLINE
  5
10C
330
2
100
AcDbEntity
  8
PDF_Geometry
 62
     7
420
 16777215
370
    40
100
AcDbPolyline
 90
        9
 70
     0
 43
0.0
 10
1.957843055555555
 20
3.55199861111111
 10
1.928204166666666
 20
3.560748611111109
 42
0.1153184987107124
 10
1.78277361111111
 20
3.56074861111111
 10
1.75314861111111
 20
3.55199861111111
 10
1.732273611111111
 20
3.55199861111111
 10
1.716787499999999
 20
3.56074861111111
 42
0.2330827067670364
 10
1.644745833333333
 20
3.56074861111111
 10
1.629256944444444
 20
3.55199861111111
 10
1.689187499999999
 20
3.594415277777776
  0
LWPOLYLINE
  5
10D
330
2
100
AcDbEntity
  8
PDF_Geometry
 62
     7
420
 16777215
370
    40
100
AcDbPolyline
 90
        2
 70
     0
 43
0.0
 10
1.629259722222221
 20
3.55199861111111
 10
1.629259722222221
 20
3.55199861111111
  0
LWPOLYLINE
  5
10E
330
2
100
AcDbEntity
  8
PDF_Geometry
 62
     7
420
 16777215
370
    40
100
AcDbPolyline
 90
        2
 70
     0
 43
0.0
 10
4.035666666666665
 20
3.55199861111111
 10
4.047791666666666
 20
3.55199861111111
  0
LWPOLYLINE
  5
10F
330
2
100
AcDbEntity
  8
PDF_Geometry
 62
     7
420
 16777215
370
    40
100
AcDbPolyline
 90
        2
 70
     0
 43
0.0
 10
4.225541666666666
 20
3.55199861111111
 10
4.249777777777777
 20
3.55199861111111
  0
LWPOLYLINE
  5
111
330
2
100
AcDbEntity
  8
PDF_Geometry
 62
     7
420
 16777215
370
    40
100
AcDbPolyline
 90
        2
 70
     0
 43
0.0
 10
4.035666666666665
 20
3.569501388888888
 10
4.035666666666665
 20
3.488709722222221
  0
LWPOLYLINE
  5
113
330
2
100
AcDbEntity
  8
PDF_Geometry
 62
     7
420
 16777215
370
    40
100
AcDbPolyline
 90
        2
 70
     0
 43
0.0
 10
4.225541666666666
 20
3.488708333333333
 10
4.225541666666666
 20
3.552
  0
LWPOLYLINE
  5
115
330
2
100
AcDbEntity
  8
PDF_Geometry
 62
     7
420
 16777215
370
    40
100
AcDbPolyline
 90
        2
 70
     0
 43
0.0
 10
4.427536111111111
 20
3.488708333333333
 10
4.427536111111111
 20
3.552
  0
LWPOLYLINE
  5
117
330
2
100
AcDbEntity
  8
PDF_Geometry
 62
     7
420
 16777215
370
    40
100
AcDbPolyline
 90
        2
 70
     0
 43
0.0
 10
4.463893055555554
 20
3.409255555555555
 10
4.463893055555554
 20
3.488713888888888
  0
LWPOLYLINE
  5
118
330
2
100
AcDbEntity
  8
PDF_Geometry
 62
     7
420
 16777215
370
    40
100
AcDbPolyline
 90
        3
 70
     0
 43
0.0
 10
6.018854166666666
 20
3.04432361111111
 10
6.018854166666666
 20
3.036240277777777
 10
6.285479166666666
 20
3.036240277777777
  0
LWPOLYLINE
  5
119
330
2
100
AcDbEntity
  8
PDF_Geometry
 62
     7
420
 16777215
370
    40
100
AcDbPolyline
 90
        2
 70
     0
 43
0.0
 10
6.00605972222222
 20
3.04432361111111
 10
6.298281944444442
 20
3.04432361111111
  0
LWPOLYLINE
  5
11A
330
2
100
AcDbEntity
  8
PDF_Geometry
 62
     7
420
 16777215
370
    40
100
AcDbPolyline
 90
        3
 70
     0
 43
0.0
 10
6.04578611111111
 20
3.266519444444444
 10
6.04578611111111
 20
3.187061111111111
 10
6.258549999999998
 20
3.187061111111111
  0
LWPOLYLINE
  5
11B
330
2
100
AcDbEntity
  8
PDF_Geometry
 62
     7
420
 16777215
370
    40
100
AcDbPolyline
 90
        3
 70
     0
 43
0.0
 10
6.298281944444442
 20
3.28199861111111
 10
6.00605972222222
 20
3.28199861111111
 10
5.972393055555553
 20
3.315665277777777
  0
LWPOLYLINE
  5
11C
330
2
100
AcDbEntity
  8
PDF_Geometry
 62
     7
420
 16777215
370
    40
100
AcDbPolyline
 90
        2
 70
     0
 43
0.0
 10
6.04578611111111
 20
3.266513888888888
 10
6.258549999999998
 20
3.266513888888888
  0
LWPOLYLINE
  5
11E
330
2
100
AcDbEntity
  8
PDF_Geometry
 62
     7
420
 16777215
370
    40
100
AcDbPolyline
 90
        3
 70
     0
 43
0.0
 10
5.988552777777777
 20
3.409256944444444
 10
5.988552777777777
 20
3.299506944444444
 10
6.315788888888889
 20
3.299506944444444
  0
LWPOLYLINE
  5
11F
330
2
100
AcDbEntity
  8
PDF_Geometry
 62
     7
420
 16777215
370
    40
100
AcDbPolyline
 90
        3
 70
     0
 43
0.0
 10
5.972394444444444
 20
3.40926111111111
 10
5.972394444444444
 20
3.315663888888888
 10
6.331269444444444
 20
3.315663888888888
  0
LWPOLYLINE
  5
120
330
2
100
AcDbEntity
  8
PDF_Geometry
 62
     7
420
 16777215
370
    40
100
AcDbPolyline
 90
        3
 70
     0
 43
0.0
 10
6.378394444444444
 20
3.409255555555555
 10
5.925936111111111
 20
3.409255555555555
 10
5.925936111111111
 20
3.552005555555555
  0
LWPOLYLINE
  5
121
330
2
100
AcDbEntity
  8
PDF_Geometry
 62
     7
420
 16777215
370
    40
100
AcDbPolyline
 90
        3
 70
     0
 43
0.0
 10
5.950172222222222
 20
3.488708333333333
 10
5.925936111111111
 20
3.488708333333333
 10
5.925936111111111
 20
3.552
  0
LWPOLYLINE
  5
123
330
2
100
AcDbEntity
  8
PDF_Geometry
 62
     7
420
 16777215
370
    40
100
AcDbPolyline
 90
        2
 70
     0
 43
0.0
 10
5.950176388888888
 20
3.569501388888888
 10
5.950176388888888
 20
3.488709722222221
  0
LWPOLYLINE
  5
124
330
2
100
AcDbEntity
  8
PDF_Geometry
 62
     7
420
 16777215
370
    40
100
AcDbPolyline
 90
        2
 70
     0
 43
0.0
 10
5.962291666666666
 20
3.488708333333333
 10
5.962291666666666
 20
3.552
  0
LWPOLYLINE
  5
127
330
2
100
AcDbEntity
  8
PDF_Geometry
 62
     7
420
 16777215
370
    40
100
AcDbPolyline
 90
        2
 70
     0
 43
0.0
 10
6.00605972222222
 20
3.044319444444444
 10
6.00605972222222
 20
3.281999999999999
  0
LWPOLYLINE
  5
12B
330
2
100
AcDbEntity
  8
PDF_Geometry
 62
     7
420
 16777215
370
    40
100
AcDbPolyline
 90
        2
 70
     0
 43
0.0
 10
5.962297222222221
 20
3.488708333333333
 10
6.140047222222221
 20
3.488708333333333
  0
LWPOLYLINE
  5
12C
330
2
100
AcDbEntity
  8
PDF_Geometry
 62
     7
420
 16777215
370
    40
100
AcDbPolyline
 90
        3
 70
     0
 43
0.0
 10
6.163613888888888
 20
3.552
 10
6.163613888888888
 20
3.488708333333333
 10
6.341363888888888
 20
3.488708333333333
  0
LWPOLYLINE
  5
12D
330
2
100
AcDbEntity
  8
PDF_Geometry
 62
     7
420
 16777215
370
    40
100
AcDbPolyline
 90
        3
 70
     0
 43
0.0
 10
6.353488888888888
 20
3.5695
 10
6.353488888888888
 20
3.488708333333333
 10
6.378405555555555
 20
3.488708333333333
  0
LWPOLYLINE
  5
12E
330
2
100
AcDbEntity
  8
PDF_Geometry
 62
     7
420
 16777215
370
    40
100
AcDbPolyline
 90
        2
 70
     0
 43
0.0
 10
6.140051388888887
 20
3.488708333333333
 10
6.140051388888887
 20
3.552
  0
LWPOLYLINE
  5
12F
330
2
100
AcDbEntity
  8
PDF_Geometry
 62
     7
420
 16777215
370
    40
100
AcDbPolyline
 90
        5
 70
     0
 43
0.0
 10
6.353488888888888
 20
3.55199861111111
 10
6.341363888888888
 20
3.55199861111111
 10
6.315780555555555
 20
3.56074861111111
 42
0.1335355763927653
 10
6.189877777777777
 20
3.56074861111111
 10
6.163613888888888
 20
3.55199861111111
  0
LWPOLYLINE
  5
130
330
2
100
AcDbEntity
  8
PDF_Geometry
 62
     7
420
 16777215
370
    40
100
AcDbPolyline
 90
        2
 70
     0
 43
0.0
 10
5.925936111111111
 20
3.55199861111111
 10
5.925936111111111
 20
3.55199861111111
  0
LWPOLYLINE
  5
131
330
2
100
AcDbEntity
  8
PDF_Geometry
 62
     7
420
 16777215
370
    40
100
AcDbPolyline
 90
        2
 70
     0
 43
0.0
 10
5.950176388888888
 20
3.55199861111111
 10
5.962287499999999
 20
3.55199861111111
  0
LWPOLYLINE
  5
132
330
2
100
AcDbEntity
  8
PDF_Geometry
 62
     7
420
 16777215
370
    40
100
AcDbPolyline
 90
        2
 70
     0
 43
0.0
 10
6.140051388888887
 20
3.55199861111111
 10
6.163620833333331
 20
3.55199861111111
  0
LWPOLYLINE
  5
133
330
2
100
AcDbEntity
  8
PDF_Geometry
 62
     7
420
 16777215
370
    40
100
AcDbPolyline
 90
        2
 70
     0
 43
0.0
 10
6.377724999999998
 20
3.55199861111111
 10
6.378391666666665
 20
3.55199861111111
  0
LWPOLYLINE
  5
135
330
2
100
AcDbEntity
  8
PDF_Geometry
 62
     7
420
 16777215
370
    40
100
AcDbPolyline
 90
        2
 70
     0
 43
0.0
 10
6.258551388888888
 20
3.187061111111111
 10
6.258551388888888
 20
3.266519444444444
  0
LWPOLYLINE
  5
136
330
2
100
AcDbEntity
  8
PDF_Geometry
 62
     7
420
 16777215
370
    40
100
AcDbPolyline
 90
        2
 70
     0
 43
0.0
 10
6.285484722222221
 20
3.036240277777777
 10
6.285484722222221
 20
3.04432361111111
  0
LWPOLYLINE
  5
137
330
2
100
AcDbEntity
  8
PDF_Geometry
 62
     7
420
 16777215
370
    40
100
AcDbPolyline
 90
        2
 70
     0
 43
0.0
 10
6.298277777777776
 20
3.044319444444444
 10
6.298277777777776
 20
3.281999999999999
  0
LWPOLYLINE
  5
138
330
2
100
AcDbEntity
  8
PDF_Geometry
 62
     7
420
 16777215
370
    40
100
AcDbPolyline
 90
        2
 70
     0
 43
0.0
 10
6.315780555555554
 20
3.299506944444444
 10
6.315780555555554
 20
3.409256944444444
  0
LWPOLYLINE
  5
139
330
2
100
AcDbEntity
  8
PDF_Geometry
 62
     7
420
 16777215
370
    40
100
AcDbPolyline
 90
        2
 70
     0
 43
0.0
 10
6.331270833333332
 20
3.315663888888888
 10
6.331270833333332
 20
3.40926111111111
  0
LWPOLYLINE
  5
13A
330
2
100
AcDbEntity
  8
PDF_Geometry
 62
     7
420
 16777215
370
    40
100
AcDbPolyline
 90
        2
 70
     0
 43
0.0
 10
6.341368055555554
 20
3.488708333333333
 10
6.341368055555554
 20
3.552
  0
LWPOLYLINE
  5
13C
330
2
100
AcDbEntity
  8
PDF_Geometry
 62
     7
420
 16777215
370
    40
100
AcDbPolyline
 90
        2
 70
     0
 43
0.0
 10
6.377724999999998
 20
3.488708333333333
 10
6.377724999999998
 20
3.552
  0
LWPOLYLINE
  5
13D
330
2
100
AcDbEntity
  8
PDF_Geometry
 62
     7
420
 16777215
370
    40
100
AcDbPolyline
 90
        2
 70
     0
 43
0.0
 10
6.378402777777777
 20
3.409255555555555
 10
6.378402777777777
 20
3.552005555555555
  0
LWPOLYLINE
  5
13E
330
2
100
AcDbEntity
  8
PDF_Geometry
 62
     7
420
 16777215
370
    40
100
AcDbPolyline
 90
        2
 70
     0
 43
0.0
 10
6.298277777777776
 20
3.28199861111111
 10
6.331263888888887
 20
3.315665277777777
  0
LWPOLYLINE
  5
13F
330
2
100
AcDbEntity
  8
PDF_Geometry
 62
     7
420
 16777215
370
    40
100
AcDbPolyline
 90
        4
 70
     0
 43
0.0
 10
4.249783333333333
 20
3.55199861111111
 10
4.275366666666666
 20
3.56074861111111
 42
-0.1335208471210955
 10
4.401283333333333
 20
3.56074861111111
 10
4.427533333333332
 20
3.55199861111111
  0
LWPOLYLINE
  5
142
330
2
100
AcDbEntity
  8
PDF_Geometry
 62
     7
420
 16777215
370
    40
100
AcDbPolyline
 90
        4
 70
     0
 43
0.0
 10
4.0477875
 20
3.55199861111111
 10
4.074051388888888
 20
3.56074861111111
 42
-0.1342464234224451
 10
4.1992875
 20
3.56074861111111
 10
4.225537499999999
 20
3.55199861111111
  0
SPLINE
  5
149
330
2
100
AcDbEntity
  8
PDF_Geometry
 62
     7
420
 16777215
370
    40
100
AcDbSpline
210
0.0
220
0.0
230
1.0
 70
     8
 71
     3
 72
     8
 73
     4
 74
     0
 42
0.000000001
 43
0.0000000001
 40
0.0
 40
0.0
 40
0.0
 40
0.0
 40
1.0
 40
1.0
 40
1.0
 40
1.0
 10
1.994193055555555
 20
3.56074861111111
 30
0.0
 10
2.018234722222222
 20
3.572193055555554
 30
0.0
 10
2.042151388888889
 20
3.571706944444443
 30
0.0
 10
2.066234722222222
 20
3.56074861111111
 30
0.0
  0
LWPOLYLINE
  5
14A
330
2
100
AcDbEntity
  8
PDF_Geometry
 62
     7
420
 16777215
370
    40
100
AcDbPolyline
 90
        2
 70
     0
 43
0.0
 10
2.066234722222222
 20
3.56074861111111
 10
2.081720833333333
 20
3.55199861111111
  0
LWPOLYLINE
  5
14E
330
2
100
AcDbEntity
  8
PDF_Geometry
 62
     7
420
 16777215
370
    40
100
AcDbPolyline
 90
        4
 70
     0
 43
0.0
 10
5.985866666666667
 20
3.594415277777776
 10
5.925936111111111
 20
3.55199861111111
 10
5.940741666666666
 20
3.56074861111111
 10
5.950172222222222
 20
3.56412361111111
  0
LWPOLYLINE
  5
14F
330
2
100
AcDbEntity
  8
PDF_Geometry
 62
     7
420
 16777215
370
    40
100
AcDbPolyline
 90
        3
 70
     0
 43
0.0
 10
6.353488888888888
 20
3.564118055555554
 10
6.362919444444443
 20
3.560756944444444
 10
6.377724999999998
 20
3.551993055555554
  0
LWPOLYLINE
  5
153
330
2
100
AcDbEntity
  8
PDF_Geometry
 62
     7
420
 16777215
370
    40
100
AcDbPolyline
 90
        4
 70
     0
 43
0.0
 10
5.962291666666666
 20
3.55199861111111
 10
5.988555555555555
 20
3.56074861111111
 42
-0.1341632508468821
 10
6.113791666666666
 20
3.56074861111111
 10
6.140041666666665
 20
3.55199861111111
  0
LWPOLYLINE
  5
156
330
2
100
AcDbEntity
  8
PDF_Geometry
 62
     7
420
 16777215
370
    40
100
AcDbPolyline
 90
        2
 70
     0
 43
0.0
 10
1.432652777777777
 20
3.694066666666666
 10
1.432652777777777
 20
3.607205555555555
  0
LWPOLYLINE
  5
157
330
2
100
AcDbEntity
  8
PDF_Geometry
 62
     7
420
 16777215
370
    40
100
AcDbPolyline
 90
        2
 70
     0
 43
0.0
 10
1.591552777777777
 20
3.848254166666666
 10
1.591552777777777
 20
3.741865277777777
  0
LWPOLYLINE
  5
158
330
2
100
AcDbEntity
  8
PDF_Geometry
 62
     7
420
 16777215
370
    40
100
AcDbPolyline
 90
        2
 70
     0
 43
0.0
 10
2.147033333333333
 20
3.848254166666666
 10
2.147033333333333
 20
3.741865277777777
  0
LWPOLYLINE
  5
159
330
2
100
AcDbEntity
  8
PDF_Geometry
 62
     7
420
 16777215
370
    40
100
AcDbPolyline
 90
        4
 70
     0
 43
0.0
 10
1.551829166666666
 20
4.165379166666666
 10
1.551829166666666
 20
3.848254166666666
 10
2.186759722222221
 20
3.848254166666666
 10
2.186759722222221
 20
4.38757361111111
  0
LWPOLYLINE
  5
15A
330
2
100
AcDbEntity
  8
PDF_Geometry
 62
     7
420
 16777215
370
    40
100
AcDbPolyline
 90
        2
 70
     0
 43
0.0
 10
2.305936111111111
 20
3.694066666666666
 10
2.305936111111111
 20
3.607205555555555
  0
LWPOLYLINE
  5
15B
330
2
100
AcDbEntity
  8
PDF_Geometry
 62
     7
420
 16777215
370
    40
100
AcDbPolyline
 90
        2
 70
     0
 43
0.0
 10
1.485843055555555
 20
3.594415277777777
 10
2.252745833333333
 20
3.594415277777777
  0
LWPOLYLINE
  5
15C
330
2
100
AcDbEntity
  8
PDF_Geometry
 62
     7
420
 16777215
370
    40
100
AcDbPolyline
 90
        2
 70
     0
 43
0.0
 10
1.432652777777777
 20
3.607209722222221
 10
2.305930555555555
 20
3.607209722222221
  0
LWPOLYLINE
  5
15D
330
2
100
AcDbEntity
  8
PDF_Geometry
 62
     7
420
 16777215
370
    40
100
AcDbPolyline
 90
        6
 70
     0
 43
0.0
 10
2.289776388888888
 20
3.710224999999999
 10
1.448137499999999
 20
3.710224999999999
 10
1.442081944444444
 20
3.708877777777777
 10
1.437359722222222
 20
3.705516666666666
 10
1.433318055555555
 20
3.700127777777777
 10
1.432651388888888
 20
3.694058333333332
  0
LWPOLYLINE
  5
15F
330
2
100
AcDbEntity
  8
PDF_Geometry
 62
     7
420
 16777215
370
    40
100
AcDbPolyline
 90
        6
 70
     0
 43
0.0
 10
1.551826388888888
 20
4.387566666666666
 10
1.552493055555555
 20
4.393636111111111
 10
1.555868055555555
 20
4.399024999999999
 10
1.561256944444444
 20
4.402386111111111
 10
1.567312499999999
 20
4.403733333333333
 10
2.170590277777777
 20
4.403733333333333
  0
LWPOLYLINE
  5
160
330
2
100
AcDbEntity
  8
PDF_Geometry
 62
     7
420
 16777215
370
    40
100
AcDbPolyline
 90
        9
 70
     0
 43
0.0
 10
2.147033333333333
 20
3.741869444444444
 10
2.1477
 20
3.735813888888888
 10
2.149727777777778
 20
3.729744444444444
 10
2.152422222222222
 20
3.724369444444444
 10
2.156463888888889
 20
3.719647222222222
 10
2.161172222222222
 20
3.715605555555555
 10
2.166561111111111
 20
3.712244444444444
 10
2.172616666666667
 20
3.710897222222222
 10
2.178686111111111
 20
3.710216666666666
  0
LWPOLYLINE
  5
161
330
2
100
AcDbEntity
  8
PDF_Geometry
 62
     7
420
 16777215
370
    40
100
AcDbPolyline
 90
        9
 70
     0
 43
0.0
 10
1.559234722222222
 20
3.710224999999999
 10
1.565970833333333
 20
3.710905555555554
 10
1.571359722222222
 20
3.712252777777777
 10
1.577415277777777
 20
3.715613888888888
 10
1.582123611111111
 20
3.719655555555554
 10
1.586165277777777
 20
3.724363888888888
 10
1.588859722222222
 20
3.729752777777777
 10
1.5908875
 20
3.735808333333332
 10
1.591554166666666
 20
3.741877777777777
  0
LWPOLYLINE
  5
162
330
2
100
AcDbEntity
  8
PDF_Geometry
 62
     7
420
 16777215
370
    40
100
AcDbPolyline
 90
        5
 70
     0
 43
0.0
 10
1.466318055555555
 20
3.606536111111111
 10
1.469679166666666
 20
3.601827777777778
 10
1.473720833333333
 20
3.597786111111111
 10
1.479790277777777
 20
3.595091666666667
 10
1.485845833333333
 20
3.594411111111111
  0
LWPOLYLINE
  5
163
330
2
100
AcDbEntity
  8
PDF_Geometry
 62
     7
420
 16777215
370
    40
100
AcDbPolyline
 90
        5
 70
     0
 43
0.0
 10
2.252743055555555
 20
3.594415277777777
 10
2.258798611111111
 20
3.595081944444443
 10
2.264187499999999
 20
3.597776388888888
 10
2.268895833333333
 20
3.601818055555555
 10
2.271590277777777
 20
3.606540277777777
  0
LWPOLYLINE
  5
164
330
2
100
AcDbEntity
  8
PDF_Geometry
 62
     7
420
 16777215
370
    40
100
AcDbPolyline
 90
        5
 70
     0
 43
0.0
 10
2.305933333333333
 20
3.694066666666666
 10
2.304586111111111
 20
3.700122222222222
 10
2.301225
 20
3.70551111111111
 10
2.29583611111111
 20
3.708872222222222
 10
2.289780555555555
 20
3.710219444444444
  0
LWPOLYLINE
  5
166
330
2
100
AcDbEntity
  8
PDF_Geometry
 62
     7
420
 16777215
370
    40
100
AcDbPolyline
 90
        5
 70
     0
 43
0.0
 10
2.186759722222221
 20
4.387576388888888
 10
2.185412499999999
 20
4.393631944444443
 10
2.182051388888888
 20
4.399020833333333
 10
2.176662499999999
 20
4.402395833333332
 10
2.170606944444444
 20
4.403743055555555
  0
LWPOLYLINE
  5
169
330
2
100
AcDbEntity
  8
PDF_Geometry
 62
     7
420
 16777215
370
    40
100
AcDbPolyline
 90
        2
 70
     0
 43
0.0
 10
2.081722222222222
 20
3.55199861111111
 10
2.021791666666667
 20
3.594415277777776
  0
LWPOLYLINE
  5
16A
330
2
100
AcDbEntity
  8
PDF_Geometry
 62
     7
420
 16777215
370
    40
100
AcDbPolyline
 90
        2
 70
     0
 43
0.0
 10
1.535668055555555
 20
4.181541666666666
 10
1.091279166666666
 20
4.181541666666666
  0
LWPOLYLINE
  5
16B
330
2
100
AcDbEntity
  8
PDF_Geometry
 62
     7
420
 16777215
370
    40
100
AcDbPolyline
 90
        6
 70
     0
 43
0.0
 10
1.091290277777777
 20
4.181541666666666
 10
1.085220833333333
 20
4.182888888888888
 10
1.079831944444444
 20
4.186249999999999
 10
1.076470833333333
 20
4.190972222222222
 10
1.075123611111111
 20
4.197027777777777
 10
1.075123611111111
 20
4.292638888888888
  0
LWPOLYLINE
  5
16C
330
2
100
AcDbEntity
  8
PDF_Geometry
 62
     7
420
 16777215
370
    40
100
AcDbPolyline
 90
        7
 70
     0
 43
0.0
 10
1.075126388888888
 20
4.292637499999999
 10
1.076473611111111
 20
4.298693055555555
 10
1.079834722222222
 20
4.304081944444444
 10
1.085223611111111
 20
4.307443055555555
 10
1.091279166666666
 20
4.308123611111111
 10
1.535668055555555
 20
4.308123611111111
 10
1.091279166666666
 20
4.308123611111111
  0
LWPOLYLINE
  5
16F
330
2
100
AcDbEntity
  8
PDF_Geometry
 62
     7
420
 16777215
370
    40
100
AcDbPolyline
 90
        5
 70
     0
 43
0.0
 10
1.535668055555555
 20
4.308123611111111
 10
1.541723611111111
 20
4.309470833333333
 10
1.547112499999999
 20
4.312831944444444
 10
1.5504875
 20
4.318220833333333
 10
1.551820833333333
 20
4.324276388888889
  0
LWPOLYLINE
  5
170
330
2
100
AcDbEntity
  8
PDF_Geometry
 62
     7
420
 16777215
370
    40
100
AcDbPolyline
 90
        5
 70
     0
 43
0.0
 10
1.551829166666666
 20
4.165384722222222
 10
1.550481944444444
 20
4.171440277777777
 10
1.547120833333333
 20
4.176829166666666
 10
1.541731944444444
 20
4.180204166666666
 10
1.535662499999999
 20
4.181551388888888
  0
LWPOLYLINE
  5
171
330
2
100
AcDbEntity
  8
PDF_Geometry
 62
     7
420
 16777215
370
    40
100
AcDbPolyline
 90
        5
 70
     0
 43
0.0
 10
1.551829166666666
 20
4.387575
 10
1.551829166666666
 20
4.324283333333333
 10
1.551829166666666
 20
4.322936111111111
 42
-0.114920987804658
 10
1.551829166666666
 20
4.167394444444444
 10
1.551829166666666
 20
4.165380555555556
  0
LWPOLYLINE
  5
176
330
2
100
AcDbEntity
  8
PDF_Geometry
 62
     7
420
 16777215
370
    40
100
AcDbPolyline
 90
        2
 70
     0
 43
0.0
 10
3.853872222222221
 20
3.594415277777777
 10
4.621441666666666
 20
3.594415277777777
  0
LWPOLYLINE
  5
177
330
2
100
AcDbEntity
  8
PDF_Geometry
 62
     7
420
 16777215
370
    40
100
AcDbPolyline
 90
        2
 70
     0
 43
0.0
 10
3.800684722222222
 20
3.607209722222221
 10
4.6739625
 20
3.607209722222221
  0
LWPOLYLINE
  5
178
330
2
100
AcDbEntity
  8
PDF_Geometry
 62
     7
420
 16777215
370
    40
100
AcDbPolyline
 90
        2
 70
     0
 43
0.0
 10
4.658477777777776
 20
3.710224999999999
 10
3.816838888888888
 20
3.710224999999999
  0
LWPOLYLINE
  5
179
330
2
100
AcDbEntity
  8
PDF_Geometry
 62
     7
420
 16777215
370
    40
100
AcDbPolyline
 90
        3
 70
     0
 43
0.0
 10
3.919856944444443
 20
4.38757361111111
 10
3.919856944444443
 20
3.848254166666666
 10
4.555454166666666
 20
3.848254166666666
  0
LWPOLYLINE
  5
17A
330
2
100
AcDbEntity
  8
PDF_Geometry
 62
     7
420
 16777215
370
    40
100
AcDbPolyline
 90
        2
 70
     0
 43
0.0
 10
3.800684722222222
 20
3.694066666666666
 10
3.800684722222222
 20
3.607205555555555
  0
LWPOLYLINE
  5
17B
330
2
100
AcDbEntity
  8
PDF_Geometry
 62
     7
420
 16777215
370
    40
100
AcDbPolyline
 90
        2
 70
     0
 43
0.0
 10
3.936015277777777
 20
4.403733333333333
 10
4.539306944444443
 20
4.403733333333333
  0
LWPOLYLINE
  5
17D
330
2
100
AcDbEntity
  8
PDF_Geometry
 62
     7
420
 16777215
370
    40
100
AcDbPolyline
 90
        2
 70
     0
 43
0.0
 10
3.959583333333332
 20
3.848254166666666
 10
3.959583333333332
 20
3.741865277777777
  0
LWPOLYLINE
  5
17E
330
2
100
AcDbEntity
  8
PDF_Geometry
 62
     7
420
 16777215
370
    40
100
AcDbPolyline
 90
        2
 70
     0
 43
0.0
 10
4.515734722222221
 20
3.848254166666666
 10
4.515734722222221
 20
3.741865277777777
  0
LWPOLYLINE
  5
17F
330
2
100
AcDbEntity
  8
PDF_Geometry
 62
     7
420
 16777215
370
    40
100
AcDbPolyline
 90
        6
 70
     0
 43
0.0
 10
4.658480555555554
 20
3.710219444444444
 10
4.66453611111111
 20
3.708872222222222
 10
4.669924999999999
 20
3.70551111111111
 10
4.67328611111111
 20
3.700122222222222
 10
4.673966666666665
 20
3.694066666666666
 10
4.673966666666665
 20
3.607205555555555
  0
LWPOLYLINE
  5
180
330
2
100
AcDbEntity
  8
PDF_Geometry
 62
     7
420
 16777215
370
    40
100
AcDbPolyline
 90
        9
 70
     0
 43
0.0
 10
4.515734722222221
 20
3.741872222222222
 10
4.515734722222221
 20
3.735816666666666
 10
4.517762499999999
 20
3.729747222222222
 10
4.52112361111111
 20
3.724372222222222
 10
4.524484722222221
 20
3.71965
 10
4.52987361111111
 20
3.715608333333333
 10
4.535262499999999
 20
3.712247222222222
 10
4.541318055555555
 20
3.7109
 10
4.547387499999999
 20
3.710219444444444
  0
LWPOLYLINE
  5
181
330
2
100
AcDbEntity
  8
PDF_Geometry
 62
     7
420
 16777215
370
    40
100
AcDbPolyline
 90
        9
 70
     0
 43
0.0
 10
3.92793611111111
 20
3.710224999999999
 10
3.933991666666666
 20
3.710905555555554
 10
3.940061111111111
 20
3.712252777777777
 10
3.94543611111111
 20
3.715613888888888
 10
3.950158333333332
 20
3.719655555555554
 10
3.954199999999999
 20
3.724363888888888
 10
3.956894444444444
 20
3.729752777777777
 10
3.958908333333333
 20
3.735808333333332
 10
3.959588888888888
 20
3.741877777777777
  0
LWPOLYLINE
  5
182
330
2
100
AcDbEntity
  8
PDF_Geometry
 62
     7
420
 16777215
370
    40
100
AcDbPolyline
 90
        5
 70
     0
 43
0.0
 10
3.835022222222221
 20
3.606536111111111
 10
3.837716666666666
 20
3.601827777777778
 10
3.842424999999999
 20
3.597786111111111
 10
3.847813888888888
 20
3.595091666666667
 10
3.853869444444443
 20
3.594411111111111
  0
LWPOLYLINE
  5
183
330
2
100
AcDbEntity
  8
PDF_Geometry
 62
     7
420
 16777215
370
    40
100
AcDbPolyline
 90
        5
 70
     0
 43
0.0
 10
4.621448611111111
 20
3.594415277777777
 10
4.626837499999999
 20
3.595081944444443
 10
4.632893055555555
 20
3.597776388888888
 10
4.636934722222222
 20
3.601818055555555
 10
4.640295833333333
 20
3.606540277777777
  0
LWPOLYLINE
  5
185
330
2
100
AcDbEntity
  8
PDF_Geometry
 62
     7
420
 16777215
370
    40
100
AcDbPolyline
 90
        5
 70
     0
 43
0.0
 10
3.816841666666666
 20
3.710224999999999
 10
3.810786111111111
 20
3.708877777777777
 10
3.805397222222222
 20
3.705516666666666
 10
3.802022222222222
 20
3.700127777777777
 10
3.800675
 20
3.694058333333332
  0
LWPOLYLINE
  5
186
330
2
100
AcDbEntity
  8
PDF_Geometry
 62
     7
420
 16777215
370
    40
100
AcDbPolyline
 90
        3
 70
     0
 43
0.0
 10
4.555461111111109
 20
4.387576388888888
 10
4.554113888888887
 20
4.393631944444443
 10
4.550752777777776
 20
4.399020833333333
  0
LWPOLYLINE
  5
187
330
2
100
AcDbEntity
  8
PDF_Geometry
 62
     7
420
 16777215
370
    40
100
AcDbPolyline
 90
        3
 70
     0
 43
0.0
 10
4.550752777777778
 20
4.399022222222222
 10
4.545363888888889
 20
4.402383333333333
 10
4.539308333333333
 20
4.403730555555555
  0
LWPOLYLINE
  5
188
330
2
100
AcDbEntity
  8
PDF_Geometry
 62
     7
420
 16777215
370
    40
100
AcDbPolyline
 90
        5
 70
     0
 43
0.0
 10
3.936020833333332
 20
4.403733333333333
 10
3.929965277777776
 20
4.402386111111111
 10
3.924576388888888
 20
4.399024999999999
 10
3.921201388888888
 20
4.393636111111111
 10
3.919854166666665
 20
4.387566666666666
  0
LWPOLYLINE
  5
189
330
2
100
AcDbEntity
  8
PDF_Geometry
 62
     7
420
 16777215
370
    40
100
AcDbPolyline
 90
        6
 70
     0
 43
0.0
 10
4.555465277777776
 20
4.165374999999999
 10
4.556131944444444
 20
4.171444444444444
 10
4.559506944444443
 20
4.176819444444443
 10
4.564895833333332
 20
4.180194444444444
 10
4.570951388888888
 20
4.181541666666666
 10
5.016006944444443
 20
4.181541666666666
  0
LWPOLYLINE
  5
18A
330
2
100
AcDbEntity
  8
PDF_Geometry
 62
     7
420
 16777215
370
    40
100
AcDbPolyline
 90
        2
 70
     0
 43
0.0
 10
5.031493055555555
 20
4.197027777777777
 10
5.031493055555555
 20
4.292638888888888
  0
LWPOLYLINE
  5
18B
330
2
100
AcDbEntity
  8
PDF_Geometry
 62
     7
420
 16777215
370
    40
100
AcDbPolyline
 90
        2
 70
     1
 43
0.0
 10
5.016006944444443
 20
4.308123611111111
 10
4.570951388888888
 20
4.308123611111111
  0
LWPOLYLINE
  5
18D
330
2
100
AcDbEntity
  8
PDF_Geometry
 62
     7
420
 16777215
370
    40
100
AcDbPolyline
 90
        5
 70
     0
 43
0.0
 10
5.031493055555555
 20
4.292637499999999
 10
5.030145833333333
 20
4.298693055555554
 10
5.026784722222221
 20
4.304081944444444
 10
5.022062499999999
 20
4.307456944444443
 10
5.016006944444443
 20
4.308123611111111
  0
LWPOLYLINE
  5
18E
330
2
100
AcDbEntity
  8
PDF_Geometry
 62
     7
420
 16777215
370
    40
100
AcDbPolyline
 90
        5
 70
     0
 43
0.0
 10
5.016008333333333
 20
4.181541666666666
 10
5.022063888888888
 20
4.182888888888887
 10
5.026786111111111
 20
4.186249999999999
 10
5.030147222222222
 20
4.190972222222221
 10
5.031494444444445
 20
4.197027777777777
  0
LWPOLYLINE
  5
18F
330
2
100
AcDbEntity
  8
PDF_Geometry
 62
     7
420
 16777215
370
    40
100
AcDbPolyline
 90
        9
 70
     0
 43
0.0
 10
4.555461111111109
 20
3.848254166666666
 10
4.555461111111109
 20
4.165380555555556
 10
4.554794444444443
 20
4.167394444444444
 42
-0.1131797527025813
 10
4.554794444444443
 20
4.322936111111111
 10
4.555461111111109
 20
4.324283333333333
 10
4.556141666666665
 20
4.318227777777778
 10
4.559502777777776
 20
4.312838888888888
 10
4.564891666666665
 20
4.309463888888889
 10
4.570947222222221
 20
4.308116666666666
  0
LWPOLYLINE
  5
195
330
2
100
AcDbEntity
  8
PDF_Geometry
 62
     7
420
 16777215
370
    40
100
AcDbPolyline
 90
        2
 70
     0
 43
0.0
 10
4.555461111111109
 20
4.324283333333333
 10
4.555461111111109
 20
4.387575
  0
LWPOLYLINE
  5
196
330
2
100
AcDbEntity
  8
PDF_Geometry
 62
     7
420
 16777215
370
    40
100
AcDbPolyline
 90
        2
 70
     0
 43
0.0
 10
4.035666666666665
 20
3.568827777777777
 10
4.071347222222221
 20
3.594411111111111
  0
LWPOLYLINE
  5
197
330
2
100
AcDbEntity
  8
PDF_Geometry
 62
     7
420
 16777215
370
    40
100
AcDbPolyline
 90
        2
 70
     0
 43
0.0
 10
4.439652777777777
 20
3.568827777777777
 10
4.403972222222222
 20
3.594411111111111
  0
LWPOLYLINE
  5
198
330
2
100
AcDbEntity
  8
PDF_Geometry
 62
     7
420
 16777215
370
    40
100
AcDbPolyline
 90
        3
 70
     0
 43
0.0
 10
5.715188888888888
 20
3.607209722222221
 10
5.715188888888888
 20
3.694070833333332
 10
5.715188888888888
 20
3.607209722222221
  0
LWPOLYLINE
  5
199
330
2
100
AcDbEntity
  8
PDF_Geometry
 62
     7
420
 16777215
370
    40
100
AcDbPolyline
 90
        2
 70
     0
 43
0.0
 10
5.834366666666666
 20
3.848254166666666
 10
5.834366666666666
 20
4.157976388888888
  0
LWPOLYLINE
  5
19A
330
2
100
AcDbEntity
  8
PDF_Geometry
 62
     7
420
 16777215
370
    40
100
AcDbPolyline
 90
        3
 70
     0
 43
0.0
 10
5.834366666666666
 20
4.300716666666667
 10
5.834366666666666
 20
4.387577777777778
 10
5.834366666666666
 20
4.157966666666666
  0
LWPOLYLINE
  5
19B
330
2
100
AcDbEntity
  8
PDF_Geometry
 62
     7
420
 16777215
370
    40
100
AcDbPolyline
 90
        2
 70
     0
 43
0.0
 10
5.874093055555555
 20
3.848252777777777
 10
5.874093055555555
 20
3.741863888888889
  0
LWPOLYLINE
  5
19C
330
2
100
AcDbEntity
  8
PDF_Geometry
 62
     7
420
 16777215
370
    40
100
AcDbPolyline
 90
        2
 70
     0
 43
0.0
 10
5.768380555555554
 20
3.594415277777777
 10
6.535283333333332
 20
3.594415277777777
  0
LWPOLYLINE
  5
19D
330
2
100
AcDbEntity
  8
PDF_Geometry
 62
     7
420
 16777215
370
    40
100
AcDbPolyline
 90
        2
 70
     0
 43
0.0
 10
6.588472222222222
 20
3.607209722222221
 10
5.715180555555555
 20
3.607209722222221
  0
LWPOLYLINE
  5
19E
330
2
100
AcDbEntity
  8
PDF_Geometry
 62
     7
420
 16777215
370
    40
100
AcDbPolyline
 90
        6
 70
     0
 43
0.0
 10
5.715184722222222
 20
3.694058333333332
 10
5.716531944444445
 20
3.700127777777777
 10
5.719906944444444
 20
3.705516666666666
 10
5.725295833333333
 20
3.708877777777777
 10
5.731351388888889
 20
3.710224999999999
 10
6.572990277777778
 20
3.710224999999999
  0
LWPOLYLINE
  5
19F
330
2
100
AcDbEntity
  8
PDF_Geometry
 62
     7
420
 16777215
370
    40
100
AcDbPolyline
 90
        3
 70
     0
 43
0.0
 10
6.429572222222221
 20
3.741869444444444
 10
6.429572222222221
 20
3.848258333333332
 10
6.429572222222221
 20
3.741869444444444
  0
LWPOLYLINE
  5
1A0
330
2
100
AcDbEntity
  8
PDF_Geometry
 62
     7
420
 16777215
370
    40
100
AcDbPolyline
 90
        3
 70
     0
 43
0.0
 10
5.834368055555554
 20
3.848254166666666
 10
6.46929861111111
 20
3.848254166666666
 10
6.46929861111111
 20
4.165379166666666
  0
LWPOLYLINE
  5
1A1
330
2
100
AcDbEntity
  8
PDF_Geometry
 62
     7
420
 16777215
370
    40
100
AcDbPolyline
 90
        3
 70
     0
 43
0.0
 10
6.588472222222222
 20
3.607209722222221
 10
6.588472222222222
 20
3.694070833333332
 10
6.588472222222222
 20
3.607209722222221
  0
LWPOLYLINE
  5
1A3
330
2
100
AcDbEntity
  8
PDF_Geometry
 62
     7
420
 16777215
370
    40
100
AcDbPolyline
 90
        6
 70
     0
 43
0.0
 10
5.834358333333332
 20
4.387566666666666
 10
5.835705555555555
 20
4.393636111111111
 10
5.839080555555554
 20
4.399024999999999
 10
5.843788888888887
 20
4.402386111111111
 10
5.850524999999999
 20
4.403733333333333
 10
6.453816666666665
 20
4.403733333333333
  0
LWPOLYLINE
  5
1A4
330
2
100
AcDbEntity
  8
PDF_Geometry
 62
     7
420
 16777215
370
    40
100
AcDbPolyline
 90
        9
 70
     0
 43
0.0
 10
5.842445833333332
 20
3.710224999999999
 10
5.848501388888887
 20
3.710905555555554
 10
5.854556944444444
 20
3.712252777777777
 10
5.859945833333332
 20
3.715613888888888
 10
5.864668055555554
 20
3.719655555555554
 10
5.868709722222221
 20
3.724363888888888
 10
5.871390277777777
 20
3.729752777777777
 10
5.873418055555554
 20
3.735808333333332
 10
5.874084722222221
 20
3.741877777777777
  0
LWPOLYLINE
  5
1A5
330
2
100
AcDbEntity
  8
PDF_Geometry
 62
     7
420
 16777215
370
    40
100
AcDbPolyline
 90
        5
 70
     0
 43
0.0
 10
5.748854166666665
 20
3.606536111111111
 10
5.752215277777777
 20
3.601827777777778
 10
5.756937499999999
 20
3.597786111111111
 10
5.762312499999999
 20
3.595091666666667
 10
5.768381944444443
 20
3.594411111111111
  0
LWPOLYLINE
  5
1A8
330
2
100
AcDbEntity
  8
PDF_Geometry
 62
     7
420
 16777215
370
    40
100
AcDbPolyline
 90
        9
 70
     0
 43
0.0
 10
6.429572222222221
 20
3.741869444444444
 10
6.430238888888887
 20
3.735813888888888
 10
6.432266666666666
 20
3.729744444444444
 10
6.43496111111111
 20
3.724369444444444
 10
6.439002777777776
 20
3.719647222222222
 10
6.44371111111111
 20
3.715605555555555
 10
6.449766666666666
 20
3.712244444444444
 10
6.455155555555554
 20
3.710897222222222
 10
6.461891666666665
 20
3.710216666666666
  0
LWPOLYLINE
  5
1A9
330
2
100
AcDbEntity
  8
PDF_Geometry
 62
     7
420
 16777215
370
    40
100
AcDbPolyline
 90
        5
 70
     0
 43
0.0
 10
6.535279166666666
 20
3.594415277777777
 10
6.541334722222221
 20
3.595081944444443
 10
6.546723611111111
 20
3.597776388888888
 10
6.551445833333333
 20
3.601818055555555
 10
6.554806944444443
 20
3.606540277777777
  0
LWPOLYLINE
  5
1AA
330
2
100
AcDbEntity
  8
PDF_Geometry
 62
     7
420
 16777215
370
    40
100
AcDbPolyline
 90
        5
 70
     0
 43
0.0
 10
6.588472222222222
 20
3.694066666666666
 10
6.587125
 20
3.700122222222222
 10
6.58375
 20
3.70551111111111
 10
6.579041666666666
 20
3.708872222222222
 10
6.57298611111111
 20
3.710219444444444
  0
LWPOLYLINE
  5
1AB
330
2
100
AcDbEntity
  8
PDF_Geometry
 62
     7
420
 16777215
370
    40
100
AcDbPolyline
 90
        6
 70
     0
 43
0.0
 10
6.46929861111111
 20
3.848254166666666
 10
6.46929861111111
 20
4.387573611111109
 10
6.468618055555555
 20
4.393629166666665
 10
6.464576388888888
 20
4.399018055555554
 10
6.459868055555554
 20
4.402393055555553
 10
6.453812499999998
 20
4.403740277777776
  0
LWPOLYLINE
  5
1AC
330
2
100
AcDbEntity
  8
PDF_Geometry
 62
     7
420
 16777215
370
    40
100
AcDbPolyline
 90
        2
 70
     0
 43
0.0
 10
6.378402777777777
 20
3.55199861111111
 10
6.318472222222221
 20
3.594415277777776
  0
LWPOLYLINE
  5
1AE
330
2
100
AcDbEntity
  8
PDF_Geometry
 62
     7
420
 16777215
370
    40
100
AcDbPolyline
 90
        5
 70
     0
 43
0.0
 10
3.905045833333332
 20
4.162690277777777
 10
3.905045833333332
 20
4.295329166666665
 42
0.2375940019293892
 10
3.912451388888888
 20
4.157975
 10
3.912454166666666
 20
4.300716666666667
 10
3.919856944444443
 20
4.300716666666667
  0
LWPOLYLINE
  5
1B0
330
2
100
AcDbEntity
  8
PDF_Geometry
 62
     7
420
 16777215
370
    40
100
AcDbPolyline
 90
        2
 70
     0
 43
0.0
 10
3.919856944444443
 20
4.157975
 10
3.912454166666666
 20
4.157975
  0
LWPOLYLINE
  5
1B3
330
2
100
AcDbEntity
  8
PDF_Geometry
 62
     7
420
 16777215
370
    40
100
AcDbPolyline
 90
        3
 70
     0
 43
0.0
 10
3.912451388888888
 20
4.300716666666667
 10
3.908409722222221
 20
4.299369444444445
 10
3.90504861111111
 20
4.295327777777778
  0
LWPOLYLINE
  5
1B4
330
2
100
AcDbEntity
  8
PDF_Geometry
 62
     7
420
 16777215
370
    40
100
AcDbPolyline
 90
        2
 70
     1
 43
0.0
 10
2.201574999999999
 20
4.162690277777777
 10
2.201574999999999
 20
4.295329166666665
 42
-0.1831966925786513
  0
LWPOLYLINE
  5
1B5
330
2
100
AcDbEntity
  8
PDF_Geometry
 62
     7
420
 16777215
370
    40
100
AcDbPolyline
 90
        4
 70
     0
 43
0.0
 10
2.201568055555555
 20
4.162683333333333
 10
2.19887361111111
 20
4.159322222222222
 10
2.194165277777777
 20
4.157975
 10
2.194165277777777
 20
4.300725
  0
LWPOLYLINE
  5
1B6
330
2
100
AcDbEntity
  8
PDF_Geometry
 62
     7
420
 16777215
370
    40
100
AcDbPolyline
 90
        2
 70
     0
 43
0.0
 10
2.186759722222221
 20
4.157975
 10
2.194162499999999
 20
4.157975
  0
LWPOLYLINE
  5
1B7
330
2
100
AcDbEntity
  8
PDF_Geometry
 62
     7
420
 16777215
370
    40
100
AcDbPolyline
 90
        2
 70
     0
 43
0.0
 10
2.186759722222221
 20
4.300716666666667
 10
2.194162499999999
 20
4.300716666666667
  0
LWPOLYLINE
  5
1BA
330
2
100
AcDbEntity
  8
PDF_Geometry
 62
     7
420
 16777215
370
    40
100
AcDbPolyline
 90
        3
 70
     0
 43
0.0
 10
2.201574999999999
 20
4.295330555555555
 10
2.198880555555555
 20
4.299372222222221
 10
2.194172222222221
 20
4.300719444444443
  0
SPLINE
  5
1BC
330
2
100
AcDbEntity
  8
PDF_Geometry
 62
     7
420
 16777215
370
    40
100
AcDbSpline
210
0.0
220
0.0
230
1.0
 70
     8
 71
     3
 72
     8
 73
     4
 74
     0
 42
0.000000001
 43
0.0000000001
 40
0.0
 40
0.0
 40
0.0
 40
0.0
 40
1.0
 40
1.0
 40
1.0
 40
1.0
 10
6.214788888888889
 20
4.245506944444444
 30
0.0
 10
6.214788888888889
 20
4.280520833333333
 30
0.0
 10
6.185830555555555
 20
4.308118055555555
 30
0.0
 10
6.151497222222222
 20
4.308118055555555
 30
0.0
  0
LWPOLYLINE
  5
1BF
330
2
100
AcDbEntity
  8
PDF_Geometry
 62
     7
420
 16777215
370
    13
100
AcDbPolyline
 90
        2
 70
     0
 43
0.0
 10
1.868958333333333
 20
4.487224999999999
 10
1.868958333333333
 20
2.962183333333332
  0
LWPOLYLINE
  5
1C0
330
2
100
AcDbEntity
  8
PDF_Geometry
 62
     7
420
 16777215
370
    13
100
AcDbPolyline
 90
        2
 70
     0
 43
0.0
 10
4.23766111111111
 20
2.958137499999999
 10
4.23766111111111
 20
4.487220833333333
  0
LWPOLYLINE
  5
1C1
330
2
100
AcDbEntity
  8
PDF_Geometry
 62
     7
420
 16777215
370
    13
100
AcDbPolyline
 90
        2
 70
     0
 43
0.0
 10
6.152166666666666
 20
2.970259722222222
 10
6.152166666666666
 20
4.475773611111111
  0
LWPOLYLINE
  5
1C2
330
2
100
AcDbEntity
  8
PDF_Geometry
 62
     7
420
 16777215
370
    40
100
AcDbPolyline
 90
        2
 70
     1
 43
0.0
 10
4.04442361111111
 20
3.40926111111111
 10
4.04442361111111
 20
3.315663888888888
  0
LWPOLYLINE
  5
1C4
330
2
100
AcDbEntity
  8
PDF_Geometry
 62
     7
420
 16777215
370
    40
100
AcDbPolyline
 90
        3
 70
     0
 43
0.0
 10
4.38713611111111
 20
3.299506944444444
 10
4.060580555555555
 20
3.299506944444444
 10
4.060580555555555
 20
3.409256944444444
  0
LWPOLYLINE
  5
1C5
330
2
100
AcDbEntity
  8
PDF_Geometry
 62
     7
420
 16777215
370
    40
100
AcDbPolyline
 90
        2
 70
     1
 43
0.0
 10
4.078088888888888
 20
3.187059722222222
 10
4.078088888888888
 20
3.04432361111111
  0
LWPOLYLINE
  5
1C7
330
2
100
AcDbEntity
  8
PDF_Geometry
 62
     7
420
 16777215
370
    40
100
AcDbPolyline
 90
        2
 70
     1
 43
0.0
 10
4.078088888888888
 20
3.281999999999999
 10
4.078088888888888
 20
3.266513888888888
  0
LWPOLYLINE
  5
1C9
330
2
100
AcDbEntity
  8
PDF_Geometry
 62
     7
420
 16777215
370
    40
100
AcDbPolyline
 90
        2
 70
     0
 43
0.0
 10
4.090205555555555
 20
3.036240277777777
 10
4.090205555555555
 20
3.04432361111111
  0
LWPOLYLINE
  5
1CA
330
2
100
AcDbEntity
  8
PDF_Geometry
 62
     7
420
 16777215
370
    40
100
AcDbPolyline
 90
        3
 70
     0
 43
0.0
 10
4.370297222222221
 20
3.28199861111111
 10
4.078088888888888
 20
3.28199861111111
 10
4.044422222222221
 20
3.315665277777777
  0
LWPOLYLINE
  5
1CB
330
2
100
AcDbEntity
  8
PDF_Geometry
 62
     7
420
 16777215
370
    40
100
AcDbPolyline
 90
        2
 70
     0
 43
0.0
 10
4.123870833333332
 20
3.187061111111111
 10
4.123870833333332
 20
3.266519444444444
  0
LWPOLYLINE
  5
1CC
330
2
100
AcDbEntity
  8
PDF_Geometry
 62
     7
420
 16777215
370
    40
100
AcDbPolyline
 90
        3
 70
     0
 43
0.0
 10
4.370305555555555
 20
3.187061111111111
 10
4.323847222222221
 20
3.187061111111111
 10
4.323847222222221
 20
3.266519444444444
  0
LWPOLYLINE
  5
1CD
330
2
100
AcDbEntity
  8
PDF_Geometry
 62
     7
420
 16777215
370
    40
100
AcDbPolyline
 90
        2
 70
     0
 43
0.0
 10
4.357508333333333
 20
3.036240277777777
 10
4.357508333333333
 20
3.04432361111111
  0
LWPOLYLINE
  5
1CE
330
2
100
AcDbEntity
  8
PDF_Geometry
 62
     7
420
 16777215
370
    40
100
AcDbPolyline
 90
        2
 70
     1
 43
0.0
 10
4.370301388888888
 20
3.187059722222222
 10
4.370301388888888
 20
3.04432361111111
  0
LWPOLYLINE
  5
1D0
330
2
100
AcDbEntity
  8
PDF_Geometry
 62
     7
420
 16777215
370
    40
100
AcDbPolyline
 90
        2
 70
     1
 43
0.0
 10
4.370301388888888
 20
3.281999999999999
 10
4.370301388888888
 20
3.266513888888888
  0
LWPOLYLINE
  5
1D2
330
2
100
AcDbEntity
  8
PDF_Geometry
 62
     7
420
 16777215
370
    40
100
AcDbPolyline
 90
        2
 70
     0
 43
0.0
 10
4.387137499999999
 20
3.299506944444444
 10
4.387137499999999
 20
3.409256944444444
  0
LWPOLYLINE
  5
1D3
330
2
100
AcDbEntity
  8
PDF_Geometry
 62
     7
420
 16777215
370
    40
100
AcDbPolyline
 90
        2
 70
     1
 43
0.0
 10
4.403294444444443
 20
3.40926111111111
 10
4.403294444444443
 20
3.315663888888888
  0
LWPOLYLINE
  5
1D5
330
2
100
AcDbEntity
  8
PDF_Geometry
 62
     7
420
 16777215
370
    40
100
AcDbPolyline
 90
        2
 70
     0
 43
0.0
 10
4.357513888888888
 20
3.036240277777777
 10
4.090208333333333
 20
3.036240277777777
  0
LWPOLYLINE
  5
1D6
330
2
100
AcDbEntity
  8
PDF_Geometry
 62
     7
420
 16777215
370
    40
100
AcDbPolyline
 90
        2
 70
     0
 43
0.0
 10
4.370301388888888
 20
3.04432361111111
 10
4.078093055555555
 20
3.04432361111111
  0
LWPOLYLINE
  5
1D7
330
2
100
AcDbEntity
  8
PDF_Geometry
 62
     7
420
 16777215
370
    40
100
AcDbPolyline
 90
        2
 70
     0
 43
0.0
 10
4.078088888888888
 20
3.187061111111111
 10
4.123866666666666
 20
3.187061111111111
  0
LWPOLYLINE
  5
1D9
330
2
100
AcDbEntity
  8
PDF_Geometry
 62
     7
420
 16777215
370
    40
100
AcDbPolyline
 90
        2
 70
     0
 43
0.0
 10
4.078088888888888
 20
3.266513888888888
 10
4.123866666666666
 20
3.266513888888888
  0
LWPOLYLINE
  5
1DA
330
2
100
AcDbEntity
  8
PDF_Geometry
 62
     7
420
 16777215
370
    40
100
AcDbPolyline
 90
        2
 70
     0
 43
0.0
 10
4.323847222222221
 20
3.266513888888888
 10
4.370305555555555
 20
3.266513888888888
  0
LWPOLYLINE
  5
1DD
330
2
100
AcDbEntity
  8
PDF_Geometry
 62
     7
420
 16777215
370
    40
100
AcDbPolyline
 90
        2
 70
     0
 43
0.0
 10
4.04442361111111
 20
3.315663888888888
 10
4.40329861111111
 20
3.315663888888888
  0
LWPOLYLINE
  5
1DE
330
2
100
AcDbEntity
  8
PDF_Geometry
 62
     7
420
 16777215
370
    40
100
AcDbPolyline
 90
        2
 70
     0
 43
0.0
 10
4.370301388888888
 20
3.28199861111111
 10
4.403287499999999
 20
3.315665277777777
  0
LWPOLYLINE
  5
1DF
330
2
100
AcDbEntity
  8
PDF_Geometry
 62
     7
420
 16777215
370
    40
100
AcDbPolyline
 90
        2
 70
     1
 43
0.0
 10
1.675719444444444
 20
3.40926111111111
 10
1.675719444444444
 20
3.315663888888888
  0
LWPOLYLINE
  5
1E1
330
2
100
AcDbEntity
  8
PDF_Geometry
 62
     7
420
 16777215
370
    40
100
AcDbPolyline
 90
        2
 70
     0
 43
0.0
 10
1.691877777777777
 20
3.299506944444444
 10
1.691877777777777
 20
3.409256944444444
  0
LWPOLYLINE
  5
1E2
330
2
100
AcDbEntity
  8
PDF_Geometry
 62
     7
420
 16777215
370
    40
100
AcDbPolyline
 90
        2
 70
     1
 43
0.0
 10
1.709384722222221
 20
3.187059722222222
 10
1.709384722222221
 20
3.04432361111111
  0
LWPOLYLINE
  5
1E4
330
2
100
AcDbEntity
  8
PDF_Geometry
 62
     7
420
 16777215
370
    40
100
AcDbPolyline
 90
        2
 70
     1
 43
0.0
 10
1.709384722222221
 20
3.281999999999999
 10
1.709384722222221
 20
3.266513888888888
  0
LWPOLYLINE
  5
1E6
330
2
100
AcDbEntity
  8
PDF_Geometry
 62
     7
420
 16777215
370
    40
100
AcDbPolyline
 90
        2
 70
     0
 43
0.0
 10
1.722176388888888
 20
3.036240277777777
 10
1.722176388888888
 20
3.04432361111111
  0
LWPOLYLINE
  5
1E7
330
2
100
AcDbEntity
  8
PDF_Geometry
 62
     7
420
 16777215
370
    40
100
AcDbPolyline
 90
        3
 70
     0
 43
0.0
 10
2.001593055555555
 20
3.28199861111111
 10
1.709384722222221
 20
3.28199861111111
 10
1.675718055555555
 20
3.315665277777777
  0
LWPOLYLINE
  5
1E8
330
2
100
AcDbEntity
  8
PDF_Geometry
 62
     7
420
 16777215
370
    40
100
AcDbPolyline
 90
        2
 70
     0
 43
0.0
 10
1.755169444444444
 20
3.187061111111111
 10
1.755169444444444
 20
3.266519444444444
  0
LWPOLYLINE
  5
1E9
330
2
100
AcDbEntity
  8
PDF_Geometry
 62
     7
420
 16777215
370
    40
100
AcDbPolyline
 90
        3
 70
     0
 43
0.0
 10
2.001606944444444
 20
3.187061111111111
 10
1.955815277777777
 20
3.187061111111111
 10
1.955815277777777
 20
3.266519444444444
  0
LWPOLYLINE
  5
1EA
330
2
100
AcDbEntity
  8
PDF_Geometry
 62
     7
420
 16777215
370
    40
100
AcDbPolyline
 90
        2
 70
     0
 43
0.0
 10
1.988806944444444
 20
3.036240277777777
 10
1.988806944444444
 20
3.04432361111111
  0
LWPOLYLINE
  5
1EB
330
2
100
AcDbEntity
  8
PDF_Geometry
 62
     7
420
 16777215
370
    40
100
AcDbPolyline
 90
        2
 70
     1
 43
0.0
 10
2.001599999999999
 20
3.187059722222222
 10
2.001599999999999
 20
3.04432361111111
  0
LWPOLYLINE
  5
1ED
330
2
100
AcDbEntity
  8
PDF_Geometry
 62
     7
420
 16777215
370
    40
100
AcDbPolyline
 90
        2
 70
     1
 43
0.0
 10
2.001599999999999
 20
3.281999999999999
 10
2.001599999999999
 20
3.266513888888888
  0
LWPOLYLINE
  5
1EF
330
2
100
AcDbEntity
  8
PDF_Geometry
 62
     7
420
 16777215
370
    40
100
AcDbPolyline
 90
        2
 70
     0
 43
0.0
 10
2.019105555555555
 20
3.299506944444444
 10
2.019105555555555
 20
3.409256944444444
  0
LWPOLYLINE
  5
1F0
330
2
100
AcDbEntity
  8
PDF_Geometry
 62
     7
420
 16777215
370
    40
100
AcDbPolyline
 90
        2
 70
     1
 43
0.0
 10
2.034593055555555
 20
3.40926111111111
 10
2.034593055555555
 20
3.315663888888888
  0
LWPOLYLINE
  5
1F2
330
2
100
AcDbEntity
  8
PDF_Geometry
 62
     7
420
 16777215
370
    40
100
AcDbPolyline
 90
        2
 70
     0
 43
0.0
 10
1.988808333333333
 20
3.036240277777777
 10
1.722169444444444
 20
3.036240277777777
  0
LWPOLYLINE
  5
1F3
330
2
100
AcDbEntity
  8
PDF_Geometry
 62
     7
420
 16777215
370
    40
100
AcDbPolyline
 90
        2
 70
     0
 43
0.0
 10
2.001599999999999
 20
3.04432361111111
 10
1.709391666666666
 20
3.04432361111111
  0
LWPOLYLINE
  5
1F4
330
2
100
AcDbEntity
  8
PDF_Geometry
 62
     7
420
 16777215
370
    40
100
AcDbPolyline
 90
        2
 70
     0
 43
0.0
 10
1.709384722222221
 20
3.187061111111111
 10
1.755176388888888
 20
3.187061111111111
  0
LWPOLYLINE
  5
1F6
330
2
100
AcDbEntity
  8
PDF_Geometry
 62
     7
420
 16777215
370
    40
100
AcDbPolyline
 90
        2
 70
     0
 43
0.0
 10
1.709384722222221
 20
3.266513888888888
 10
1.755176388888888
 20
3.266513888888888
  0
LWPOLYLINE
  5
1F7
330
2
100
AcDbEntity
  8
PDF_Geometry
 62
     7
420
 16777215
370
    40
100
AcDbPolyline
 90
        2
 70
     0
 43
0.0
 10
1.955815277777777
 20
3.266513888888888
 10
2.001606944444444
 20
3.266513888888888
  0
LWPOLYLINE
  5
1F9
330
2
100
AcDbEntity
  8
PDF_Geometry
 62
     7
420
 16777215
370
    40
100
AcDbPolyline
 90
        2
 70
     0
 43
0.0
 10
1.691879166666666
 20
3.299506944444444
 10
2.019101388888888
 20
3.299506944444444
  0
LWPOLYLINE
  5
1FA
330
2
100
AcDbEntity
  8
PDF_Geometry
 62
     7
420
 16777215
370
    40
100
AcDbPolyline
 90
        2
 70
     0
 43
0.0
 10
1.675719444444444
 20
3.315663888888888
 10
2.034594444444444
 20
3.315663888888888
  0
LWPOLYLINE
  5
1FB
330
2
100
AcDbEntity
  8
PDF_Geometry
 62
     7
420
 16777215
370
    40
100
AcDbPolyline
 90
        2
 70
     0
 43
0.0
 10
2.001599999999999
 20
3.28199861111111
 10
2.03458611111111
 20
3.315665277777777
  0
LWPOLYLINE
  5
1FC
330
2
100
AcDbEntity
  8
PDF_Geometry
 62
     7
420
 16777215
370
    13
100
AcDbPolyline
 90
        2
 70
     0
 43
0.0
 10
1.038766666666666
 20
4.244834722222221
 10
1.658211111111111
 20
4.244834722222221
  0
LWPOLYLINE
  5
1FD
330
2
100
AcDbEntity
  8
PDF_Geometry
 62
     7
420
 16777215
370
    13
100
AcDbPolyline
 90
        2
 70
     0
 43
0.0
 10
5.16481111111111
 20
4.244834722222221
 10
4.452449999999999
 20
4.244834722222221
  0
LWPOLYLINE
  5
1FE
330
2
100
AcDbEntity
  8
PDF_Geometry
 62
     7
420
 16777215
370
    13
100
AcDbPolyline
 90
        2
 70
     0
 43
0.0
 10
5.626988888888889
 20
3.576515277777777
 10
5.626988888888889
 20
3.066931944444443
  0
LWPOLYLINE
  5
1FF
330
2
100
AcDbEntity
  8
PDF_Geometry
 62
     7
420
 16777215
370
    13
100
AcDbPolyline
 90
        2
 70
     0
 43
0.0
 10
5.713169444444444
 20
3.607209722222221
 10
5.621599999999999
 20
3.607209722222221
  0
LWPOLYLINE
  5
200
330
2
100
AcDbEntity
  8
PDF_Geometry
 62
     7
420
 16777215
370
    13
100
AcDbPolyline
 90
        2
 70
     0
 43
0.0
 10
6.016836111111111
 20
3.036240277777777
 10
5.621599999999999
 20
3.036240277777777
  0
LWPOLYLINE
  5
201
330
2
100
AcDbEntity
  8
PDF_Geometry
 62
     7
420
 16777215
370
    13
100
AcDbPolyline
 90
        2
 70
     0
 43
0.0
 10
1.899651388888888
 20
4.820512499999999
 10
4.206970833333333
 20
4.820512499999999
  0
LWPOLYLINE
  5
202
330
2
100
AcDbEntity
  8
PDF_Geometry
 62
     7
420
 16777215
370
    13
100
AcDbPolyline
 90
        2
 70
     0
 43
0.0
 10
1.868958333333333
 20
4.489244444444444
 10
1.868958333333333
 20
4.826577777777777
  0
LWPOLYLINE
  5
203
330
2
100
AcDbEntity
  8
PDF_Geometry
 62
     7
420
 16777215
370
    13
100
AcDbPolyline
 90
        2
 70
     0
 43
0.0
 10
4.23766111111111
 20
4.488570833333333
 10
4.23766111111111
 20
4.826570833333333
  0
LWPOLYLINE
  5
204
330
2
100
AcDbEntity
  8
PDF_Geometry
 62
     7
420
 16777215
370
    13
100
AcDbPolyline
 90
        2
 70
     0
 43
0.0
 10
0.9027583333333334
 20
4.373040277777777
 10
0.9027583333333334
 20
3.637901388888888
  0
LWPOLYLINE
  5
205
330
2
100
AcDbEntity
  8
PDF_Geometry
 62
     7
420
 16777215
370
    13
100
AcDbPolyline
 90
        2
 70
     0
 43
0.0
 10
1.430633333333333
 20
3.607209722222221
 10
0.8973694444444443
 20
3.607209722222221
  0
LWPOLYLINE
  5
206
330
2
100
AcDbEntity
  8
PDF_Geometry
 62
     7
420
 16777215
370
    13
100
AcDbPolyline
 90
        2
 70
     0
 43
0.0
 10
1.463345833333333
 20
2.757494444444443
 10
2.275234722222222
 20
2.757494444444443
  0
LWPOLYLINE
  5
207
330
2
100
AcDbEntity
  8
PDF_Geometry
 62
     7
420
 16777215
370
    13
100
AcDbPolyline
 90
        2
 70
     0
 43
0.0
 10
1.432652777777777
 20
3.605190277777777
 10
1.432652777777777
 20
2.751426388888888
  0
LWPOLYLINE
  5
208
330
2
100
AcDbEntity
  8
PDF_Geometry
 62
     7
420
 16777215
370
    13
100
AcDbPolyline
 90
        2
 70
     0
 43
0.0
 10
1.105819444444444
 20
2.519141666666666
 10
2.275236111111111
 20
2.519141666666666
  0
LWPOLYLINE
  5
209
330
2
100
AcDbEntity
  8
PDF_Geometry
 62
     7
420
 16777215
370
    13
100
AcDbPolyline
 90
        2
 70
     0
 43
0.0
 10
1.075126388888888
 20
4.195680555555555
 10
1.075126388888888
 20
2.513083333333333
  0
LWPOLYLINE
  5
20A
330
2
100
AcDbEntity
  8
PDF_Geometry
 62
     7
420
 16777215
370
    13
100
AcDbPolyline
 90
        2
 70
     0
 43
0.0
 10
0.6677722222222223
 20
4.373040277777777
 10
0.6677722222222223
 20
3.066929166666666
  0
LWPOLYLINE
  5
20B
330
2
100
AcDbEntity
  8
PDF_Geometry
 62
     7
420
 16777215
370
    13
100
AcDbPolyline
 90
        2
 70
     0
 43
0.0
 10
4.0881875
 20
3.036240277777777
 10
0.6617152777777782
 20
3.036240277777777
  0
LWPOLYLINE
  5
20C
330
2
100
AcDbEntity
  8
PDF_Geometry
 62
     7
420
 16777215
370
    13
100
AcDbPolyline
 90
        2
 70
     0
 43
0.0
 10
3.933997222222222
 20
4.403733333333333
 10
0.6617194444444455
 20
4.403733333333333
  0
LWPOLYLINE
  5
20D
330
2
100
AcDbEntity
  8
PDF_Geometry
 62
     7
420
 16777215
370
    13
100
AcDbPolyline
 90
        2
 70
     0
 43
0.0
 10
2.305936111111111
 20
3.692043055555554
 10
2.305936111111111
 20
2.513084722222221
  0
MTEXT
  5
281
330
2
100
AcDbEntity
  8
PDF_Text
 62
     7
420
 16777215
100
AcDbMText
 10
2.933255555555555
 20
4.837971313888888
 30
0.0
 40
0.0970990370008681
 41
0.0
 46
0.0
 71
     7
 72
     5
  1
150
  7
PDF Arial
 73
     1
 44
1.0
  0
MTEXT
  5
283
330
2
100
AcDbEntity
  8
PDF_Text
 62
     7
420
 16777215
100
AcDbMText
 10
1.732270833333333
 20
2.77201853611111
 30
0.0
 40
0.0970990370008681
 41
0.0
 46
0.0
 71
     7
 72
     5
  1
Ø55
  7
PDF Arial
 73
     1
 44
1.0
  0
MTEXT
  5
284
330
2
100
AcDbEntity
  8
PDF_Text
 62
     7
420
 16777215
100
AcDbMText
 10
1.575326997222222
 20
2.537484488888888
 30
0.0
 40
0.0970990370008681
 41
0.0
 46
0.0
 71
     7
 72
     5
  1
77.5
  7
PDF Arial
 73
     1
 44
1.0
  0
MTEXT
  5
293
330
2
100
AcDbEntity
  8
PDF_Text
 62
     7
420
 16777215
100
AcDbMText
 10
0.6520742499999994
 20
3.668683819444444
 30
0.0
 40
0.0970990370008681
 41
0.0
 46
0.0
 71
     7
 72
     5
  1
86
  7
PDF Arial
 11
0.0000000000000001
 21
1.0
 31
0.0
 73
     1
 44
1.0
  0
MTEXT
  5
294
330
2
100
AcDbEntity
  8
PDF_Text
 62
     7
420
 16777215
100
AcDbMText
 10
0.8838953527777777
 20
3.943369444444444
 30
0.0
 40
0.0970990370008681
 41
0.0
 46
0.0
 71
     7
 72
     5
  1
50
  7
PDF Arial
 11
0.0000000000000001
 21
1.0
 31
0.0
 73
     1
 44
1.0
  0
MTEXT
  5
295
330
2
100
AcDbEntity
  8
PDF_Text
 62
     7
420
 16777215
100
AcDbMText
 10
5.611472341666665
 20
3.24966955
 30
0.0
 40
0.0970990370008681
 41
0.0
 46
0.0
 71
     7
 72
     5
  1
40
  7
PDF Arial
 11
0.0000000000000001
 21
1.0
 31
0.0
 73
     1
 44
1.0
  0
LWPOLYLINE
  5
2A6
330
2
100
AcDbEntity
  8
PDF_Geometry
 62
     7
420
 16777215
370
    40
100
AcDbPolyline
 90
        3
 70
     0
 43
0.0
 10
6.151497222222222
 20
4.308118055555555
 42
0.417143506867638
 10
6.088205555555512
 20
4.245506944444444
 42
0.9977529852097317
 10
6.214637389442903
 20
4.245072009303098
  0
VIEWPORT
  5
4A
330
C
100
AcDbEntity
 67
     1
  8
0
100
AcDbViewport
 10
17.24759499286355
 20
11.49745669559334
 30
0.0
 40
36.33732196730226
 41
27.12504315869042
 68
     1
 69
     1
 12
17.24759499286355
 22
11.49745669559334
 13
0.0
 23
0.0
 14
0.5
 24
0.5
 15
0.5
 25
0.5
 16
0.0
 26
0.0
 36
1.0
 17
0.0
 27
0.0
 37
0.0
 42
50.0
 43
0.0
 44
0.0
 45
27.12504315869042
 50
0.0
 51
0.0
 72
  1000
 90
    32864
  1

281
     0
 71
     1
 74
     0
110
0.0
120
0.0
130
0.0
111
1.0
121
0.0
131
0.0
112
0.0
122
1.0
132
0.0
 79
     0
146
0.0
170
     0
 61
     5
348
88
292
     1
282
     1
141
0.0
142
0.0
 63
   250
421
  3355443
  0
ENDSEC
  0
SECTION
  2
OBJECTS
  0
DICTIONARY
  5
7
330
0
100
AcDbDictionary
281
     1
  3
ACAD_CIP_PREVIOUS_PRODUCT_INFO
350
CD
  3
ACAD_COLOR
350
55
  3
ACAD_DETAILVIEWSTYLE
350
C5
  3
ACAD_GROUP
350
1F
  3
ACAD_IMAGE_DICT
350
E8
  3
ACAD_IMAGE_VARS
350
2A9
  3
ACAD_LAYOUT
350
B
  3
ACAD_MATERIAL
350
54
  3
ACAD_MLEADERSTYLE
350
C1
  3
ACAD_MLINESTYLE
350
20
  3
ACAD_PLOTSETTINGS
350
21
  3
ACAD_PLOTSTYLENAME
350
6
  3
ACAD_SCALELIST
350
AF
  3
ACAD_SECTIONVIEWSTYLE
350
C3
  3
ACAD_TABLESTYLE
350
93
  3
ACAD_VISUALSTYLE
350
82
  3
ACDB_RECOMPOSE_DATA
350
2D4
  3
AcDbVariableDictionary
350
9B
  0
DICTIONARY
  5
2AC
330
4
100
AcDbDictionary
280
     1
281
     1
  3
ADSK_XREC_LAYER_RECONCILED
360
2AD
  0
DICTIONARY
  5
2AE
330
25
100
AcDbDictionary
280
     1
281
     1
  3
ADSK_XREC_LAYER_RECONCILED
360
2AF
  0
DICTIONARY
  5
2B0
330
CE
100
AcDbDictionary
280
     1
281
     1
  3
ADSK_XREC_LAYER_RECONCILED
360
2B1
  0
DICTIONARY
  5
2B2
330
CF
100
AcDbDictionary
280
     1
281
     1
  3
ADSK_XREC_LAYER_RECONCILED
360
2B3
  0
DICTIONARY
  5
2B4
330
EB
100
AcDbDictionary
280
     1
281
     1
  3
ADSK_XREC_LAYER_RECONCILED
360
2B5
  0
DICTIONARY
  5
2B6
330
F5
100
AcDbDictionary
280
     1
281
     1
  3
ADSK_XREC_LAYER_RECONCILED
360
2B7
  0
XRECORD
  5
CD
102
{ACAD_REACTORS
330
7
102
}
330
7
100
AcDbXrecord
280
     1
300
ACD
300
2017
300
ACD_F_S
  0
DICTIONARY
  5
55
102
{ACAD_REACTORS
330
7
102
}
330
7
100
AcDbDictionary
281
     1
  0
DICTIONARY
  5
C5
102
{ACAD_REACTORS
330
7
102
}
330
7
100
AcDbDictionary
281
     1
  3
Imperial24
350
C6
  0
DICTIONARY
  5
1F
102
{ACAD_REACTORS
330
7
102
}
330
7
100
AcDbDictionary
281
     1
  0
DICTIONARY
  5
E8
102
{ACAD_REACTORS
330
7
102
}
330
7
100
AcDbDictionary
281
     1
  3
9505289-9506870-9508169 - MIZU DRIFT WALL TOP ASSEMBLIES1935
350
E9
  3
9505289-9506870-9508169 - MIZU DRIFT WALL TOP ASSEMBLIES1936
350
F0
  0
RASTERVARIABLES
  5
2A9
102
{ACAD_REACTORS
330
7
102
}
330
7
100
AcDbRasterVariables
 90
        0
 70
     1
 71
     1
 72
     5
  0
DICTIONARY
  5
B
102
{ACAD_REACTORS
330
7
102
}
330
7
100
AcDbDictionary
281
     1
  3
Generic 24in x 36in Title Block
350
F
  3
Model
350
A
  0
DICTIONARY
  5
54
102
{ACAD_REACTORS
330
7
102
}
330
7
100
AcDbDictionary
281
     1
  3
ByBlock
350
80
  3
ByLayer
350
7F
  3
Global
350
81
  0
DICTIONARY
  5
C1
102
{ACAD_REACTORS
330
7
102
}
330
7
100
AcDbDictionary
281
     1
  3
Standard
350
C2
  0
DICTIONARY
  5
20
102
{ACAD_REACTORS
330
7
102
}
330
7
100
AcDbDictionary
281
     1
  3
Standard
350
22
  0
DICTIONARY
  5
21
102
{ACAD_REACTORS
330
7
102
}
330
7
100
AcDbDictionary
281
     1
  0
ACDBDICTIONARYWDFLT
  5
6
102
{ACAD_REACTORS
330
7
102
}
330
7
100
AcDbDictionary
281
     1
  3
Normal
350
5
100
AcDbDictionaryWithDefault
340
5
  0
DICTIONARY
  5
AF
102
{ACAD_REACTORS
330
7
102
}
330
7
100
AcDbDictionary
281
     1
  3
A0
350
B0
  3
A1
350
B1
  3
A2
350
B2
  3
A3
350
B3
  3
A4
350
B4
  3
A5
350
B5
  3
A6
350
B6
  3
A7
350
B7
  3
A8
350
B8
  3
A9
350
B9
  3
B0
350
BA
  3
B1
350
BB
  3
B2
350
BC
  3
B3
350
BD
  3
B4
350
BE
  3
B5
350
BF
  3
B6
350
C0
  0
DICTIONARY
  5
C3
102
{ACAD_REACTORS
330
7
102
}
330
7
100
AcDbDictionary
281
     1
  3
Imperial24
350
C4
  0
DICTIONARY
  5
93
102
{ACAD_REACTORS
330
7
102
}
330
7
100
AcDbDictionary
281
     1
  3
Standard
350
94
  0
DICTIONARY
  5
82
102
{ACAD_REACTORS
330
7
102
}
330
7
100
AcDbDictionary
281
     1
  3
2dWireframe
350
88
  3
3D Hidden
350
8A
  3
3dWireframe
350
89
  3
Basic
350
87
  3
Brighten
350
8E
  3
ColorChange
350
92
  3
Conceptual
350
8B
  3
Dim
350
8D
  3
EdgeColorOff
350
AE
  3
Facepattern
350
91
  3
Flat
350
83
  3
FlatWithEdges
350
84
  3
Gouraud
350
85
  3
GouraudWithEdges
350
86
  3
Hidden
350
A6
  3
JitterOff
350
AC
  3
Linepattern
350
90
  3
OverhangOff
350
AD
  3
Realistic
350
8C
  3
Shaded
350
AB
  3
Shaded with edges
350
AA
  3
Shades of Gray
350
A7
  3
Sketchy
350
A8
  3
Thicken
350
8F
  3
Wireframe
350
A5
  3
X-Ray
350
A9
  0
XRECORD
  5
2D4
102
{ACAD_REACTORS
330
7
102
}
330
7
100
AcDbXrecord
280
     1
 90
        1
330
94
330
C4
330
C6
  0
DICTIONARY
  5
9B
102
{ACAD_REACTORS
330
7
102
}
330
7
100
AcDbDictionary
281
     1
  3
CANNOSCALE
350
2CA
  3
CMLEADERSTYLE
350
2C6
  3
CTABLESTYLE
350
9C
  3
CVIEWDETAILSTYLE
350
2C7
  3
CVIEWSECTIONSTYLE
350
2C8
  3
LAYEREVAL
350
2CC
  3
LAYERNOTIFY
350
2CD
  3
LIGHTINGUNITS
350
2CB
  3
MSLTSCALE
350
2C9
  0
XRECORD
  5
2AD
102
{ACAD_REACTORS
330
2AC
102
}
330
2AC
100
AcDbXrecord
280
     1
290
     1
  0
XRECORD
  5
2AF
102
{ACAD_REACTORS
330
2AE
102
}
330
2AE
100
AcDbXrecord
280
     1
290
     1
  0
XRECORD
  5
2B1
102
{ACAD_REACTORS
330
2B0
102
}
330
2B0
100
AcDbXrecord
280
     1
290
     1
  0
XRECORD
  5
2B3
102
{ACAD_REACTORS
330
2B2
102
}
330
2B2
100
AcDbXrecord
280
     1
290
     1
  0
XRECORD
  5
2B5
102
{ACAD_REACTORS
330
2B4
102
}
330
2B4
100
AcDbXrecord
280
     1
290
     1
  0
XRECORD
  5
2B7
102
{ACAD_REACTORS
330
2B6
102
}
330
2B6
100
AcDbXrecord
280
     1
290
     1
  0
ACDBDETAILVIEWSTYLE
  5
C6
102
{ACAD_XDICTIONARY
360
2D2
102
}
102
{ACAD_REACTORS
330
C5
102
}
330
C5
100
AcDbModelDocViewStyle
 70
     0
  3
Imperial24
290
     0
100
AcDbDetailViewStyle
 70
     0
 71
     0
 90
        3
 71
     1
340
12
 62
   256
 40
0.24
340
0
 62
   256
 40
0.24
300

 40
0.36
280
     3
 71
     2
340
8
 90
       25
 62
   256
 71
     3
340
12
 62
   256
 40
0.24
 90
        1
 40
0.75
 90
        1
300
%<\AcVar ViewType \f "%tc1">% %<\AcVar ViewDetailId>%\PSCALE %<\AcVar ViewScale \f "%sn">%
 71
     4
340
8
 90
       25
 62
   256
340
8
 90
       25
 62
   256
280
     0
  0
IMAGEDEF
  5
E9
102
{ACAD_REACTORS
330
E8
330
EA
102
}
330
E8
100
AcDbRasterImageDef
 90
        0
  1
R:\Marketing\45. Product Assets\Bathroom\Awaiting Approval\.OVERSEAS SUPPLIERS\05. May-18\Mizu Drift Tapware\CADs\PDF Images\9505289-9506870-9508169 - MIZU DRIFT WALL TOP ASSEMBLIES1935.png
 10
1200.0
 20
900.0
 11
0.2646202699126753
 21
0.2646202699126753
280
     1
281
     2
  0
IMAGEDEF
  5
F0
102
{ACAD_REACTORS
330
E8
330
F1
102
}
330
E8
100
AcDbRasterImageDef
 90
        0
  1
R:\Marketing\45. Product Assets\Bathroom\Awaiting Approval\.OVERSEAS SUPPLIERS\05. May-18\Mizu Drift Tapware\CADs\PDF Images\9505289-9506870-9508169 - MIZU DRIFT WALL TOP ASSEMBLIES1936.png
 10
202.0
 20
61.0
 11
0.2646202699126753
 21
0.2646202699126753
280
     1
281
     2
  0
LAYOUT
  5
F
102
{ACAD_REACTORS
330
B
102
}
330
B
100
AcDbPlotSettings
  1

  2
none_device
  4
ARCH_D_(24.00_x_36.00_Inches)
  6

 40
6.4
 41
19.1
 42
6.4
 43
19.1
 44
609.5999755859375
 45
914.4000244140626
 46
6.095999999999999
 47
-0.254
 48
0.0
 49
0.0
140
0.0
141
0.0
142
1.0
143
1.0
 70
   692
 72
     0
 73
     1
 74
     1
  7

 75
    16
147
1.0
 76
     0
 77
     2
 78
   300
148
0.2650993882970653
149
0.268587724897764
100
AcDbLayout
  1
Generic 24in x 36in Title Block
 70
     1
 71
     1
 10
-0.7524054877282309
 20
-0.5025428238148726
 11
35.24759547345533
 21
23.49745621500156
 12
0.0
 22
0.0
 32
0.0
 14
1.000000000000000E+20
 24
1.000000000000000E+20
 34
1.000000000000000E+20
 15
-1.000000000000000E+20
 25
-1.000000000000000E+20
 35
-1.000000000000000E+20
146
0.0
 13
0.0
 23
0.0
 33
0.0
 16
1.0
 26
0.0
 36
0.0
 17
0.0
 27
1.0
 37
0.0
 76
     0
330
C
331
4A
  0
LAYOUT
  5
A
102
{ACAD_REACTORS
330
B
102
}
330
B
100
AcDbPlotSettings
  1

  2
none_device
  4
Letter_(8.50_x_11.00_Inches)
  6

 40
6.349999904632568
 41
6.349999904632568
 42
6.350006103515625
 43
6.350006103515625
 44
215.8999938964844
 45
279.3999938964844
 46
20.37045378159827
 47
10.87052656611426
 48
0.0
 49
0.0
140
0.0
141
0.0
142
1.0
143
3.59932905303845
 70
 11956
 72
     0
 73
     1
 74
     1
  7

 75
     0
147
0.2778295580271631
 76
     0
 77
     2
 78
   300
148
5.106903281790129
149
0.2718425107115592
100
AcDbLayout
  1
Model
 70
     1
 71
     0
 10
0.0
 20
0.0
 11
12.0
 21
9.0
 12
0.0
 22
0.0
 32
0.0
 14
0.0
 24
0.0
 34
0.0
 15
0.0
 25
0.0
 35
0.0
146
0.0
 13
0.0
 23
0.0
 33
0.0
 16
1.0
 26
0.0
 36
0.0
 17
0.0
 27
1.0
 37
0.0
 76
     0
330
2
331
7D
  0
MATERIAL
  5
80
102
{ACAD_REACTORS
330
54
102
}
330
54
100
AcDbMaterial
  1
ByBlock
 73
     1
 78
     1
172
     1
176
     1
270
     1
274
     1
 94
       63
  0
MATERIAL
  5
7F
102
{ACAD_REACTORS
330
54
102
}
330
54
100
AcDbMaterial
  1
ByLayer
 73
     1
 78
     1
172
     1
176
     1
270
     1
274
     1
 94
       63
  0
MATERIAL
  5
81
102
{ACAD_REACTORS
330
54
102
}
330
54
100
AcDbMaterial
  1
Global
 73
     1
 78
     1
172
     1
176
     1
270
     1
274
     1
 94
       63
  0
MLEADERSTYLE
  5
C2
102
{ACAD_REACTORS
330
C1
102
}
330
C1
100
AcDbMLeaderStyle
179
     2
170
     2
171
     1
172
     0
 90
        2
 40
0.0
 41
0.0
173
     1
 91
-1056964608
340
15
 92
       -2
290
     1
 42
0.09
291
     1
 43
0.36
  3
Standard
 44
0.18
300

342
12
174
     1
178
     6
175
     1
176
     0
 93
-1056964608
 45
0.18
292
     0
297
     0
 46
0.18
 94
-1056964608
 47
1.0
 49
1.0
140
1.0
293
     1
141
0.0
294
     1
177
     0
142
1.0
295
     1
296
     0
143
0.125
271
     0
272
     9
273
     9
298
     1
  0
MLINESTYLE
  5
22
102
{ACAD_REACTORS
330
20
102
}
330
20
100
AcDbMlineStyle
  2
STANDARD
 70
     0
  3

 62
   256
 51
90.0
 52
90.0
 71
     2
 49
0.5
 62
   256
  6
BYLAYER
 49
-0.5
 62
   256
  6
BYLAYER
  0
ACDBPLACEHOLDER
  5
5
102
{ACAD_REACTORS
330
6
102
}
330
6
  0
SCALE
  5
B0
102
{ACAD_REACTORS
330
AF
102
}
330
AF
100
AcDbScale
 70
     0
300
1:1
140
1.0
141
1.0
290
     1
  0
SCALE
  5
B1
102
{ACAD_REACTORS
330
AF
102
}
330
AF
100
AcDbScale
 70
     0
300
1/128" = 1'-0"
140
0.0078125
141
12.0
290
     0
  0
SCALE
  5
B2
102
{ACAD_REACTORS
330
AF
102
}
330
AF
100
AcDbScale
 70
     0
300
1/64" = 1'-0"
140
0.015625
141
12.0
290
     0
  0
SCALE
  5
B3
102
{ACAD_REACTORS
330
AF
102
}
330
AF
100
AcDbScale
 70
     0
300
1/32" = 1'-0"
140
0.03125
141
12.0
290
     0
  0
SCALE
  5
B4
102
{ACAD_REACTORS
330
AF
102
}
330
AF
100
AcDbScale
 70
     0
300
1/16" = 1'-0"
140
0.0625
141
12.0
290
     0
  0
SCALE
  5
B5
102
{ACAD_REACTORS
330
AF
102
}
330
AF
100
AcDbScale
 70
     0
300
3/32" = 1'-0"
140
0.09375
141
12.0
290
     0
  0
SCALE
  5
B6
102
{ACAD_REACTORS
330
AF
102
}
330
AF
100
AcDbScale
 70
     0
300
1/8" = 1'-0"
140
0.125
141
12.0
290
     0
  0
SCALE
  5
B7
102
{ACAD_REACTORS
330
AF
102
}
330
AF
100
AcDbScale
 70
     0
300
3/16" = 1'-0"
140
0.1875
141
12.0
290
     0
  0
SCALE
  5
B8
102
{ACAD_REACTORS
330
AF
102
}
330
AF
100
AcDbScale
 70
     0
300
1/4" = 1'-0"
140
0.25
141
12.0
290
     0
  0
SCALE
  5
B9
102
{ACAD_REACTORS
330
AF
102
}
330
AF
100
AcDbScale
 70
     0
300
3/8" = 1'-0"
140
0.375
141
12.0
290
     0
  0
SCALE
  5
BA
102
{ACAD_REACTORS
330
AF
102
}
330
AF
100
AcDbScale
 70
     0
300
1/2" = 1'-0"
140
0.5
141
12.0
290
     0
  0
SCALE
  5
BB
102
{ACAD_REACTORS
330
AF
102
}
330
AF
100
AcDbScale
 70
     0
300
3/4" = 1'-0"
140
0.75
141
12.0
290
     0
  0
SCALE
  5
BC
102
{ACAD_REACTORS
330
AF
102
}
330
AF
100
AcDbScale
 70
     0
300
1" = 1'-0"
140
1.0
141
12.0
290
     0
  0
SCALE
  5
BD
102
{ACAD_REACTORS
330
AF
102
}
330
AF
100
AcDbScale
 70
     0
300
1-1/2" = 1'-0"
140
1.5
141
12.0
290
     0
  0
SCALE
  5
BE
102
{ACAD_REACTORS
330
AF
102
}
330
AF
100
AcDbScale
 70
     0
300
3" = 1'-0"
140
3.0
141
12.0
290
     0
  0
SCALE
  5
BF
102
{ACAD_REACTORS
330
AF
102
}
330
AF
100
AcDbScale
 70
     0
300
6" = 1'-0"
140
6.0
141
12.0
290
     0
  0
SCALE
  5
C0
102
{ACAD_REACTORS
330
AF
102
}
330
AF
100
AcDbScale
 70
     0
300
1'-0" = 1'-0"
140
12.0
141
12.0
290
     0
  0
ACDBSECTIONVIEWSTYLE
  5
C4
102
{ACAD_XDICTIONARY
360
2D0
102
}
102
{ACAD_REACTORS
330
C3
102
}
330
C3
100
AcDbModelDocViewStyle
 70
     0
  3
Imperial24
290
     0
100
AcDbSectionViewStyle
 70
     0
 71
     0
 90
       78
 71
     1
340
12
 62
   256
 40
0.24
340
0
340
0
 62
   256
 40
0.24
300
I, O, Q, S, X, Z
 40
0.48
 90
        3
 40
0.18
 90
        1
 71
     2
340
8
 90
       25
 62
   256
340
8
 90
       50
 62
   256
 40
0.24
 40
0.0
 40
0.24
 71
     3
340
12
 62
   256
 40
0.24
 90
        1
 40
0.75
 90
        1
300
%<\AcVar ViewType \f "%tc1">% %<\AcVar ViewSectionStartId>%-%<\AcVar ViewSectionEndId>%\PSCALE %<\AcVar ViewScale \f "%sn">%
 71
     4
 62
   256
 62
   257
300
ANSI31
 40
1.0
 90
        0
290
     0
290
     0
 90
        6
 40
0.0
 40
1.570796326794896
 40
0.2617993877991494
 40
1.308996938995747
 40
-0.2617993877991494
 40
1.832595714594046
  0
TABLESTYLE
  5
94
102
{ACAD_XDICTIONARY
360
2CE
102
}
102
{ACAD_REACTORS
330
93
102
}
330
93
100
AcDbTableStyle
280
     0
  3
Standard
 70
     0
 71
     0
 40
0.06
 41
0.06
280
     0
281
     0
  7
Standard
140
0.18
170
     2
 62
     0
 63
     7
283
     0
 90
      512
 91
        0
  1

274
    -2
284
     1
 64
     0
275
    -2
285
     1
 65
     0
276
    -2
286
     1
 66
     0
277
    -2
287
     1
 67
     0
278
    -2
288
     1
 68
     0
279
    -2
289
     1
 69
     0
  7
Standard
140
0.25
170
     5
 62
     0
 63
     7
283
     0
 90
      512
 91
        0
  1

274
    -2
284
     1
 64
     0
275
    -2
285
     1
 65
     0
276
    -2
286
     1
 66
     0
277
    -2
287
     1
 67
     0
278
    -2
288
     1
 68
     0
279
    -2
289
     1
 69
     0
  7
Standard
140
0.18
170
     5
 62
     0
 63
     7
283
     0
 90
      512
 91
        0
  1

274
    -2
284
     1
 64
     0
275
    -2
285
     1
 65
     0
276
    -2
286
     1
 66
     0
277
    -2
287
     1
 67
     0
278
    -2
288
     1
 68
     0
279
    -2
289
     1
 69
     0
  0
VISUALSTYLE
  5
88
102
{ACAD_REACTORS
330
82
102
}
330
82
100
AcDbVisualStyle
  2
2dWireframe
 70
     4
177
     3
291
     0
 70
    58
 90
        0
176
     1
 90
        2
176
     1
 90
        1
176
     1
 90
        0
176
     1
 40
0.6
176
     1
 40
30.0
176
     1
 62
     7
420
 16777215
176
     1
 90
        1
176
     1
 90
        4
176
     1
 62
     7
176
     1
 62
   257
176
     1
 90
        1
176
     1
 90
        1
176
     1
 40
1.0
176
     1
 90
        0
176
     1
 62
   257
176
     1
 40
1.0
176
     1
 90
        1
176
     1
 90
        6
176
     1
 90
        2
176
     1
 62
     7
176
     1
 90
        5
176
     1
 90
        0
176
     1
 90
        0
176
     1
290
     0
176
     1
 90
        1
176
     1
 40
0.0
176
     1
 90
        0
176
     1
290
     1
176
     1
290
     1
176
     1
290
     0
176
     1
290
     0
176
     1
290
     0
176
     1
290
     0
176
     1
290
     0
176
     1
290
     0
176
     1
290
     0
176
     1
 90
       50
176
     1
 40
0.0
176
     1
 40
1.0
176
     1
 90
        0
176
     1
 62
    18
420
        0
176
     1
 90
       50
176
     1
 90
        3
176
     1
 62
     5
420
      255
176
     1
290
     0
176
     1
 90
       50
176
     1
 90
       50
176
     1
 90
       50
176
     1
290
     0
176
     1
 90
       50
176
     1
 62
   256
176
     0
 40
1.0
176
     0
 90
        2
176
     1
  1
strokes_ogs.tif
176
     1
290
     0
176
     1
 40
1.0
176
     1
 40
1.0
176
     1
  0
VISUALSTYLE
  5
8A
102
{ACAD_REACTORS
330
82
102
}
330
82
100
AcDbVisualStyle
  2
3D Hidden
 70
     6
177
     3
291
     0
 70
    58
 90
        1
176
     1
 90
        2
176
     1
 90
        2
176
     1
 90
        0
176
     1
 40
0.6
176
     1
 40
30.0
176
     1
 62
     7
420
 16777215
176
     1
 90
        2
176
     1
 90
       10
176
     1
 62
     7
176
     1
 62
   257
176
     1
 90
        2
176
     1
 90
        2
176
     1
 40
40.0
176
     1
 90
        0
176
     1
 62
   257
176
     1
 40
1.0
176
     1
 90
        1
176
     1
 90
        6
176
     1
 90
        2
176
     1
 62
     7
176
     1
 90
        3
176
     1
 90
        0
176
     1
 90
        0
176
     1
290
     0
176
     1
 90
        1
176
     1
 40
0.0
176
     1
 90
        0
176
     1
290
     0
176
     1
290
     1
176
     1
290
     1
176
     1
290
     0
176
     1
290
     0
176
     1
290
     0
176
     1
290
     0
176
     1
290
     0
176
     1
290
     0
176
     1
 90
       50
176
     1
 40
0.0
176
     1
 40
1.0
176
     1
 90
        0
176
     1
 62
    18
420
        0
176
     1
 90
       50
176
     1
 90
        3
176
     1
 62
     5
420
      255
176
     1
290
     0
176
     1
 90
       50
176
     1
 90
       50
176
     1
 90
       50
176
     1
290
     0
176
     1
 90
       50
176
     1
 62
   256
176
     0
 40
1.0
176
     0
 90
        2
176
     1
  1
strokes_ogs.tif
176
     1
290
     0
176
     1
 40
1.0
176
     1
 40
1.0
176
     1
  0
VISUALSTYLE
  5
89
102
{ACAD_REACTORS
330
82
102
}
330
82
100
AcDbVisualStyle
  2
3dWireframe
 70
     5
177
     3
291
     0
 70
    58
 90
        0
176
     1
 90
        2
176
     1
 90
        1
176
     1
 90
        0
176
     1
 40
0.6
176
     1
 40
30.0
176
     1
 62
     7
420
 16777215
176
     1
 90
        1
176
     1
 90
        4
176
     1
 62
     7
176
     1
 62
   257
176
     1
 90
        1
176
     1
 90
        1
176
     1
 40
1.0
176
     1
 90
        0
176
     1
 62
   257
176
     1
 40
1.0
176
     1
 90
        1
176
     1
 90
        6
176
     1
 90
        2
176
     1
 62
     7
176
     1
 90
        5
176
     1
 90
        0
176
     1
 90
        0
176
     1
290
     0
176
     1
 90
        1
176
     1
 40
0.0
176
     1
 90
        0
176
     1
290
     0
176
     1
290
     1
176
     1
290
     1
176
     1
290
     0
176
     1
290
     0
176
     1
290
     0
176
     1
290
     0
176
     1
290
     0
176
     1
290
     0
176
     1
 90
       50
176
     1
 40
0.0
176
     1
 40
1.0
176
     1
 90
        0
176
     1
 62
    18
420
        0
176
     1
 90
       50
176
     1
 90
        3
176
     1
 62
     5
420
      255
176
     1
290
     0
176
     1
 90
       50
176
     1
 90
       50
176
     1
 90
       50
176
     1
290
     0
176
     1
 90
       50
176
     1
 62
   256
176
     0
 40
1.0
176
     0
 90
        2
176
     1
  1
strokes_ogs.tif
176
     1
290
     0
176
     1
 40
1.0
176
     1
 40
1.0
176
     1
  0
VISUALSTYLE
  5
87
102
{ACAD_REACTORS
330
82
102
}
330
82
100
AcDbVisualStyle
  2
Basic
 70
     7
177
     3
291
     1
 70
    58
 90
        1
176
     1
 90
        0
176
     1
 90
        1
176
     1
 90
        0
176
     1
 40
0.6
176
     1
 40
30.0
176
     1
 62
     7
420
 16777215
176
     1
 90
        0
176
     1
 90
        4
176
     1
 62
     7
176
     1
 62
   257
176
     1
 90
        1
176
     1
 90
        1
176
     1
 40
1.0
176
     1
 90
        8
176
     1
 62
     7
176
     1
 40
1.0
176
     1
 90
        1
176
     1
 90
        6
176
     1
 90
        2
176
     1
 62
     7
176
     1
 90
        5
176
     1
 90
        0
176
     1
 90
        0
176
     1
290
     0
176
     1
 90
        1
176
     1
 40
0.0
176
     1
 90
        0
176
     1
290
     0
176
     1
290
     1
176
     1
290
     1
176
     1
290
     0
176
     1
290
     0
176
     1
290
     0
176
     1
290
     0
176
     1
290
     0
176
     1
290
     0
176
     1
 90
       50
176
     1
 40
0.0
176
     1
 40
1.0
176
     1
 90
        0
176
     1
 62
    18
420
        0
176
     1
 90
       50
176
     1
 90
        3
176
     1
 62
     5
420
      255
176
     1
290
     0
176
     1
 90
       50
176
     1
 90
       50
176
     1
 90
       50
176
     1
290
     0
176
     1
 90
       50
176
     1
 62
   256
176
     0
 40
1.0
176
     0
 90
        2
176
     1
  1
strokes_ogs.tif
176
     1
290
     0
176
     1
 40
1.0
176
     1
 40
1.0
176
     1
  0
VISUALSTYLE
  5
8E
102
{ACAD_REACTORS
330
82
102
}
330
82
100
AcDbVisualStyle
  2
Brighten
 70
    12
177
     3
291
     1
 70
    58
 90
        2
176
     1
 90
        2
176
     1
 90
        1
176
     1
 90
        0
176
     1
 40
0.6
176
     1
 40
30.0
176
     1
 62
     7
420
 16777215
176
     1
 90
        1
176
     1
 90
        4
176
     1
 62
     7
176
     1
 62
   257
176
     1
 90
        1
176
     1
 90
        1
176
     1
 40
1.0
176
     1
 90
        8
176
     1
 62
     7
176
     1
 40
1.0
176
     1
 90
        1
176
     1
 90
        6
176
     1
 90
        2
176
     1
 62
     7
176
     1
 90
        5
176
     1
 90
        0
176
     1
 90
        0
176
     1
290
     0
176
     1
 90
        1
176
     1
 40
50.0
176
     1
 90
        0
176
     1
290
     0
176
     1
290
     1
176
     1
290
     1
176
     1
290
     0
176
     1
290
     0
176
     1
290
     0
176
     1
290
     0
176
     1
290
     0
176
     1
290
     0
176
     1
 90
       50
176
     1
 40
0.0
176
     1
 40
1.0
176
     1
 90
        0
176
     1
 62
    18
420
        0
176
     1
 90
       50
176
     1
 90
        3
176
     1
 62
     5
420
      255
176
     1
290
     0
176
     1
 90
       50
176
     1
 90
       50
176
     1
 90
       50
176
     1
290
     0
176
     1
 90
       50
176
     1
 62
   256
176
     0
 40
1.0
176
     0
 90
        2
176
     1
  1
strokes_ogs.tif
176
     1
290
     0
176
     1
 40
1.0
176
     1
 40
1.0
176
     1
  0
VISUALSTYLE
  5
92
102
{ACAD_REACTORS
330
82
102
}
330
82
100
AcDbVisualStyle
  2
ColorChange
 70
    16
177
     3
291
     1
 70
    58
 90
        2
176
     1
 90
        2
176
     1
 90
        3
176
     1
 90
        0
176
     1
 40
0.6
176
     1
 40
30.0
176
     1
 62
     8
420
  8421504
176
     1
 90
        1
176
     1
 90
        4
176
     1
 62
     7
176
     1
 62
   257
176
     1
 90
        1
176
     1
 90
        1
176
     1
 40
1.0
176
     1
 90
        8
176
     1
 62
     8
420
  8421504
176
     1
 40
1.0
176
     1
 90
        1
176
     1
 90
        6
176
     1
 90
        2
176
     1
 62
     7
176
     1
 90
        5
176
     1
 90
        0
176
     1
 90
        0
176
     1
290
     0
176
     1
 90
        1
176
     1
 40
0.0
176
     1
 90
        0
176
     1
290
     0
176
     1
290
     1
176
     1
290
     1
176
     1
290
     0
176
     1
290
     0
176
     1
290
     0
176
     1
290
     0
176
     1
290
     0
176
     1
290
     0
176
     1
 90
       50
176
     1
 40
0.0
176
     1
 40
1.0
176
     1
 90
        0
176
     1
 62
    18
420
        0
176
     1
 90
       50
176
     1
 90
        3
176
     1
 62
     5
420
      255
176
     1
290
     0
176
     1
 90
       50
176
     1
 90
       50
176
     1
 90
       50
176
     1
290
     0
176
     1
 90
       50
176
     1
 62
   256
176
     0
 40
1.0
176
     0
 90
        2
176
     1
  1
strokes_ogs.tif
176
     1
290
     0
176
     1
 40
1.0
176
     1
 40
1.0
176
     1
  0
VISUALSTYLE
  5
8B
102
{ACAD_REACTORS
330
82
102
}
330
82
100
AcDbVisualStyle
  2
Conceptual
 70
     9
177
     3
291
     0
 70
    58
 90
        3
176
     1
 90
        2
176
     1
 90
        1
176
     1
 90
        0
176
     1
 40
0.6
176
     1
 40
30.0
176
     1
 62
     7
420
 16777215
176
     1
 90
        2
176
     1
 90
        2
176
     1
 62
     7
176
     1
 62
   257
176
     1
 90
        1
176
     1
 90
        1
176
     1
 40
40.0
176
     1
 90
        8
176
     1
 62
     7
176
     1
 40
1.0
176
     1
 90
        1
176
     1
 90
        6
176
     1
 90
        2
176
     1
 62
     7
176
     1
 90
        5
176
     1
 90
        0
176
     1
 90
        0
176
     1
290
     0
176
     1
 90
        1
176
     1
 40
0.0
176
     1
 90
        0
176
     1
290
     0
176
     1
290
     1
176
     1
290
     1
176
     1
290
     0
176
     1
290
     0
176
     1
290
     0
176
     1
290
     0
176
     1
290
     0
176
     1
290
     0
176
     1
 90
       50
176
     1
 40
0.0
176
     1
 40
1.0
176
     1
 90
        0
176
     1
 62
    18
420
        0
176
     1
 90
       50
176
     1
 90
        3
176
     1
 62
     5
420
      255
176
     1
290
     0
176
     1
 90
       50
176
     1
 90
       50
176
     1
 90
       50
176
     1
290
     0
176
     1
 90
       50
176
     1
 62
   256
176
     0
 40
1.0
176
     0
 90
        2
176
     1
  1
strokes_ogs.tif
176
     1
290
     0
176
     1
 40
1.0
176
     1
 40
1.0
176
     1
  0
VISUALSTYLE
  5
8D
102
{ACAD_REACTORS
330
82
102
}
330
82
100
AcDbVisualStyle
  2
Dim
 70
    11
177
     3
291
     1
 70
    58
 90
        2
176
     1
 90
        2
176
     1
 90
        1
176
     1
 90
        0
176
     1
 40
0.6
176
     1
 40
30.0
176
     1
 62
     7
420
 16777215
176
     1
 90
        1
176
     1
 90
        4
176
     1
 62
     7
176
     1
 62
   257
176
     1
 90
        1
176
     1
 90
        1
176
     1
 40
1.0
176
     1
 90
        8
176
     1
 62
     7
176
     1
 40
1.0
176
     1
 90
        1
176
     1
 90
        6
176
     1
 90
        2
176
     1
 62
     7
176
     1
 90
        5
176
     1
 90
        0
176
     1
 90
        0
176
     1
290
     0
176
     1
 90
        1
176
     1
 40
-50.0
176
     1
 90
        0
176
     1
290
     0
176
     1
290
     1
176
     1
290
     1
176
     1
290
     0
176
     1
290
     0
176
     1
290
     0
176
     1
290
     0
176
     1
290
     0
176
     1
290
     0
176
     1
 90
       50
176
     1
 40
0.0
176
     1
 40
1.0
176
     1
 90
        0
176
     1
 62
    18
420
        0
176
     1
 90
       50
176
     1
 90
        3
176
     1
 62
     5
420
      255
176
     1
290
     0
176
     1
 90
       50
176
     1
 90
       50
176
     1
 90
       50
176
     1
290
     0
176
     1
 90
       50
176
     1
 62
   256
176
     0
 40
1.0
176
     0
 90
        2
176
     1
  1
strokes_ogs.tif
176
     1
290
     0
176
     1
 40
1.0
176
     1
 40
1.0
176
     1
  0
VISUALSTYLE
  5
AE
102
{ACAD_REACTORS
330
82
102
}
330
82
100
AcDbVisualStyle
  2
EdgeColorOff
 70
    22
177
     3
291
     1
 70
    58
 90
        2
176
     0
 90
        2
176
     0
 90
        0
176
     0
 90
        0
176
     0
 40
0.6
176
     0
 40
30.0
176
     0
 62
     7
420
 16777215
176
     0
 90
        1
176
     0
 90
        4
176
     0
 62
     7
176
     0
 62
   257
176
     0
 90
        1
176
     0
 90
        1
176
     0
 40
1.0
176
     0
 90
        8
176
     2
 62
     7
176
     0
 40
1.0
176
     0
 90
        1
176
     0
 90
        6
176
     0
 90
        2
176
     0
 62
     7
176
     0
 90
        5
176
     0
 90
        0
176
     0
 90
        0
176
     0
290
     0
176
     0
 90
        1
176
     0
 40
0.0
176
     0
 90
        0
176
     0
290
     0
176
     0
290
     1
176
     0
290
     1
176
     0
290
     0
176
     0
290
     0
176
     0
290
     0
176
     0
290
     0
176
     0
290
     0
176
     0
290
     0
176
     0
 90
       50
176
     0
 40
0.0
176
     0
 40
1.0
176
     0
 90
        0
176
     0
 62
    18
420
        0
176
     0
 90
       50
176
     0
 90
        3
176
     0
 62
     5
420
      255
176
     0
290
     0
176
     0
 90
       50
176
     0
 90
       50
176
     0
 90
       50
176
     0
290
     0
176
     0
 90
       50
176
     0
 62
   256
176
     0
 40
1.0
176
     0
 90
        2
176
     0
  1
strokes_ogs.tif
176
     0
290
     0
176
     0
 40
1.0
176
     0
 40
1.0
176
     0
  0
VISUALSTYLE
  5
91
102
{ACAD_REACTORS
330
82
102
}
330
82
100
AcDbVisualStyle
  2
Facepattern
 70
    15
177
     3
291
     1
 70
    58
 90
        2
176
     1
 90
        2
176
     1
 90
        1
176
     1
 90
        0
176
     1
 40
0.6
176
     1
 40
30.0
176
     1
 62
     7
420
 16777215
176
     1
 90
        1
176
     1
 90
        4
176
     1
 62
     7
176
     1
 62
   257
176
     1
 90
        1
176
     1
 90
        1
176
     1
 40
1.0
176
     1
 90
        8
176
     1
 62
     7
176
     1
 40
1.0
176
     1
 90
        1
176
     1
 90
        6
176
     1
 90
        2
176
     1
 62
     7
176
     1
 90
        5
176
     1
 90
        0
176
     1
 90
        0
176
     1
290
     0
176
     1
 90
        1
176
     1
 40
0.0
176
     1
 90
        0
176
     1
290
     0
176
     1
290
     1
176
     1
290
     1
176
     1
290
     0
176
     1
290
     0
176
     1
290
     0
176
     1
290
     0
176
     1
290
     0
176
     1
290
     0
176
     1
 90
       50
176
     1
 40
0.0
176
     1
 40
1.0
176
     1
 90
        0
176
     1
 62
    18
420
        0
176
     1
 90
       50
176
     1
 90
        3
176
     1
 62
     5
420
      255
176
     1
290
     0
176
     1
 90
       50
176
     1
 90
       50
176
     1
 90
       50
176
     1
290
     0
176
     1
 90
       50
176
     1
 62
   256
176
     0
 40
1.0
176
     0
 90
        2
176
     1
  1
strokes_ogs.tif
176
     1
290
     0
176
     1
 40
1.0
176
     1
 40
1.0
176
     1
  0
VISUALSTYLE
  5
83
102
{ACAD_REACTORS
330
82
102
}
330
82
100
AcDbVisualStyle
  2
Flat
 70
     0
177
     3
291
     1
 70
    58
 90
        2
176
     1
 90
        1
176
     1
 90
        1
176
     1
 90
        2
176
     1
 40
0.6
176
     1
 40
30.0
176
     1
 62
     7
420
 16777215
176
     1
 90
        0
176
     1
 90
        4
176
     1
 62
     7
176
     1
 62
   257
176
     1
 90
        1
176
     1
 90
        1
176
     1
 40
1.0
176
     1
 90
        8
176
     1
 62
     7
176
     1
 40
1.0
176
     1
 90
        1
176
     1
 90
        6
176
     1
 90
        2
176
     1
 62
     7
176
     1
 90
        5
176
     1
 90
        0
176
     1
 90
        0
176
     1
290
     0
176
     1
 90
        1
176
     1
 40
0.0
176
     1
 90
        0
176
     1
290
     0
176
     1
290
     1
176
     1
290
     1
176
     1
290
     0
176
     1
290
     0
176
     1
290
     0
176
     1
290
     0
176
     1
290
     0
176
     1
290
     0
176
     1
 90
       50
176
     1
 40
0.0
176
     1
 40
1.0
176
     1
 90
        0
176
     1
 62
    18
420
        0
176
     1
 90
       50
176
     1
 90
        3
176
     1
 62
     5
420
      255
176
     1
290
     0
176
     1
 90
       50
176
     1
 90
       50
176
     1
 90
       50
176
     1
290
     0
176
     1
 90
       50
176
     1
 62
   256
176
     0
 40
1.0
176
     0
 90
        2
176
     1
  1
strokes_ogs.tif
176
     1
290
     0
176
     1
 40
1.0
176
     1
 40
1.0
176
     1
  0
VISUALSTYLE
  5
84
102
{ACAD_REACTORS
330
82
102
}
330
82
100
AcDbVisualStyle
  2
FlatWithEdges
 70
     1
177
     3
291
     1
 70
    58
 90
        2
176
     1
 90
        1
176
     1
 90
        1
176
     1
 90
        2
176
     1
 40
0.6
176
     1
 40
30.0
176
     1
 62
     7
420
 16777215
176
     1
 90
        1
176
     1
 90
        4
176
     1
 62
     7
176
     1
 62
   257
176
     1
 90
        1
176
     1
 90
        1
176
     1
 40
1.0
176
     1
 90
        0
176
     1
 62
   257
176
     1
 40
1.0
176
     1
 90
        1
176
     1
 90
        6
176
     1
 90
        2
176
     1
 62
     7
176
     1
 90
        5
176
     1
 90
        0
176
     1
 90
        0
176
     1
290
     0
176
     1
 90
        1
176
     1
 40
0.0
176
     1
 90
        0
176
     1
290
     0
176
     1
290
     1
176
     1
290
     1
176
     1
290
     0
176
     1
290
     0
176
     1
290
     0
176
     1
290
     0
176
     1
290
     0
176
     1
290
     0
176
     1
 90
       50
176
     1
 40
0.0
176
     1
 40
1.0
176
     1
 90
        0
176
     1
 62
    18
420
        0
176
     1
 90
       50
176
     1
 90
        3
176
     1
 62
     5
420
      255
176
     1
290
     0
176
     1
 90
       50
176
     1
 90
       50
176
     1
 90
       50
176
     1
290
     0
176
     1
 90
       50
176
     1
 62
   256
176
     0
 40
1.0
176
     0
 90
        2
176
     1
  1
strokes_ogs.tif
176
     1
290
     0
176
     1
 40
1.0
176
     1
 40
1.0
176
     1
  0
VISUALSTYLE
  5
85
102
{ACAD_REACTORS
330
82
102
}
330
82
100
AcDbVisualStyle
  2
Gouraud
 70
     2
177
     3
291
     1
 70
    58
 90
        2
176
     1
 90
        2
176
     1
 90
        1
176
     1
 90
        2
176
     1
 40
0.6
176
     1
 40
30.0
176
     1
 62
     7
420
 16777215
176
     1
 90
        0
176
     1
 90
        4
176
     1
 62
     7
176
     1
 62
   257
176
     1
 90
        1
176
     1
 90
        1
176
     1
 40
1.0
176
     1
 90
        0
176
     1
 62
     7
176
     1
 40
1.0
176
     1
 90
        1
176
     1
 90
        6
176
     1
 90
        2
176
     1
 62
     7
176
     1
 90
        5
176
     1
 90
        0
176
     1
 90
        0
176
     1
290
     0
176
     1
 90
        1
176
     1
 40
0.0
176
     1
 90
        0
176
     1
290
     0
176
     1
290
     1
176
     1
290
     1
176
     1
290
     0
176
     1
290
     0
176
     1
290
     0
176
     1
290
     0
176
     1
290
     0
176
     1
290
     0
176
     1
 90
       50
176
     1
 40
0.0
176
     1
 40
1.0
176
     1
 90
        0
176
     1
 62
    18
420
        0
176
     1
 90
       50
176
     1
 90
        3
176
     1
 62
     5
420
      255
176
     1
290
     0
176
     1
 90
       50
176
     1
 90
       50
176
     1
 90
       50
176
     1
290
     0
176
     1
 90
       50
176
     1
 62
   256
176
     0
 40
1.0
176
     0
 90
        2
176
     1
  1
strokes_ogs.tif
176
     1
290
     0
176
     1
 40
1.0
176
     1
 40
1.0
176
     1
  0
VISUALSTYLE
  5
86
102
{ACAD_REACTORS
330
82
102
}
330
82
100
AcDbVisualStyle
  2
GouraudWithEdges
 70
     3
177
     3
291
     1
 70
    58
 90
        2
176
     1
 90
        2
176
     1
 90
        1
176
     1
 90
        2
176
     1
 40
0.6
176
     1
 40
30.0
176
     1
 62
     7
420
 16777215
176
     1
 90
        1
176
     1
 90
        4
176
     1
 62
     7
176
     1
 62
   257
176
     1
 90
        1
176
     1
 90
        1
176
     1
 40
1.0
176
     1
 90
        0
176
     1
 62
   257
176
     1
 40
1.0
176
     1
 90
        1
176
     1
 90
        6
176
     1
 90
        2
176
     1
 62
     7
176
     1
 90
        5
176
     1
 90
        0
176
     1
 90
        0
176
     1
290
     0
176
     1
 90
        1
176
     1
 40
0.0
176
     1
 90
        0
176
     1
290
     0
176
     1
290
     1
176
     1
290
     1
176
     1
290
     0
176
     1
290
     0
176
     1
290
     0
176
     1
290
     0
176
     1
290
     0
176
     1
290
     0
176
     1
 90
       50
176
     1
 40
0.0
176
     1
 40
1.0
176
     1
 90
        0
176
     1
 62
    18
420
        0
176
     1
 90
       50
176
     1
 90
        3
176
     1
 62
     5
420
      255
176
     1
290
     0
176
     1
 90
       50
176
     1
 90
       50
176
     1
 90
       50
176
     1
290
     0
176
     1
 90
       50
176
     1
 62
   256
176
     0
 40
1.0
176
     0
 90
        2
176
     1
  1
strokes_ogs.tif
176
     1
290
     0
176
     1
 40
1.0
176
     1
 40
1.0
176
     1
  0
VISUALSTYLE
  5
A6
102
{ACAD_REACTORS
330
82
102
}
330
82
100
AcDbVisualStyle
  2
Hidden
 70
     6
177
     3
291
     0
 70
    58
 90
        1
176
     1
 90
        2
176
     1
 90
        2
176
     1
 90
        0
176
     1
 40
0.6
176
     1
 40
30.0
176
     1
 62
     7
420
 16777215
176
     1
 90
        2
176
     1
 90
        2
176
     1
 62
     7
176
     1
 62
   257
176
     1
 90
        2
176
     1
 90
        1
176
     1
 40
40.0
176
     1
 90
        0
176
     1
 62
   257
176
     1
 40
1.0
176
     1
 90
        1
176
     1
 90
        6
176
     1
 90
        2
176
     1
 62
     7
176
     1
 90
        3
176
     1
 90
        0
176
     1
 90
        0
176
     1
290
     0
176
     1
 90
        1
176
     1
 40
0.0
176
     1
 90
        0
176
     1
290
     0
176
     1
290
     1
176
     1
290
     1
176
     1
290
     0
176
     1
290
     0
176
     1
290
     0
176
     1
290
     0
176
     1
290
     0
176
     1
290
     0
176
     1
 90
       50
176
     1
 40
0.0
176
     1
 40
1.0
176
     1
 90
        0
176
     1
 62
    18
420
        0
176
     1
 90
       50
176
     1
 90
        3
176
     1
 62
     5
420
      255
176
     1
290
     0
176
     1
 90
       50
176
     1
 90
       50
176
     1
 90
       50
176
     1
290
     0
176
     1
 90
       50
176
     1
 62
   256
176
     0
 40
1.0
176
     0
 90
        2
176
     1
  1
strokes_ogs.tif
176
     1
290
     0
176
     1
 40
1.0
176
     1
 40
1.0
176
     1
  0
VISUALSTYLE
  5
AC
102
{ACAD_REACTORS
330
82
102
}
330
82
100
AcDbVisualStyle
  2
JitterOff
 70
    20
177
     3
291
     1
 70
    58
 90
        2
176
     0
 90
        2
176
     0
 90
        0
176
     0
 90
        0
176
     0
 40
0.6
176
     0
 40
30.0
176
     0
 62
     7
420
 16777215
176
     0
 90
        1
176
     0
 90
        4
176
     0
 62
     7
176
     0
 62
   257
176
     0
 90
        1
176
     0
 90
        1
176
     0
 40
1.0
176
     0
 90
       10
176
     2
 62
     7
176
     0
 40
1.0
176
     0
 90
        1
176
     0
 90
        6
176
     0
 90
        2
176
     0
 62
     7
176
     0
 90
        5
176
     0
 90
        0
176
     0
 90
        0
176
     0
290
     0
176
     0
 90
        1
176
     0
 40
0.0
176
     0
 90
        0
176
     0
290
     0
176
     0
290
     1
176
     0
290
     1
176
     0
290
     0
176
     0
290
     0
176
     0
290
     0
176
     0
290
     0
176
     0
290
     0
176
     0
290
     0
176
     0
 90
       50
176
     0
 40
0.0
176
     0
 40
1.0
176
     0
 90
        0
176
     0
 62
    18
420
        0
176
     0
 90
       50
176
     0
 90
        3
176
     0
 62
     5
420
      255
176
     0
290
     0
176
     0
 90
       50
176
     0
 90
       50
176
     0
 90
       50
176
     0
290
     0
176
     0
 90
       50
176
     0
 62
   256
176
     0
 40
1.0
176
     0
 90
        2
176
     0
  1
strokes_ogs.tif
176
     0
290
     0
176
     0
 40
1.0
176
     0
 40
1.0
176
     0
  0
VISUALSTYLE
  5
90
102
{ACAD_REACTORS
330
82
102
}
330
82
100
AcDbVisualStyle
  2
Linepattern
 70
    14
177
     3
291
     1
 70
    58
 90
        2
176
     1
 90
        2
176
     1
 90
        1
176
     1
 90
        0
176
     1
 40
0.6
176
     1
 40
30.0
176
     1
 62
     7
420
 16777215
176
     1
 90
        1
176
     1
 90
        4
176
     1
 62
     7
176
     1
 62
   257
176
     1
 90
        7
176
     1
 90
        7
176
     1
 40
1.0
176
     1
 90
        8
176
     1
 62
     7
176
     1
 40
1.0
176
     1
 90
        1
176
     1
 90
        6
176
     1
 90
        2
176
     1
 62
     7
176
     1
 90
        5
176
     1
 90
        0
176
     1
 90
        0
176
     1
290
     0
176
     1
 90
        1
176
     1
 40
0.0
176
     1
 90
        0
176
     1
290
     0
176
     1
290
     1
176
     1
290
     1
176
     1
290
     0
176
     1
290
     0
176
     1
290
     0
176
     1
290
     0
176
     1
290
     0
176
     1
290
     0
176
     1
 90
       50
176
     1
 40
0.0
176
     1
 40
1.0
176
     1
 90
        0
176
     1
 62
    18
420
        0
176
     1
 90
       50
176
     1
 90
        3
176
     1
 62
     5
420
      255
176
     1
290
     0
176
     1
 90
       50
176
     1
 90
       50
176
     1
 90
       50
176
     1
290
     0
176
     1
 90
       50
176
     1
 62
   256
176
     0
 40
1.0
176
     0
 90
        2
176
     1
  1
strokes_ogs.tif
176
     1
290
     0
176
     1
 40
1.0
176
     1
 40
1.0
176
     1
  0
VISUALSTYLE
  5
AD
102
{ACAD_REACTORS
330
82
102
}
330
82
100
AcDbVisualStyle
  2
OverhangOff
 70
    21
177
     3
291
     1
 70
    58
 90
        2
176
     0
 90
        2
176
     0
 90
        0
176
     0
 90
        0
176
     0
 40
0.6
176
     0
 40
30.0
176
     0
 62
     7
420
 16777215
176
     0
 90
        1
176
     0
 90
        4
176
     0
 62
     7
176
     0
 62
   257
176
     0
 90
        1
176
     0
 90
        1
176
     0
 40
1.0
176
     0
 90
        9
176
     2
 62
     7
176
     0
 40
1.0
176
     0
 90
        1
176
     0
 90
        6
176
     0
 90
        2
176
     0
 62
     7
176
     0
 90
        5
176
     0
 90
        0
176
     0
 90
        0
176
     0
290
     0
176
     0
 90
        1
176
     0
 40
0.0
176
     0
 90
        0
176
     0
290
     0
176
     0
290
     1
176
     0
290
     1
176
     0
290
     0
176
     0
290
     0
176
     0
290
     0
176
     0
290
     0
176
     0
290
     0
176
     0
290
     0
176
     0
 90
       50
176
     0
 40
0.0
176
     0
 40
1.0
176
     0
 90
        0
176
     0
 62
    18
420
        0
176
     0
 90
       50
176
     0
 90
        3
176
     0
 62
     5
420
      255
176
     0
290
     0
176
     0
 90
       50
176
     0
 90
       50
176
     0
 90
       50
176
     0
290
     0
176
     0
 90
       50
176
     0
 62
   256
176
     0
 40
1.0
176
     0
 90
        2
176
     0
  1
strokes_ogs.tif
176
     0
290
     0
176
     0
 40
1.0
176
     0
 40
1.0
176
     0
  0
VISUALSTYLE
  5
8C
102
{ACAD_REACTORS
330
82
102
}
330
82
100
AcDbVisualStyle
  2
Realistic
 70
     8
177
     3
291
     0
 70
    58
 90
        2
176
     1
 90
        2
176
     1
 90
        1
176
     1
 90
        0
176
     1
 40
0.6
176
     1
 40
30.0
176
     1
 62
     7
420
 16777215
176
     1
 90
        1
176
     1
 90
        0
176
     1
 62
     7
176
     1
 62
   257
176
     1
 90
        1
176
     1
 90
        1
176
     1
 40
1.0
176
     1
 90
        8
176
     1
 62
     7
176
     1
 40
1.0
176
     1
 90
        1
176
     1
 90
        6
176
     1
 90
        2
176
     1
 62
     7
176
     1
 90
        5
176
     1
 90
        0
176
     1
 90
        0
176
     1
290
     0
176
     1
 90
       13
176
     1
 40
0.0
176
     1
 90
        0
176
     1
290
     0
176
     1
290
     1
176
     1
290
     1
176
     1
290
     0
176
     1
290
     0
176
     1
290
     0
176
     1
290
     0
176
     1
290
     0
176
     1
290
     0
176
     1
 90
       50
176
     1
 40
0.0
176
     1
 40
1.0
176
     1
 90
        0
176
     1
 62
    18
420
        0
176
     1
 90
       50
176
     1
 90
        3
176
     1
 62
     5
420
      255
176
     1
290
     0
176
     1
 90
       50
176
     1
 90
       50
176
     1
 90
       50
176
     1
290
     0
176
     1
 90
       50
176
     1
 62
   256
176
     0
 40
1.0
176
     0
 90
        2
176
     1
  1
strokes_ogs.tif
176
     1
290
     0
176
     1
 40
1.0
176
     1
 40
1.0
176
     1
  0
VISUALSTYLE
  5
AB
102
{ACAD_REACTORS
330
82
102
}
330
82
100
AcDbVisualStyle
  2
Shaded
 70
    27
177
     3
291
     0
 70
    58
 90
        2
176
     1
 90
        2
176
     1
 90
        1
176
     1
 90
        2
176
     1
 40
0.6
176
     1
 40
30.0
176
     1
 62
     7
420
 16777215
176
     1
 90
        0
176
     1
 90
        4
176
     1
 62
     7
176
     1
 62
   257
176
     1
 90
        1
176
     1
 90
        1
176
     1
 40
1.0
176
     1
 90
        8
176
     1
 62
   257
176
     1
 40
1.0
176
     1
 90
        1
176
     1
 90
        6
176
     1
 90
        2
176
     1
 62
     8
420
  7895160
176
     1
 90
        3
176
     1
 90
        0
176
     1
 90
        0
176
     1
290
     0
176
     1
 90
        5
176
     1
 40
0.0
176
     1
 90
        0
176
     1
290
     0
176
     1
290
     1
176
     1
290
     1
176
     1
290
     0
176
     1
290
     0
176
     1
290
     0
176
     1
290
     0
176
     1
290
     0
176
     1
290
     0
176
     1
 90
       50
176
     1
 40
0.0
176
     1
 40
1.0
176
     1
 90
        0
176
     1
 62
    18
420
        0
176
     1
 90
       50
176
     1
 90
        3
176
     1
 62
     5
420
      255
176
     1
290
     0
176
     1
 90
       50
176
     1
 90
       50
176
     1
 90
       50
176
     1
290
     0
176
     1
 90
       50
176
     1
 62
   256
176
     0
 40
1.0
176
     0
 90
        2
176
     1
  1
strokes_ogs.tif
176
     1
290
     0
176
     1
 40
1.0
176
     1
 40
1.0
176
     1
  0
VISUALSTYLE
  5
AA
102
{ACAD_REACTORS
330
82
102
}
330
82
100
AcDbVisualStyle
  2
Shaded with edges
 70
    26
177
     3
291
     0
 70
    58
 90
        2
176
     1
 90
        2
176
     1
 90
        1
176
     1
 90
        2
176
     1
 40
0.6
176
     1
 40
30.0
176
     1
 62
     7
420
 16777215
176
     1
 90
        1
176
     1
 90
        2
176
     1
 62
     7
176
     1
 62
   257
176
     1
 90
        2
176
     1
 90
        1
176
     1
 40
1.0
176
     1
 90
        8
176
     1
 62
   257
176
     1
 40
1.0
176
     1
 90
        1
176
     1
 90
        6
176
     1
 90
        2
176
     1
 62
     7
176
     1
 90
        3
176
     1
 90
        0
176
     1
 90
        0
176
     1
290
     0
176
     1
 90
        5
176
     1
 40
0.0
176
     1
 90
        0
176
     1
290
     0
176
     1
290
     1
176
     1
290
     1
176
     1
290
     0
176
     1
290
     0
176
     1
290
     0
176
     1
290
     0
176
     1
290
     0
176
     1
290
     0
176
     1
 90
       50
176
     1
 40
0.0
176
     1
 40
1.0
176
     1
 90
        0
176
     1
 62
    18
420
        0
176
     1
 90
       50
176
     1
 90
        3
176
     1
 62
     5
420
      255
176
     1
290
     0
176
     1
 90
       50
176
     1
 90
       50
176
     1
 90
       50
176
     1
290
     0
176
     1
 90
       50
176
     1
 62
   256
176
     0
 40
1.0
176
     0
 90
        2
176
     1
  1
strokes_ogs.tif
176
     1
290
     0
176
     1
 40
1.0
176
     1
 40
1.0
176
     1
  0
VISUALSTYLE
  5
A7
102
{ACAD_REACTORS
330
82
102
}
330
82
100
AcDbVisualStyle
  2
Shades of Gray
 70
    23
177
     3
291
     0
 70
    58
 90
        2
176
     1
 90
        2
176
     1
 90
        3
176
     1
 90
        0
176
     1
 40
0.6
176
     1
 40
30.0
176
     1
 62
     7
420
 16777215
176
     1
 90
        2
176
     1
 90
        2
176
     1
 62
     7
176
     1
 62
     7
176
     1
 90
        1
176
     1
 90
        1
176
     1
 40
40.0
176
     1
 90
        8
176
     1
 62
     7
176
     1
 40
1.0
176
     1
 90
        1
176
     1
 90
        6
176
     1
 90
        2
176
     1
 62
     7
176
     1
 90
        3
176
     1
 90
        0
176
     1
 90
        0
176
     1
290
     0
176
     1
 90
        1
176
     1
 40
0.0
176
     1
 90
        0
176
     1
290
     0
176
     1
290
     1
176
     1
290
     1
176
     1
290
     0
176
     1
290
     0
176
     1
290
     0
176
     1
290
     0
176
     1
290
     0
176
     1
290
     0
176
     1
 90
       50
176
     1
 40
0.0
176
     1
 40
1.0
176
     1
 90
        0
176
     1
 62
    18
420
        0
176
     1
 90
       50
176
     1
 90
        3
176
     1
 62
     5
420
      255
176
     1
290
     0
176
     1
 90
       50
176
     1
 90
       50
176
     1
 90
       50
176
     1
290
     0
176
     1
 90
       50
176
     1
 62
   256
176
     0
 40
1.0
176
     0
 90
        2
176
     1
  1
strokes_ogs.tif
176
     1
290
     0
176
     1
 40
1.0
176
     1
 40
1.0
176
     1
  0
VISUALSTYLE
  5
A8
102
{ACAD_REACTORS
330
82
102
}
330
82
100
AcDbVisualStyle
  2
Sketchy
 70
    24
177
     3
291
     0
 70
    58
 90
        1
176
     1
 90
        2
176
     1
 90
        2
176
     1
 90
        0
176
     1
 40
0.6
176
     1
 40
30.0
176
     1
 62
     7
420
 16777215
176
     1
 90
        2
176
     1
 90
        2
176
     1
 62
     7
176
     1
 62
     7
176
     1
 90
        1
176
     1
 90
        1
176
     1
 40
40.0
176
     1
 90
       11
176
     1
 62
     7
176
     1
 40
1.0
176
     1
 90
        1
176
     1
 90
        6
176
     1
 90
        2
176
     1
 62
     7
176
     1
 90
        6
176
     1
 90
        0
176
     1
 90
        0
176
     1
290
     0
176
     1
 90
        1
176
     1
 40
0.0
176
     1
 90
        0
176
     1
290
     0
176
     1
290
     1
176
     1
290
     1
176
     1
290
     0
176
     1
290
     0
176
     1
290
     0
176
     1
290
     0
176
     1
290
     0
176
     1
290
     0
176
     1
 90
       50
176
     1
 40
0.0
176
     1
 40
1.0
176
     1
 90
        0
176
     1
 62
    18
420
        0
176
     1
 90
       50
176
     1
 90
        3
176
     1
 62
     5
420
      255
176
     1
290
     0
176
     1
 90
       50
176
     1
 90
       50
176
     1
 90
       50
176
     1
290
     0
176
     1
 90
       50
176
     1
 62
   256
176
     0
 40
1.0
176
     0
 90
        2
176
     1
  1
strokes_ogs.tif
176
     1
290
     0
176
     1
 40
1.0
176
     1
 40
1.0
176
     1
  0
VISUALSTYLE
  5
8F
102
{ACAD_REACTORS
330
82
102
}
330
82
100
AcDbVisualStyle
  2
Thicken
 70
    13
177
     3
291
     1
 70
    58
 90
        2
176
     1
 90
        2
176
     1
 90
        1
176
     1
 90
        0
176
     1
 40
0.6
176
     1
 40
30.0
176
     1
 62
     7
420
 16777215
176
     1
 90
        1
176
     1
 90
        4
176
     1
 62
     7
176
     1
 62
   257
176
     1
 90
        1
176
     1
 90
        1
176
     1
 40
1.0
176
     1
 90
       12
176
     1
 62
     7
176
     1
 40
1.0
176
     1
 90
        1
176
     1
 90
        6
176
     1
 90
        2
176
     1
 62
     7
176
     1
 90
        5
176
     1
 90
        0
176
     1
 90
        0
176
     1
290
     0
176
     1
 90
        1
176
     1
 40
0.0
176
     1
 90
        0
176
     1
290
     0
176
     1
290
     1
176
     1
290
     1
176
     1
290
     0
176
     1
290
     0
176
     1
290
     0
176
     1
290
     0
176
     1
290
     0
176
     1
290
     0
176
     1
 90
       50
176
     1
 40
0.0
176
     1
 40
1.0
176
     1
 90
        0
176
     1
 62
    18
420
        0
176
     1
 90
       50
176
     1
 90
        3
176
     1
 62
     5
420
      255
176
     1
290
     0
176
     1
 90
       50
176
     1
 90
       50
176
     1
 90
       50
176
     1
290
     0
176
     1
 90
       50
176
     1
 62
   256
176
     0
 40
1.0
176
     0
 90
        2
176
     1
  1
strokes_ogs.tif
176
     1
290
     0
176
     1
 40
1.0
176
     1
 40
1.0
176
     1
  0
VISUALSTYLE
  5
A5
102
{ACAD_REACTORS
330
82
102
}
330
82
100
AcDbVisualStyle
  2
Wireframe
 70
     5
177
     3
291
     0
 70
    58
 90
        0
176
     1
 90
        2
176
     1
 90
        0
176
     1
 90
        0
176
     1
 40
0.6
176
     1
 40
30.0
176
     1
 62
     7
420
 16777215
176
     1
 90
        1
176
     1
 90
        4
176
     1
 62
     7
176
     1
 62
   257
176
     1
 90
        1
176
     1
 90
        1
176
     1
 40
1.0
176
     1
 90
        0
176
     1
 62
   257
176
     1
 40
1.0
176
     1
 90
        1
176
     1
 90
        6
176
     1
 90
        2
176
     1
 62
     7
176
     1
 90
        3
176
     1
 90
        0
176
     1
 90
        0
176
     1
290
     0
176
     1
 90
        1
176
     1
 40
0.0
176
     1
 90
        0
176
     1
290
     0
176
     1
290
     1
176
     1
290
     1
176
     1
290
     0
176
     1
290
     0
176
     1
290
     0
176
     1
290
     0
176
     1
290
     0
176
     1
290
     0
176
     1
 90
       50
176
     1
 40
0.0
176
     1
 40
1.0
176
     1
 90
        0
176
     1
 62
    18
420
        0
176
     1
 90
       50
176
     1
 90
        3
176
     1
 62
     5
420
      255
176
     1
290
     0
176
     1
 90
       50
176
     1
 90
       50
176
     1
 90
       50
176
     1
290
     0
176
     1
 90
       50
176
     1
 62
   256
176
     0
 40
1.0
176
     0
 90
        2
176
     1
  1
strokes_ogs.tif
176
     1
290
     0
176
     1
 40
1.0
176
     1
 40
1.0
176
     1
  0
VISUALSTYLE
  5
A9
102
{ACAD_REACTORS
330
82
102
}
330
82
100
AcDbVisualStyle
  2
X-Ray
 70
    25
177
     3
291
     0
 70
    58
 90
        2
176
     1
 90
        2
176
     1
 90
        1
176
     1
 90
        1
176
     1
 40
0.5
176
     1
 40
30.0
176
     1
 62
     7
420
 16777215
176
     1
 90
        1
176
     1
 90
        0
176
     1
 62
     7
176
     1
 62
   257
176
     1
 90
        1
176
     1
 90
        1
176
     1
 40
1.0
176
     1
 90
        8
176
     1
 62
     7
176
     1
 40
1.0
176
     1
 90
        1
176
     1
 90
        6
176
     1
 90
        2
176
     1
 62
     7
176
     1
 90
        3
176
     1
 90
        0
176
     1
 90
        0
176
     1
290
     0
176
     1
 90
       13
176
     1
 40
0.0
176
     1
 90
        0
176
     1
290
     0
176
     1
290
     1
176
     1
290
     1
176
     1
290
     0
176
     1
290
     0
176
     1
290
     0
176
     1
290
     0
176
     1
290
     0
176
     1
290
     0
176
     1
 90
       50
176
     1
 40
0.0
176
     1
 40
1.0
176
     1
 90
        0
176
     1
 62
    18
420
        0
176
     1
 90
       50
176
     1
 90
        3
176
     1
 62
     5
420
      255
176
     1
290
     0
176
     1
 90
       50
176
     1
 90
       50
176
     1
 90
       50
176
     1
290
     0
176
     1
 90
       50
176
     1
 62
   256
176
     0
 40
1.0
176
     0
 90
        2
176
     1
  1
strokes_ogs.tif
176
     1
290
     0
176
     1
 40
1.0
176
     1
 40
1.0
176
     1
  0
DICTIONARYVAR
  5
2CA
102
{ACAD_REACTORS
330
9B
102
}
330
9B
100
DictionaryVariables
280
     0
  1
1:1
  0
DICTIONARYVAR
  5
2C6
102
{ACAD_REACTORS
330
9B
102
}
330
9B
100
DictionaryVariables
280
     0
  1
STANDARD
  0
DICTIONARYVAR
  5
9C
102
{ACAD_REACTORS
330
9B
102
}
330
9B
100
DictionaryVariables
280
     0
  1
STANDARD
  0
DICTIONARYVAR
  5
2C7
102
{ACAD_REACTORS
330
9B
102
}
330
9B
100
DictionaryVariables
280
     0
  1
Imperial24
  0
DICTIONARYVAR
  5
2C8
102
{ACAD_REACTORS
330
9B
102
}
330
9B
100
DictionaryVariables
280
     0
  1
Imperial24
  0
DICTIONARYVAR
  5
2CC
102
{ACAD_REACTORS
330
9B
102
}
330
9B
100
DictionaryVariables
280
     0
  1
1
  0
DICTIONARYVAR
  5
2CD
102
{ACAD_REACTORS
330
9B
102
}
330
9B
100
DictionaryVariables
280
     0
  1
15
  0
DICTIONARYVAR
  5
2CB
102
{ACAD_REACTORS
330
9B
102
}
330
9B
100
DictionaryVariables
280
     0
  1
0
  0
DICTIONARYVAR
  5
2C9
102
{ACAD_REACTORS
330
9B
102
}
330
9B
100
DictionaryVariables
280
     0
  1
0
  0
DICTIONARY
  5
2D2
330
C6
100
AcDbDictionary
280
     1
281
     1
  3
ACAD_XREC_ROUNDTRIP
360
2D3
  0
DICTIONARY
  5
2D0
330
C4
100
AcDbDictionary
280
     1
281
     1
  3
ACAD_XREC_ROUNDTRIP
360
2D1
  0
DICTIONARY
  5
2CE
330
94
100
AcDbDictionary
280
     1
281
     1
  3
ACAD_ROUNDTRIP_2008_TABLESTYLE_CELLSTYLEMAP
360
2CF
  0
XRECORD
  5
2D3
102
{ACAD_REACTORS
330
2D2
102
}
330
2D2
100
AcDbXrecord
280
     1
102
DISPLAYNAME
  1
Imperial24
102
FLAGS
 90
        0
  0
XRECORD
  5
2D1
102
{ACAD_REACTORS
330
2D0
102
}
330
2D0
100
AcDbXrecord
280
     1
102
DISPLAYNAME
  1
Imperial24
102
FLAGS
 90
        0
  0
CELLSTYLEMAP
  5
2CF
102
{ACAD_REACTORS
330
2CE
102
}
330
2CE
100
AcDbCellStyleMap
 90
        3
300
CELLSTYLE
  1
TABLEFORMAT_BEGIN
 90
        5
170
     1
 91
        0
 92
    32768
 62
   257
 93
        1
300
CONTENTFORMAT
  1
CONTENTFORMAT_BEGIN
 90
        0
 91
        0
 92
      512
 93
        0
300

 40
0.0
140
1.0
 94
        5
 62
     0
340
12
144
0.25
309
CONTENTFORMAT_END
171
     0
 94
        6
 95
        1
302
GRIDFORMAT
  1
GRIDFORMAT_BEGIN
 90
        0
 91
        1
 62
     0
 92
       -2
340
0
 93
        0
 40
0.045
309
GRIDFORMAT_END
 95
        2
302
GRIDFORMAT
  1
GRIDFORMAT_BEGIN
 90
        0
 91
        1
 62
     0
 92
       -2
340
0
 93
        0
 40
0.045
309
GRIDFORMAT_END
 95
        4
302
GRIDFORMAT
  1
GRIDFORMAT_BEGIN
 90
        0
 91
        1
 62
     0
 92
       -2
340
0
 93
        0
 40
0.045
309
GRIDFORMAT_END
 95
        8
302
GRIDFORMAT
  1
GRIDFORMAT_BEGIN
 90
        0
 91
        1
 62
     0
 92
       -2
340
0
 93
        0
 40
0.045
309
GRIDFORMAT_END
 95
       16
302
GRIDFORMAT
  1
GRIDFORMAT_BEGIN
 90
        0
 91
        1
 62
     0
 92
       -2
340
0
 93
        0
 40
0.045
309
GRIDFORMAT_END
 95
       32
302
GRIDFORMAT
  1
GRIDFORMAT_BEGIN
 90
        0
 91
        1
 62
     0
 92
       -2
340
0
 93
        0
 40
0.045
309
GRIDFORMAT_END
309
TABLEFORMAT_END
  1
CELLSTYLE_BEGIN
 90
        1
 91
        1
300
_TITLE
309
CELLSTYLE_END
300
CELLSTYLE
  1
TABLEFORMAT_BEGIN
 90
        5
170
     1
 91
        0
 92
        0
 62
   257
 93
        1
300
CONTENTFORMAT
  1
CONTENTFORMAT_BEGIN
 90
        0
 91
        0
 92
      512
 93
        0
300

 40
0.0
140
1.0
 94
        5
 62
     0
340
12
144
0.18
309
CONTENTFORMAT_END
171
     0
 94
        6
 95
        1
302
GRIDFORMAT
  1
GRIDFORMAT_BEGIN
 90
        0
 91
        1
 62
     0
 92
       -2
340
0
 93
        0
 40
0.045
309
GRIDFORMAT_END
 95
        2
302
GRIDFORMAT
  1
GRIDFORMAT_BEGIN
 90
        0
 91
        1
 62
     0
 92
       -2
340
0
 93
        0
 40
0.045
309
GRIDFORMAT_END
 95
        4
302
GRIDFORMAT
  1
GRIDFORMAT_BEGIN
 90
        0
 91
        1
 62
     0
 92
       -2
340
0
 93
        0
 40
0.045
309
GRIDFORMAT_END
 95
        8
302
GRIDFORMAT
  1
GRIDFORMAT_BEGIN
 90
        0
 91
        1
 62
     0
 92
       -2
340
0
 93
        0
 40
0.045
309
GRIDFORMAT_END
 95
       16
302
GRIDFORMAT
  1
GRIDFORMAT_BEGIN
 90
        0
 91
        1
 62
     0
 92
       -2
340
0
 93
        0
 40
0.045
309
GRIDFORMAT_END
 95
       32
302
GRIDFORMAT
  1
GRIDFORMAT_BEGIN
 90
        0
 91
        1
 62
     0
 92
       -2
340
0
 93
        0
 40
0.045
309
GRIDFORMAT_END
309
TABLEFORMAT_END
  1
CELLSTYLE_BEGIN
 90
        2
 91
        1
300
_HEADER
309
CELLSTYLE_END
300
CELLSTYLE
  1
TABLEFORMAT_BEGIN
 90
        5
170
     1
 91
        0
 92
        0
 62
   257
 93
        1
300
CONTENTFORMAT
  1
CONTENTFORMAT_BEGIN
 90
        0
 91
        0
 92
      512
 93
        0
300

 40
0.0
140
1.0
 94
        2
 62
     0
340
12
144
0.18
309
CONTENTFORMAT_END
171
     0
 94
        6
 95
        1
302
GRIDFORMAT
  1
GRIDFORMAT_BEGIN
 90
        0
 91
        1
 62
     0
 92
       -2
340
0
 93
        0
 40
0.045
309
GRIDFORMAT_END
 95
        2
302
GRIDFORMAT
  1
GRIDFORMAT_BEGIN
 90
        0
 91
        1
 62
     0
 92
       -2
340
0
 93
        0
 40
0.045
309
GRIDFORMAT_END
 95
        4
302
GRIDFORMAT
  1
GRIDFORMAT_BEGIN
 90
        0
 91
        1
 62
     0
 92
       -2
340
0
 93
        0
 40
0.045
309
GRIDFORMAT_END
 95
        8
302
GRIDFORMAT
  1
GRIDFORMAT_BEGIN
 90
        0
 91
        1
 62
     0
 92
       -2
340
0
 93
        0
 40
0.045
309
GRIDFORMAT_END
 95
       16
302
GRIDFORMAT
  1
GRIDFORMAT_BEGIN
 90
        0
 91
        1
 62
     0
 92
       -2
340
0
 93
        0
 40
0.045
309
GRIDFORMAT_END
 95
       32
302
GRIDFORMAT
  1
GRIDFORMAT_BEGIN
 90
        0
 91
        1
 62
     0
 92
       -2
340
0
 93
        0
 40
0.045
309
GRIDFORMAT_END
309
TABLEFORMAT_END
  1
CELLSTYLE_BEGIN
 90
        3
 91
        2
300
_DATA
309
CELLSTYLE_END
  0
ENDSEC
  0
EOF
