ISO-10303-21;
HEADER;
/* Generated by software containing ST-Developer
 * from STEP Tools, Inc. (www.steptools.com) 
 */
/* OPTION: using custom schema-name function */

FILE_DESCRIPTION(
/* description */ (''),
/* implementation_level */ '2;1');

FILE_NAME(
/* name */ 
'STEP - H31-BOTTBAR100_1705977, 1705978, 1705979, 1705980, 1705981',
/* time_stamp */ '2024-09-17T14:14:46+10:00',
/* author */ (''),
/* organization */ (''),
/* preprocessor_version */ 'ST-DEVELOPER v16.5',
/* originating_system */ 'Rhino 7.37',
/* authorisation */ '');

FILE_SCHEMA (('CONFIG_CONTROL_DESIGN'));
ENDSEC;

DATA;
#10=SHAPE_REPRESENTATION_RELATIONSHIP('','',#216,#12);
#11=MANIFOLD_SOLID_BREP('\X2\03790328\X0\--\X2\FFFDFFFD\X0\1',#13);
#12=ADVANCED_BREP_SHAPE_REPRESENTATION('brep_rep_0',(#11,#226),#215);
#13=CLOSED_SHELL('',(#14,#15,#16,#17,#18,#19,#20,#21));
#14=ADVANCED_FACE('',(#22),#129,.T.);
#15=ADVANCED_FACE('',(#23),#122,.T.);
#16=ADVANCED_FACE('',(#24),#123,.T.);
#17=ADVANCED_FACE('',(#25),#124,.T.);
#18=ADVANCED_FACE('',(#26),#125,.T.);
#19=ADVANCED_FACE('',(#27),#126,.T.);
#20=ADVANCED_FACE('',(#28),#127,.T.);
#21=ADVANCED_FACE('',(#29),#128,.T.);
#22=FACE_OUTER_BOUND('',#30,.T.);
#23=FACE_OUTER_BOUND('',#31,.T.);
#24=FACE_OUTER_BOUND('',#32,.T.);
#25=FACE_OUTER_BOUND('',#33,.T.);
#26=FACE_OUTER_BOUND('',#34,.T.);
#27=FACE_OUTER_BOUND('',#35,.T.);
#28=FACE_OUTER_BOUND('',#36,.T.);
#29=FACE_OUTER_BOUND('',#37,.T.);
#30=EDGE_LOOP('',(#38,#39,#40,#41));
#31=EDGE_LOOP('',(#42,#43,#44,#45));
#32=EDGE_LOOP('',(#46,#47,#48,#49));
#33=EDGE_LOOP('',(#50,#51,#52,#53));
#34=EDGE_LOOP('',(#54,#55,#56,#57));
#35=EDGE_LOOP('',(#58,#59,#60,#61));
#36=EDGE_LOOP('',(#62,#63,#64,#65,#66,#67));
#37=EDGE_LOOP('',(#68,#69,#70,#71,#72,#73));
#38=ORIENTED_EDGE('',*,*,#74,.T.);
#39=ORIENTED_EDGE('',*,*,#75,.T.);
#40=ORIENTED_EDGE('',*,*,#76,.T.);
#41=ORIENTED_EDGE('',*,*,#77,.T.);
#42=ORIENTED_EDGE('',*,*,#79,.F.);
#43=ORIENTED_EDGE('',*,*,#80,.F.);
#44=ORIENTED_EDGE('',*,*,#75,.F.);
#45=ORIENTED_EDGE('',*,*,#78,.F.);
#46=ORIENTED_EDGE('',*,*,#82,.F.);
#47=ORIENTED_EDGE('',*,*,#83,.F.);
#48=ORIENTED_EDGE('',*,*,#79,.T.);
#49=ORIENTED_EDGE('',*,*,#81,.F.);
#50=ORIENTED_EDGE('',*,*,#85,.F.);
#51=ORIENTED_EDGE('',*,*,#86,.F.);
#52=ORIENTED_EDGE('',*,*,#82,.T.);
#53=ORIENTED_EDGE('',*,*,#84,.F.);
#54=ORIENTED_EDGE('',*,*,#88,.F.);
#55=ORIENTED_EDGE('',*,*,#89,.F.);
#56=ORIENTED_EDGE('',*,*,#85,.T.);
#57=ORIENTED_EDGE('',*,*,#87,.F.);
#58=ORIENTED_EDGE('',*,*,#77,.F.);
#59=ORIENTED_EDGE('',*,*,#91,.F.);
#60=ORIENTED_EDGE('',*,*,#88,.T.);
#61=ORIENTED_EDGE('',*,*,#90,.F.);
#62=ORIENTED_EDGE('',*,*,#76,.F.);
#63=ORIENTED_EDGE('',*,*,#80,.T.);
#64=ORIENTED_EDGE('',*,*,#83,.T.);
#65=ORIENTED_EDGE('',*,*,#86,.T.);
#66=ORIENTED_EDGE('',*,*,#89,.T.);
#67=ORIENTED_EDGE('',*,*,#91,.T.);
#68=ORIENTED_EDGE('',*,*,#90,.T.);
#69=ORIENTED_EDGE('',*,*,#87,.T.);
#70=ORIENTED_EDGE('',*,*,#84,.T.);
#71=ORIENTED_EDGE('',*,*,#81,.T.);
#72=ORIENTED_EDGE('',*,*,#78,.T.);
#73=ORIENTED_EDGE('',*,*,#74,.F.);
#74=EDGE_CURVE('',#110,#111,#108,.T.);
#75=EDGE_CURVE('',#111,#112,#92,.T.);
#76=EDGE_CURVE('',#112,#113,#109,.T.);
#77=EDGE_CURVE('',#113,#110,#93,.T.);
#78=EDGE_CURVE('',#114,#111,#94,.T.);
#79=EDGE_CURVE('',#115,#114,#95,.T.);
#80=EDGE_CURVE('',#112,#115,#96,.T.);
#81=EDGE_CURVE('',#116,#114,#97,.T.);
#82=EDGE_CURVE('',#117,#116,#98,.T.);
#83=EDGE_CURVE('',#115,#117,#99,.T.);
#84=EDGE_CURVE('',#118,#116,#100,.T.);
#85=EDGE_CURVE('',#119,#118,#101,.T.);
#86=EDGE_CURVE('',#117,#119,#102,.T.);
#87=EDGE_CURVE('',#120,#118,#103,.T.);
#88=EDGE_CURVE('',#121,#120,#104,.T.);
#89=EDGE_CURVE('',#119,#121,#105,.T.);
#90=EDGE_CURVE('',#110,#120,#106,.T.);
#91=EDGE_CURVE('',#121,#113,#107,.T.);
#92=B_SPLINE_CURVE_WITH_KNOTS('',1,(#265,#266),.UNSPECIFIED.,.F.,.F.,(2,
2),(0.,1000.),.UNSPECIFIED.);
#93=B_SPLINE_CURVE_WITH_KNOTS('',1,(#272,#273),.UNSPECIFIED.,.F.,.F.,(2,
2),(0.,1000.),.UNSPECIFIED.);
#94=B_SPLINE_CURVE_WITH_KNOTS('',1,(#274,#275),.UNSPECIFIED.,.F.,.F.,(2,
2),(-1.44999999999999,0.),.UNSPECIFIED.);
#95=B_SPLINE_CURVE_WITH_KNOTS('',1,(#276,#277),.UNSPECIFIED.,.F.,.F.,(2,
2),(-1000.,0.),.UNSPECIFIED.);
#96=B_SPLINE_CURVE_WITH_KNOTS('',1,(#278,#279),.UNSPECIFIED.,.F.,.F.,(2,
2),(-1.44999999999999,0.),.UNSPECIFIED.);
#97=B_SPLINE_CURVE_WITH_KNOTS('',1,(#280,#281),.UNSPECIFIED.,.F.,.F.,(2,
2),(-1.09999999999999,0.),.UNSPECIFIED.);
#98=B_SPLINE_CURVE_WITH_KNOTS('',1,(#282,#283),.UNSPECIFIED.,.F.,.F.,(2,
2),(-1000.,0.),.UNSPECIFIED.);
#99=B_SPLINE_CURVE_WITH_KNOTS('',1,(#284,#285),.UNSPECIFIED.,.F.,.F.,(2,
2),(-1.09999999999999,0.),.UNSPECIFIED.);
#100=B_SPLINE_CURVE_WITH_KNOTS('',1,(#286,#287),.UNSPECIFIED.,.F.,.F.,(2,
2),(-7.09999999999997,0.),.UNSPECIFIED.);
#101=B_SPLINE_CURVE_WITH_KNOTS('',1,(#288,#289),.UNSPECIFIED.,.F.,.F.,(2,
2),(-1000.,0.),.UNSPECIFIED.);
#102=B_SPLINE_CURVE_WITH_KNOTS('',1,(#290,#291),.UNSPECIFIED.,.F.,.F.,(2,
2),(-7.09999999999997,0.),.UNSPECIFIED.);
#103=B_SPLINE_CURVE_WITH_KNOTS('',1,(#292,#293),.UNSPECIFIED.,.F.,.F.,(2,
2),(-1.09999999999999,0.),.UNSPECIFIED.);
#104=B_SPLINE_CURVE_WITH_KNOTS('',1,(#294,#295),.UNSPECIFIED.,.F.,.F.,(2,
2),(-1000.,0.),.UNSPECIFIED.);
#105=B_SPLINE_CURVE_WITH_KNOTS('',1,(#296,#297),.UNSPECIFIED.,.F.,.F.,(2,
2),(-1.09999999999999,0.),.UNSPECIFIED.);
#106=B_SPLINE_CURVE_WITH_KNOTS('',1,(#298,#299),.UNSPECIFIED.,.F.,.F.,(2,
2),(-1.45000000000005,0.),.UNSPECIFIED.);
#107=B_SPLINE_CURVE_WITH_KNOTS('',1,(#300,#301),.UNSPECIFIED.,.F.,.F.,(2,
2),(-1.45000000000005,0.),.UNSPECIFIED.);
#108=(
BOUNDED_CURVE()
B_SPLINE_CURVE(2,(#260,#261,#262,#263,#264),.UNSPECIFIED.,.F.,.F.)
B_SPLINE_CURVE_WITH_KNOTS((3,2,3),(0.,7.85398163397449,15.707963267949),
 .UNSPECIFIED.)
CURVE()
GEOMETRIC_REPRESENTATION_ITEM()
RATIONAL_B_SPLINE_CURVE((1.,0.707106781186548,1.,0.707106781186548,1.))
REPRESENTATION_ITEM('')
);
#109=(
BOUNDED_CURVE()
B_SPLINE_CURVE(2,(#267,#268,#269,#270,#271),.UNSPECIFIED.,.F.,.F.)
B_SPLINE_CURVE_WITH_KNOTS((3,2,3),(0.,7.85398163397449,15.707963267949),
 .UNSPECIFIED.)
CURVE()
GEOMETRIC_REPRESENTATION_ITEM()
RATIONAL_B_SPLINE_CURVE((1.,0.707106781186548,1.,0.707106781186548,1.))
REPRESENTATION_ITEM('')
);
#110=VERTEX_POINT('',#248);
#111=VERTEX_POINT('',#249);
#112=VERTEX_POINT('',#250);
#113=VERTEX_POINT('',#251);
#114=VERTEX_POINT('',#252);
#115=VERTEX_POINT('',#253);
#116=VERTEX_POINT('',#254);
#117=VERTEX_POINT('',#255);
#118=VERTEX_POINT('',#256);
#119=VERTEX_POINT('',#257);
#120=VERTEX_POINT('',#258);
#121=VERTEX_POINT('',#259);
#122=PLANE('',#219);
#123=PLANE('',#220);
#124=PLANE('',#221);
#125=PLANE('',#222);
#126=PLANE('',#223);
#127=PLANE('',#224);
#128=PLANE('',#225);
#129=CYLINDRICAL_SURFACE('',#218,4.99999999999974);
#130=SHAPE_DEFINITION_REPRESENTATION(#131,#216);
#131=PRODUCT_DEFINITION_SHAPE('Document','',#133);
#132=PRODUCT_DEFINITION_CONTEXT('3D Mechanical Parts',#205,'design');
#133=PRODUCT_DEFINITION('A','First version',#175,#132);
#134=DATE_TIME_ROLE('classification_date');
#135=DATE_TIME_ROLE('creation_date');
#136=APPLIED_DATE_AND_TIME_ASSIGNMENT(#160,#134,(#139));
#137=APPLIED_DATE_AND_TIME_ASSIGNMENT(#162,#135,(#133));
#138=SECURITY_CLASSIFICATION_LEVEL('unclassified');
#139=SECURITY_CLASSIFICATION('A','Security for version',#138);
#140=APPLIED_SECURITY_CLASSIFICATION_ASSIGNMENT(#139,(#175));
#141=APPROVAL_ROLE('Version approval');
#142=APPROVAL_ROLE('Version Security approval');
#143=APPROVAL_ROLE('Definition approval');
#144=APPROVAL_PERSON_ORGANIZATION(#193,#169,#141);
#145=APPROVAL_PERSON_ORGANIZATION(#194,#170,#142);
#146=APPROVAL_PERSON_ORGANIZATION(#197,#171,#143);
#147=COORDINATED_UNIVERSAL_TIME_OFFSET(5,0,.BEHIND.);
#148=LOCAL_TIME(0,0,0.,#147);
#149=LOCAL_TIME(0,0,0.,#147);
#150=LOCAL_TIME(0,0,0.,#147);
#151=LOCAL_TIME(0,0,0.,#147);
#152=LOCAL_TIME(0,0,0.,#147);
#153=CALENDAR_DATE(1999,1,1);
#154=CALENDAR_DATE(1999,1,1);
#155=CALENDAR_DATE(1999,1,1);
#156=CALENDAR_DATE(1999,1,1);
#157=CALENDAR_DATE(1999,1,1);
#158=DATE_AND_TIME(#153,#148);
#159=DATE_AND_TIME(#154,#149);
#160=DATE_AND_TIME(#155,#150);
#161=DATE_AND_TIME(#156,#151);
#162=DATE_AND_TIME(#157,#152);
#163=APPROVAL_DATE_TIME(#158,#169);
#164=APPROVAL_DATE_TIME(#159,#170);
#165=APPROVAL_DATE_TIME(#161,#171);
#166=APPROVAL_STATUS('not_yet_approved');
#167=APPROVAL_STATUS('not_yet_approved');
#168=APPROVAL_STATUS('approved');
#169=APPROVAL(#166,'Version approval');
#170=APPROVAL(#167,'Version Security approval');
#171=APPROVAL(#168,'Definition approval');
#172=APPLIED_APPROVAL_ASSIGNMENT(#169,(#175));
#173=APPLIED_APPROVAL_ASSIGNMENT(#170,(#139));
#174=APPLIED_APPROVAL_ASSIGNMENT(#171,(#133));
#175=PRODUCT_DEFINITION_FORMATION_WITH_SPECIFIED_SOURCE('A',
'First version',#207,.MADE.);
#176=PERSON_AND_ORGANIZATION_ROLE('design_owner');
#177=PERSON_AND_ORGANIZATION_ROLE('creator');
#178=PERSON_AND_ORGANIZATION_ROLE('design_supplier');
#179=PERSON_AND_ORGANIZATION_ROLE('classification_officer');
#180=PERSON_AND_ORGANIZATION_ROLE('creator');
#181=ORGANIZATION('STI','lab','lab');
#182=ORGANIZATION('STI','unknown','unknown');
#183=ORGANIZATION('STI','unknown','unknown');
#184=ORGANIZATION('STI','unknown','unknown');
#185=ORGANIZATION('STI','unknown','unknown');
#186=ORGANIZATION('STI','unknown','unknown');
#187=ORGANIZATION('STI','unknown','unknown');
#188=PERSON('1','Box','vc60',$,$,$);
#189=PERSON('2','last','first',$,$,$);
#190=PERSON('3','President','Mr.',$,$,$);
#191=PERSON_AND_ORGANIZATION(#188,#181);
#192=PERSON_AND_ORGANIZATION(#189,#182);
#193=PERSON_AND_ORGANIZATION(#190,#183);
#194=PERSON_AND_ORGANIZATION(#190,#184);
#195=PERSON_AND_ORGANIZATION(#190,#185);
#196=PERSON_AND_ORGANIZATION(#189,#186);
#197=PERSON_AND_ORGANIZATION(#190,#187);
#198=APPLIED_PERSON_AND_ORGANIZATION_ASSIGNMENT(#191,#176,(#207));
#199=APPLIED_PERSON_AND_ORGANIZATION_ASSIGNMENT(#192,#177,(#175));
#200=APPLIED_PERSON_AND_ORGANIZATION_ASSIGNMENT(#192,#178,(#175));
#201=APPLIED_PERSON_AND_ORGANIZATION_ASSIGNMENT(#195,#179,(#139));
#202=APPLIED_PERSON_AND_ORGANIZATION_ASSIGNMENT(#196,#180,(#133));
#203=PRODUCT_RELATED_PRODUCT_CATEGORY('detail','detail',(#207));
#204=APPLICATION_PROTOCOL_DEFINITION('International Standard',
'config_control_design',1994,#205);
#205=APPLICATION_CONTEXT(
'configuration controlled 3d designs of mechanical parts and assemblie
s');
#206=PRODUCT_CONTEXT('3D Mechanical Parts',#205,'mechanical');
#207=PRODUCT('Document','Document','',(#206));
#208=(
LENGTH_UNIT()
NAMED_UNIT(*)
SI_UNIT(.MILLI.,.METRE.)
);
#209=(
NAMED_UNIT(*)
PLANE_ANGLE_UNIT()
SI_UNIT($,.RADIAN.)
);
#210=DIMENSIONAL_EXPONENTS(0.,0.,0.,0.,0.,0.,0.);
#211=PLANE_ANGLE_MEASURE_WITH_UNIT(PLANE_ANGLE_MEASURE(0.01745329252),#209);
#212=(
CONVERSION_BASED_UNIT('DEGREES',#211)
NAMED_UNIT(#210)
PLANE_ANGLE_UNIT()
);
#213=(
NAMED_UNIT(*)
SI_UNIT($,.STERADIAN.)
SOLID_ANGLE_UNIT()
);
#214=UNCERTAINTY_MEASURE_WITH_UNIT(LENGTH_MEASURE(0.001),#208,
'DISTANCE_ACCURACY_VALUE',
'Maximum model space distance between geometric entities at asserted c
onnectivities');
#215=(
GEOMETRIC_REPRESENTATION_CONTEXT(3)
GLOBAL_UNCERTAINTY_ASSIGNED_CONTEXT((#214))
GLOBAL_UNIT_ASSIGNED_CONTEXT((#213,#212,#208))
REPRESENTATION_CONTEXT('ID1','3D')
);
#216=SHAPE_REPRESENTATION('Document',(#217,#226),#215);
#217=AXIS2_PLACEMENT_3D('',#239,#227,#228);
#218=AXIS2_PLACEMENT_3D('',#240,#229,$);
#219=AXIS2_PLACEMENT_3D('',#241,#230,$);
#220=AXIS2_PLACEMENT_3D('',#242,#231,$);
#221=AXIS2_PLACEMENT_3D('',#243,#232,$);
#222=AXIS2_PLACEMENT_3D('',#244,#233,$);
#223=AXIS2_PLACEMENT_3D('',#245,#234,$);
#224=AXIS2_PLACEMENT_3D('',#246,#235,$);
#225=AXIS2_PLACEMENT_3D('',#247,#236,$);
#226=AXIS2_PLACEMENT_3D('',#302,#237,#238);
#227=DIRECTION('',(0.,0.,1.));
#228=DIRECTION('',(1.,0.,0.));
#229=DIRECTION('',(1.,0.,0.));
#230=DIRECTION('',(0.,0.,-1.));
#231=DIRECTION('',(0.,-1.,0.));
#232=DIRECTION('',(0.,0.,-1.));
#233=DIRECTION('',(0.,1.,0.));
#234=DIRECTION('',(0.,0.,-1.));
#235=DIRECTION('',(-1.,0.,0.));
#236=DIRECTION('',(1.,0.,0.));
#237=DIRECTION('',(0.,0.,1.));
#238=DIRECTION('',(1.,0.,0.));
#239=CARTESIAN_POINT('',(0.,0.,0.));
#240=CARTESIAN_POINT('',(2.27373675443232E-13,2.84186735021661E-14,-2.55768061519588E-13));
#241=CARTESIAN_POINT('',(600.00012,5.14511999999964,1.29833122031184E-14));
#242=CARTESIAN_POINT('',(600.00012,3.54999999999964,-0.110119999999991));
#243=CARTESIAN_POINT('',(600.00012,4.26011999999965,1.10000000000001));
#244=CARTESIAN_POINT('',(-600.00012,-3.54999999999992,-0.110119999999997));
#245=CARTESIAN_POINT('',(600.00012,-3.40488000000031,6.76606326521757E-15));
#246=CARTESIAN_POINT('',(-500.,6.00012,-0.50011999999999));
#247=CARTESIAN_POINT('',(500.,6.00011999999968,-0.500120000000001));
#248=CARTESIAN_POINT('',(500.,-5.00000000000033,-5.32907051820075E-15));
#249=CARTESIAN_POINT('',(500.,4.99999999999967,1.77635683940025E-15));
#250=CARTESIAN_POINT('',(-500.,5.,1.28785870856518E-14));
#251=CARTESIAN_POINT('',(-500.,-5.,5.77315972805081E-15));
#252=CARTESIAN_POINT('',(500.,3.54999999999968,8.88178419700125E-16));
#253=CARTESIAN_POINT('',(-500.,3.55000000000001,1.19904086659517E-14));
#254=CARTESIAN_POINT('',(500.,3.54999999999968,1.09999999999999));
#255=CARTESIAN_POINT('',(-500.,3.55000000000001,1.10000000000001));
#256=CARTESIAN_POINT('',(500.,-3.55000000000028,1.09999999999999));
#257=CARTESIAN_POINT('',(-500.,-3.54999999999995,1.1));
#258=CARTESIAN_POINT('',(500.,-3.55000000000028,-4.44089209850063E-15));
#259=CARTESIAN_POINT('',(-500.,-3.54999999999995,6.66133814775094E-15));
#260=CARTESIAN_POINT('',(500.,-5.00000000000033,-5.38458166943201E-15));
#261=CARTESIAN_POINT('',(500.,-5.00000000000033,5.));
#262=CARTESIAN_POINT('',(500.,-3.30764044979465E-13,5.));
#263=CARTESIAN_POINT('',(500.,4.99999999999967,5.00000000000001));
#264=CARTESIAN_POINT('',(500.,4.99999999999968,1.83186799063151E-15));
#265=CARTESIAN_POINT('',(500.,4.99999999999967,1.77635683940025E-15));
#266=CARTESIAN_POINT('',(-500.,5.,1.28785870856518E-14));
#267=CARTESIAN_POINT('',(-500.,5.,1.29340982368831E-14));
#268=CARTESIAN_POINT('',(-500.,5.,5.00000000000002));
#269=CARTESIAN_POINT('',(-500.,-3.9143865298186E-15,5.00000000000001));
#270=CARTESIAN_POINT('',(-500.,-5.00000000000001,5.00000000000001));
#271=CARTESIAN_POINT('',(-500.,-5.,5.71764857681955E-15));
#272=CARTESIAN_POINT('',(-500.,-5.,5.77315972805081E-15));
#273=CARTESIAN_POINT('',(500.,-5.00000000000033,-5.32907051820075E-15));
#274=CARTESIAN_POINT('',(500.,3.54999999999968,8.88178419700125E-16));
#275=CARTESIAN_POINT('',(500.,4.99999999999967,1.77635683940025E-15));
#276=CARTESIAN_POINT('',(-500.,3.55000000000001,1.19904086659517E-14));
#277=CARTESIAN_POINT('',(500.,3.54999999999968,8.88178419700125E-16));
#278=CARTESIAN_POINT('',(-500.,5.,1.28785870856518E-14));
#279=CARTESIAN_POINT('',(-500.,3.55000000000001,1.19904086659517E-14));
#280=CARTESIAN_POINT('',(500.,3.54999999999968,1.09999999999999));
#281=CARTESIAN_POINT('',(500.,3.54999999999968,8.88178419700125E-16));
#282=CARTESIAN_POINT('',(-500.,3.55000000000001,1.10000000000001));
#283=CARTESIAN_POINT('',(500.,3.54999999999968,1.09999999999999));
#284=CARTESIAN_POINT('',(-500.,3.55000000000001,1.19904086659517E-14));
#285=CARTESIAN_POINT('',(-500.,3.55000000000001,1.10000000000001));
#286=CARTESIAN_POINT('',(500.,-3.55000000000028,1.09999999999999));
#287=CARTESIAN_POINT('',(500.,3.54999999999968,1.09999999999999));
#288=CARTESIAN_POINT('',(-500.,-3.54999999999995,1.1));
#289=CARTESIAN_POINT('',(500.,-3.55000000000028,1.09999999999999));
#290=CARTESIAN_POINT('',(-500.,3.55000000000001,1.10000000000001));
#291=CARTESIAN_POINT('',(-500.,-3.54999999999995,1.1));
#292=CARTESIAN_POINT('',(500.,-3.55000000000028,-4.44089209850063E-15));
#293=CARTESIAN_POINT('',(500.,-3.55000000000028,1.09999999999999));
#294=CARTESIAN_POINT('',(-500.,-3.54999999999995,6.66133814775094E-15));
#295=CARTESIAN_POINT('',(500.,-3.55000000000028,-4.44089209850063E-15));
#296=CARTESIAN_POINT('',(-500.,-3.54999999999995,1.1));
#297=CARTESIAN_POINT('',(-500.,-3.54999999999995,6.66133814775094E-15));
#298=CARTESIAN_POINT('',(500.,-5.00000000000033,-5.32907051820075E-15));
#299=CARTESIAN_POINT('',(500.,-3.55000000000028,-4.44089209850063E-15));
#300=CARTESIAN_POINT('',(-500.,-3.54999999999995,6.66133814775094E-15));
#301=CARTESIAN_POINT('',(-500.,-5.,5.77315972805081E-15));
#302=CARTESIAN_POINT('',(0.,0.,0.));
ENDSEC;
END-ISO-10303-21;
