  0
SECTION
  2
HEADER
  9
$ACADVER
  1
AC1027
  9
$ACADMAINTVER
 70
   125
  9
$DWGCODEPAGE
  3
ANSI_1252
  9
$LASTSAVEDBY
  1
fleminab
  9
$REQUIREDVERSIONS
160
                 0
  9
$INSBASE
 10
0.0
 20
0.0
 30
0.0
  9
$EXTMIN
 10
190.8937759373498
 20
200.3176190364146
 30
-0.0000000349181948
  9
$EXTMAX
 10
265.5868906081503
 20
275.5281441339852
 30
0.0000000814935746
  9
$LIMMIN
 10
0.0
 20
0.0
  9
$LIMMAX
 10
558.8
 20
431.8
  9
$ORTHOMODE
 70
     0
  9
$REGENMODE
 70
     1
  9
$FILLMODE
 70
     1
  9
$QTEXTMODE
 70
     0
  9
$MIRRTEXT
 70
     0
  9
$LTSCALE
 40
30.734
  9
$ATTMODE
 70
     1
  9
$TEXTSIZE
 40
0.2
  9
$TRACEWID
 40
0.05
  9
$TEXTSTYLE
  7
STANDARD
  9
$CLAYER
  8
0
  9
$CELTYPE
  6
BYLAYER
  9
$CECOLOR
 62
   256
  9
$CELTSCALE
 40
1.0
  9
$DISPSILH
 70
     0
  9
$DIMSCALE
 40
1.0
  9
$DIMASZ
 40
3.5
  9
$DIMEXO
 40
3.4925
  9
$DIMDLI
 40
21.2344
  9
$DIMRND
 40
0.0
  9
$DIMDLE
 40
0.0
  9
$DIMEXE
 40
10.0584
  9
$DIMTP
 40
0.01
  9
$DIMTM
 40
0.01
  9
$DIMTXT
 40
3.5
  9
$DIMCEN
 40
5.0292
  9
$DIMTSZ
 40
0.0
  9
$DIMTOL
 70
     1
  9
$DIMLIM
 70
     0
  9
$DIMTIH
 70
     1
  9
$DIMTOH
 70
     1
  9
$DIMSE1
 70
     0
  9
$DIMSE2
 70
     0
  9
$DIMTAD
 70
     0
  9
$DIMZIN
 70
     0
  9
$DIMBLK
  1

  9
$DIMASO
 70
     1
  9
$DIMSHO
 70
     1
  9
$DIMPOST
  1

  9
$DIMAPOST
  1

  9
$DIMALT
 70
     0
  9
$DIMALTD
 70
     2
  9
$DIMALTF
 40
25.4
  9
$DIMLFAC
 40
1.0
  9
$DIMTOFL
 70
     0
  9
$DIMTVP
 40
0.0
  9
$DIMTIX
 70
     0
  9
$DIMSOXD
 70
     0
  9
$DIMSAH
 70
     0
  9
$DIMBLK1
  1

  9
$DIMBLK2
  1

  9
$DIMSTYLE
  2
STANDARD
  9
$DIMCLRD
 70
     0
  9
$DIMCLRE
 70
     0
  9
$DIMCLRT
 70
     0
  9
$DIMTFAC
 40
1.0
  9
$DIMGAP
 40
0.09
  9
$DIMJUST
 70
     0
  9
$DIMSD1
 70
     0
  9
$DIMSD2
 70
     0
  9
$DIMTOLJ
 70
     1
  9
$DIMTZIN
 70
     0
  9
$DIMALTZ
 70
     0
  9
$DIMALTTZ
 70
     0
  9
$DIMUPT
 70
     0
  9
$DIMDEC
 70
     4
  9
$DIMTDEC
 70
     4
  9
$DIMALTU
 70
     2
  9
$DIMALTTD
 70
     2
  9
$DIMTXSTY
  7
STANDARD
  9
$DIMAUNIT
 70
     0
  9
$DIMADEC
 70
     0
  9
$DIMALTRND
 40
0.0
  9
$DIMAZIN
 70
     0
  9
$DIMDSEP
 70
    46
  9
$DIMATFIT
 70
     3
  9
$DIMFRAC
 70
     0
  9
$DIMLDRBLK
  1

  9
$DIMLUNIT
 70
     2
  9
$DIMLWD
 70
    -2
  9
$DIMLWE
 70
    -2
  9
$DIMTMOVE
 70
     0
  9
$DIMFXL
 40
1.0
  9
$DIMFXLON
 70
     0
  9
$DIMJOGANG
 40
0.7853981633974483
  9
$DIMTFILL
 70
     0
  9
$DIMTFILLCLR
 70
     0
  9
$DIMARCSYM
 70
     0
  9
$DIMLTYPE
  6

  9
$DIMLTEX1
  6

  9
$DIMLTEX2
  6

  9
$DIMTXTDIRECTION
 70
     0
  9
$LUNITS
 70
     2
  9
$LUPREC
 70
     4
  9
$SKETCHINC
 40
0.1
  9
$FILLETRAD
 40
0.0
  9
$AUNITS
 70
     0
  9
$AUPREC
 70
     0
  9
$MENU
  1
.
  9
$ELEVATION
 40
0.0
  9
$PELEVATION
 40
0.0
  9
$THICKNESS
 40
0.0
  9
$LIMCHECK
 70
     0
  9
$CHAMFERA
 40
0.0
  9
$CHAMFERB
 40
0.0
  9
$CHAMFERC
 40
0.0
  9
$CHAMFERD
 40
0.0
  9
$SKPOLY
 70
     0
  9
$TDCREATE
 40
2458092.797002314
  9
$TDUCREATE
 40
2458092.338672975
  9
$TDUPDATE
 40
2458094.519363426
  9
$TDUUPDATE
 40
2458094.061030093
  9
$TDINDWG
 40
0.0003831713
  9
$TDUSRTIMER
 40
0.0003831713
  9
$USRTIMER
 70
     1
  9
$ANGBASE
 50
0.0
  9
$ANGDIR
 70
     0
  9
$PDMODE
 70
     3
  9
$PDSIZE
 40
8.0
  9
$PLINEWID
 40
0.0
  9
$SPLFRAME
 70
     0
  9
$SPLINETYPE
 70
     6
  9
$SPLINESEGS
 70
     8
  9
$HANDSEED
  5
3FE
  9
$SURFTAB1
 70
     6
  9
$SURFTAB2
 70
     6
  9
$SURFTYPE
 70
     6
  9
$SURFU
 70
     6
  9
$SURFV
 70
     6
  9
$UCSBASE
  2

  9
$UCSNAME
  2

  9
$UCSORG
 10
0.0
 20
0.0
 30
0.0
  9
$UCSXDIR
 10
1.0
 20
0.0
 30
0.0
  9
$UCSYDIR
 10
0.0
 20
1.0
 30
0.0
  9
$UCSORTHOREF
  2

  9
$UCSORTHOVIEW
 70
     0
  9
$UCSORGTOP
 10
0.0
 20
0.0
 30
0.0
  9
$UCSORGBOTTOM
 10
0.0
 20
0.0
 30
0.0
  9
$UCSORGLEFT
 10
0.0
 20
0.0
 30
0.0
  9
$UCSORGRIGHT
 10
0.0
 20
0.0
 30
0.0
  9
$UCSORGFRONT
 10
0.0
 20
0.0
 30
0.0
  9
$UCSORGBACK
 10
0.0
 20
0.0
 30
0.0
  9
$PUCSBASE
  2

  9
$PUCSNAME
  2

  9
$PUCSORG
 10
0.0
 20
0.0
 30
0.0
  9
$PUCSXDIR
 10
1.0
 20
0.0
 30
0.0
  9
$PUCSYDIR
 10
0.0
 20
1.0
 30
0.0
  9
$PUCSORTHOREF
  2

  9
$PUCSORTHOVIEW
 70
     0
  9
$PUCSORGTOP
 10
0.0
 20
0.0
 30
0.0
  9
$PUCSORGBOTTOM
 10
0.0
 20
0.0
 30
0.0
  9
$PUCSORGLEFT
 10
0.0
 20
0.0
 30
0.0
  9
$PUCSORGRIGHT
 10
0.0
 20
0.0
 30
0.0
  9
$PUCSORGFRONT
 10
0.0
 20
0.0
 30
0.0
  9
$PUCSORGBACK
 10
0.0
 20
0.0
 30
0.0
  9
$USERI1
 70
     0
  9
$USERI2
 70
     0
  9
$USERI3
 70
     0
  9
$USERI4
 70
     0
  9
$USERI5
 70
     0
  9
$USERR1
 40
0.0
  9
$USERR2
 40
0.0
  9
$USERR3
 40
0.0
  9
$USERR4
 40
0.0
  9
$USERR5
 40
2.5
  9
$WORLDVIEW
 70
     1
  9
$SHADEDGE
 70
     3
  9
$SHADEDIF
 70
    70
  9
$TILEMODE
 70
     1
  9
$MAXACTVP
 70
    64
  9
$PINSBASE
 10
0.0
 20
0.0
 30
0.0
  9
$PLIMCHECK
 70
     0
  9
$PEXTMIN
 10
1.000000000000000E+20
 20
1.000000000000000E+20
 30
1.000000000000000E+20
  9
$PEXTMAX
 10
-1.000000000000000E+20
 20
-1.000000000000000E+20
 30
-1.000000000000000E+20
  9
$PLIMMIN
 10
0.0
 20
0.0
  9
$PLIMMAX
 10
12.0
 20
9.0
  9
$UNITMODE
 70
     0
  9
$VISRETAIN
 70
     1
  9
$PLINEGEN
 70
     0
  9
$PSLTSCALE
 70
     1
  9
$TREEDEPTH
 70
  3020
  9
$CMLSTYLE
  2
Standard
  9
$CMLJUST
 70
     0
  9
$CMLSCALE
 40
1.0
  9
$PROXYGRAPHICS
 70
     1
  9
$MEASUREMENT
 70
     1
  9
$CELWEIGHT
370
    -1
  9
$ENDCAPS
280
     0
  9
$JOINSTYLE
280
     0
  9
$LWDISPLAY
290
     0
  9
$INSUNITS
 70
     4
  9
$HYPERLINKBASE
  1

  9
$STYLESHEET
  1

  9
$XEDIT
290
     1
  9
$CEPSNTYPE
380
     0
  9
$PSTYLEMODE
290
     1
  9
$FINGERPRINTGUID
  2
{80D5EB98-DC00-4354-BC77-59814CB261C8}
  9
$VERSIONGUID
  2
{5381A4C1-0A33-2240-BB5F-3FFCBAF2FE0A}
  9
$EXTNAMES
290
     1
  9
$PSVPSCALE
 40
0.0
  9
$OLESTARTUP
290
     0
  9
$SORTENTS
280
   127
  9
$INDEXCTL
280
     0
  9
$HIDETEXT
280
     1
  9
$XCLIPFRAME
280
     0
  9
$HALOGAP
280
     0
  9
$OBSCOLOR
 70
   257
  9
$OBSLTYPE
280
     0
  9
$INTERSECTIONDISPLAY
280
     0
  9
$INTERSECTIONCOLOR
 70
   257
  9
$DIMASSOC
280
     2
  9
$PROJECTNAME
  1

  9
$CAMERADISPLAY
290
     0
  9
$LENSLENGTH
 40
50.0
  9
$CAMERAHEIGHT
 40
0.0
  9
$STEPSPERSEC
 40
2.0
  9
$STEPSIZE
 40
6.0
  9
$3DDWFPREC
 40
2.0
  9
$PSOLWIDTH
 40
0.25
  9
$PSOLHEIGHT
 40
4.0
  9
$LOFTANG1
 40
1.570796326794896
  9
$LOFTANG2
 40
1.570796326794896
  9
$LOFTMAG1
 40
0.0
  9
$LOFTMAG2
 40
0.0
  9
$LOFTPARAM
 70
     7
  9
$LOFTNORMALS
280
     1
  9
$LATITUDE
 40
37.795
  9
$LONGITUDE
 40
-122.394
  9
$NORTHDIRECTION
 40
0.0
  9
$TIMEZONE
 70
 -8000
  9
$LIGHTGLYPHDISPLAY
280
     1
  9
$TILEMODELIGHTSYNCH
280
     1
  9
$CMATERIAL
347
338
  9
$SOLIDHIST
280
     1
  9
$SHOWHIST
280
     1
  9
$DWFFRAME
280
     2
  9
$DGNFRAME
280
     0
  9
$REALWORLDSCALE
290
     1
  9
$INTERFERECOLOR
 62
     1
  9
$INTERFEREOBJVS
345
35A
  9
$INTERFEREVPVS
346
3DE
  9
$CSHADOW
280
     0
  9
$SHADOWPLANELOCATION
 40
0.0
  0
ENDSEC
  0
SECTION
  2
CLASSES
  0
CLASS
  1
ACDBDICTIONARYWDFLT
  2
AcDbDictionaryWithDefault
  3
ObjectDBX Classes
 90
        0
 91
        1
280
     0
281
     0
  0
CLASS
  1
MATERIAL
  2
AcDbMaterial
  3
ObjectDBX Classes
 90
     1153
 91
        3
280
     0
281
     0
  0
CLASS
  1
VISUALSTYLE
  2
AcDbVisualStyle
  3
ObjectDBX Classes
 90
     4095
 91
       26
280
     0
281
     0
  0
CLASS
  1
TABLESTYLE
  2
AcDbTableStyle
  3
ObjectDBX Classes
 90
     4095
 91
        1
280
     0
281
     0
  0
CLASS
  1
SCALE
  2
AcDbScale
  3
ObjectDBX Classes
 90
     1153
 91
       33
280
     0
281
     0
  0
CLASS
  1
MLEADERSTYLE
  2
AcDbMLeaderStyle
  3
ACDB_MLEADERSTYLE_CLASS
 90
     4095
 91
        1
280
     0
281
     0
  0
CLASS
  1
CELLSTYLEMAP
  2
AcDbCellStyleMap
  3
ObjectDBX Classes
 90
     1152
 91
        1
280
     0
281
     0
  0
CLASS
  1
DICTIONARYVAR
  2
AcDbDictionaryVar
  3
ObjectDBX Classes
 90
        0
 91
        9
280
     0
281
     0
  0
CLASS
  1
VLO-VL
  2
vlo_VL
  3
VL|AutoLISP based application
 90
      129
 91
        1
280
     0
281
     0
  0
CLASS
  1
ACDBSECTIONVIEWSTYLE
  2
AcDbSectionViewStyle
  3
ObjectDBX Classes
 90
     1025
 91
        1
280
     0
281
     0
  0
CLASS
  1
ACDBDETAILVIEWSTYLE
  2
AcDbDetailViewStyle
  3
ObjectDBX Classes
 90
     1025
 91
        1
280
     0
281
     0
  0
ENDSEC
  0
SECTION
  2
TABLES
  0
TABLE
  2
VPORT
  5
8
330
0
100
AcDbSymbolTable
 70
     1
1001
ACAD
1000
DbSaveVer
1071
        5
  0
VPORT
  5
1F4
330
8
100
AcDbSymbolTableRecord
100
AcDbViewportTableRecord
  2
*ACTIVE
 70
     0
 10
0.0
 20
0.0
 11
1.0
 21
1.0
 12
228.2403332727501
 22
237.9228815851999
 13
0.0
 23
0.0
 14
1.0
 24
1.0
 15
0.0
 25
0.0
 16
0.0
 26
0.0
 36
1.0
 17
0.0
 27
0.0
 37
0.0
 40
75.78758794998157
 41
2.444302176696542
 42
50.0
 43
0.0
 44
0.0
 50
0.0
 51
0.0
 71
     0
 72
   100
 73
     1
 74
     1
 75
     0
 76
     0
 77
     0
 78
     0
281
     0
 65
     1
110
0.0
120
0.0
130
0.0
111
1.0
121
0.0
131
0.0
112
0.0
122
1.0
132
0.0
 79
     0
146
0.0
348
356
 60
     3
 61
     5
292
     1
282
     1
141
0.0
142
0.0
 63
   250
421
  3355443
1001
ACAD_NAV_VCDISPLAY
1070
     3
  0
ENDTAB
  0
TABLE
  2
LTYPE
  5
5
330
0
100
AcDbSymbolTable
 70
     6
  0
LTYPE
  5
14
330
5
100
AcDbSymbolTableRecord
100
AcDbLinetypeTableRecord
  2
BYBLOCK
 70
     0
  3

 72
    65
 73
     0
 40
0.0
  0
LTYPE
  5
15
330
5
100
AcDbSymbolTableRecord
100
AcDbLinetypeTableRecord
  2
BYLAYER
 70
     0
  3

 72
    65
 73
     0
 40
0.0
  0
LTYPE
  5
16
330
5
100
AcDbSymbolTableRecord
100
AcDbLinetypeTableRecord
  2
CONTINUOUS
 70
     0
  3
Solid line
 72
    65
 73
     0
 40
0.0
  0
LTYPE
  5
1F5
330
5
100
AcDbSymbolTableRecord
100
AcDbLinetypeTableRecord
  2
CENTER
 70
     0
  3
____ _ ____ _ ____ _ ____ _ ____ _ ____ _ ____
 72
    65
 73
     4
 40
0.6
 49
0.375
 74
     0
 49
-0.075
 74
     0
 49
0.075
 74
     0
 49
-0.075
 74
     0
  0
LTYPE
  5
1F6
330
5
100
AcDbSymbolTableRecord
100
AcDbLinetypeTableRecord
  2
HIDDEN
 70
     0
  3
- - - - - - - - - - - - - - - - - - - -
 72
    65
 73
     2
 40
0.2
 49
0.1
 74
     0
 49
-0.1
 74
     0
  0
LTYPE
  5
1F7
330
5
100
AcDbSymbolTableRecord
100
AcDbLinetypeTableRecord
  2
PHANTOM
 70
     0
  3
_____ _ _ _____ _ _ _____ _ _ _____
 72
    65
 73
     6
 40
0.8
 49
0.45
 74
     0
 49
-0.05
 74
     0
 49
0.1
 74
     0
 49
-0.05
 74
     0
 49
0.1
 74
     0
 49
-0.05
 74
     0
  0
LTYPE
  5
1F8
330
5
100
AcDbSymbolTableRecord
100
AcDbLinetypeTableRecord
  2
DOT
 70
     0
  3
. . . . . . . . . . . . . . . . . . . .
 72
    65
 73
     2
 40
0.2
 49
0.1
 74
     0
 49
-0.1
 74
     0
  0
LTYPE
  5
1F9
330
5
100
AcDbSymbolTableRecord
100
AcDbLinetypeTableRecord
  2
DASHED
 70
     0
  3
- - - - - - - - - - - - - - - - - - - -
 72
    65
 73
     2
 40
0.2
 49
0.1
 74
     0
 49
-0.1
 74
     0
  0
ENDTAB
  0
TABLE
  2
LAYER
  5
2
102
{ACAD_XDICTIONARY
360
3D3
102
}
330
0
100
AcDbSymbolTable
 70
    27
  0
LAYER
  5
10
102
{ACAD_XDICTIONARY
360
39A
102
}
330
2
100
AcDbSymbolTableRecord
100
AcDbLayerTableRecord
  2
0
 70
     0
 62
     7
  6
CONTINUOUS
370
    -3
390
F
347
348
348
0
  0
LAYER
  5
1FA
102
{ACAD_XDICTIONARY
360
39C
102
}
330
2
100
AcDbSymbolTableRecord
100
AcDbLayerTableRecord
  2
DEFAULT_1
 70
     0
 62
     7
  6
CENTER
370
    -3
390
F
347
348
348
0
  0
LAYER
  5
1FB
102
{ACAD_XDICTIONARY
360
39E
102
}
330
2
100
AcDbSymbolTableRecord
100
AcDbLayerTableRecord
  2
DEFAULT_2
 70
     0
 62
     8
  6
HIDDEN
370
    -3
390
F
347
348
348
0
  0
LAYER
  5
1FC
102
{ACAD_XDICTIONARY
360
3A0
102
}
330
2
100
AcDbSymbolTableRecord
100
AcDbLayerTableRecord
  2
DEFAULT_3
 70
     0
 62
     7
  6
PHANTOM
370
    -3
390
F
347
348
348
0
  0
LAYER
  5
1FD
102
{ACAD_XDICTIONARY
360
3A2
102
}
330
2
100
AcDbSymbolTableRecord
100
AcDbLayerTableRecord
  2
01_ALL_DTM_PLN
 70
     0
 62
     7
  6
CONTINUOUS
370
    -3
390
F
347
348
348
0
  0
LAYER
  5
1FE
102
{ACAD_XDICTIONARY
360
3A4
102
}
330
2
100
AcDbSymbolTableRecord
100
AcDbLayerTableRecord
  2
01__ASM_ALL_DTM_PLN
 70
     0
 62
     7
  6
CONTINUOUS
370
    -3
390
F
347
348
348
0
  0
LAYER
  5
1FF
102
{ACAD_XDICTIONARY
360
3A6
102
}
330
2
100
AcDbSymbolTableRecord
100
AcDbLayerTableRecord
  2
01__ASM_DEF_DTM_PLN
 70
     0
 62
     7
  6
CONTINUOUS
370
    -3
390
F
347
348
348
0
  0
LAYER
  5
200
102
{ACAD_XDICTIONARY
360
3A8
102
}
330
2
100
AcDbSymbolTableRecord
100
AcDbLayerTableRecord
  2
01___PRT_ALL_DTM_PLN
 70
     0
 62
     7
  6
CONTINUOUS
370
    -3
390
F
347
348
348
0
  0
LAYER
  5
201
102
{ACAD_XDICTIONARY
360
3AA
102
}
330
2
100
AcDbSymbolTableRecord
100
AcDbLayerTableRecord
  2
01___PRT_DEF_DTM_PLN
 70
     0
 62
     7
  6
CONTINUOUS
370
    -3
390
F
347
348
348
0
  0
LAYER
  5
202
102
{ACAD_XDICTIONARY
360
3AC
102
}
330
2
100
AcDbSymbolTableRecord
100
AcDbLayerTableRecord
  2
02_ALL_AXES
 70
     0
 62
     7
  6
CONTINUOUS
370
    -3
390
F
347
348
348
0
  0
LAYER
  5
203
102
{ACAD_XDICTIONARY
360
3AE
102
}
330
2
100
AcDbSymbolTableRecord
100
AcDbLayerTableRecord
  2
02__ASM_ALL_AXES
 70
     0
 62
     7
  6
CONTINUOUS
370
    -3
390
F
347
348
348
0
  0
LAYER
  5
204
102
{ACAD_XDICTIONARY
360
3B0
102
}
330
2
100
AcDbSymbolTableRecord
100
AcDbLayerTableRecord
  2
02___PRT_ALL_AXES
 70
     0
 62
     7
  6
CONTINUOUS
370
    -3
390
F
347
348
348
0
  0
LAYER
  5
205
102
{ACAD_XDICTIONARY
360
3B2
102
}
330
2
100
AcDbSymbolTableRecord
100
AcDbLayerTableRecord
  2
03_ALL_CURVES
 70
     0
 62
     7
  6
CONTINUOUS
370
    -3
390
F
347
348
348
0
  0
LAYER
  5
206
102
{ACAD_XDICTIONARY
360
3B4
102
}
330
2
100
AcDbSymbolTableRecord
100
AcDbLayerTableRecord
  2
03__ASM_ALL_CURVES
 70
     0
 62
     7
  6
CONTINUOUS
370
    -3
390
F
347
348
348
0
  0
LAYER
  5
207
102
{ACAD_XDICTIONARY
360
3B6
102
}
330
2
100
AcDbSymbolTableRecord
100
AcDbLayerTableRecord
  2
03___PRT_ALL_CURVES
 70
     0
 62
     7
  6
CONTINUOUS
370
    -3
390
F
347
348
348
0
  0
LAYER
  5
208
102
{ACAD_XDICTIONARY
360
3B8
102
}
330
2
100
AcDbSymbolTableRecord
100
AcDbLayerTableRecord
  2
04_ALL_DTM_PNT
 70
     0
 62
     7
  6
CONTINUOUS
370
    -3
390
F
347
348
348
0
  0
LAYER
  5
209
102
{ACAD_XDICTIONARY
360
3BA
102
}
330
2
100
AcDbSymbolTableRecord
100
AcDbLayerTableRecord
  2
04__ASM_ALL_DTM_PNT
 70
     0
 62
     7
  6
CONTINUOUS
370
    -3
390
F
347
348
348
0
  0
LAYER
  5
20A
102
{ACAD_XDICTIONARY
360
3BC
102
}
330
2
100
AcDbSymbolTableRecord
100
AcDbLayerTableRecord
  2
04___PRT_ALL_DTM_PNT
 70
     0
 62
     7
  6
CONTINUOUS
370
    -3
390
F
347
348
348
0
  0
LAYER
  5
20B
102
{ACAD_XDICTIONARY
360
3BE
102
}
330
2
100
AcDbSymbolTableRecord
100
AcDbLayerTableRecord
  2
05_ALL_DTM_CSYS
 70
     0
 62
     7
  6
CONTINUOUS
370
    -3
390
F
347
348
348
0
  0
LAYER
  5
20C
102
{ACAD_XDICTIONARY
360
3C0
102
}
330
2
100
AcDbSymbolTableRecord
100
AcDbLayerTableRecord
  2
05__ASM_ALL_DTM_CSYS
 70
     0
 62
     7
  6
CONTINUOUS
370
    -3
390
F
347
348
348
0
  0
LAYER
  5
20D
102
{ACAD_XDICTIONARY
360
3C2
102
}
330
2
100
AcDbSymbolTableRecord
100
AcDbLayerTableRecord
  2
05__ASM_DEF_DTM_CSYS
 70
     0
 62
     7
  6
CONTINUOUS
370
    -3
390
F
347
348
348
0
  0
LAYER
  5
20E
102
{ACAD_XDICTIONARY
360
3C4
102
}
330
2
100
AcDbSymbolTableRecord
100
AcDbLayerTableRecord
  2
05___PRT_ALL_DTM_CSYS
 70
     0
 62
     7
  6
CONTINUOUS
370
    -3
390
F
347
348
348
0
  0
LAYER
  5
20F
102
{ACAD_XDICTIONARY
360
3C6
102
}
330
2
100
AcDbSymbolTableRecord
100
AcDbLayerTableRecord
  2
05___PRT_DEF_DTM_CSYS
 70
     0
 62
     7
  6
CONTINUOUS
370
    -3
390
F
347
348
348
0
  0
LAYER
  5
210
102
{ACAD_XDICTIONARY
360
3C8
102
}
330
2
100
AcDbSymbolTableRecord
100
AcDbLayerTableRecord
  2
06_ALL_SURFS
 70
     0
 62
     7
  6
CONTINUOUS
370
    -3
390
F
347
348
348
0
  0
LAYER
  5
211
102
{ACAD_XDICTIONARY
360
3CA
102
}
330
2
100
AcDbSymbolTableRecord
100
AcDbLayerTableRecord
  2
06__ASM_ALL_SURFS
 70
     0
 62
     7
  6
CONTINUOUS
370
    -3
390
F
347
348
348
0
  0
LAYER
  5
212
102
{ACAD_XDICTIONARY
360
3CC
102
}
330
2
100
AcDbSymbolTableRecord
100
AcDbLayerTableRecord
  2
06___PRT_ALL_SURFS
 70
     0
 62
     7
  6
CONTINUOUS
370
    -3
390
F
347
348
348
0
  0
LAYER
  5
213
102
{ACAD_XDICTIONARY
360
3CE
102
}
330
2
100
AcDbSymbolTableRecord
100
AcDbLayerTableRecord
  2
07__ASM_ALL_SKELETONS
 70
     0
 62
     7
  6
CONTINUOUS
370
    -3
390
F
347
348
348
0
  0
ENDTAB
  0
TABLE
  2
STYLE
  5
3
330
0
100
AcDbSymbolTable
 70
     2
  0
STYLE
  5
11
330
3
100
AcDbSymbolTableRecord
100
AcDbTextStyleTableRecord
  2
STANDARD
 70
     0
 40
0.0
 41
0.85
 50
0.0
 71
     0
 42
0.2
  3
txt
  4

  0
STYLE
  5
214
330
3
100
AcDbSymbolTableRecord
100
AcDbTextStyleTableRecord
  2
TEXTSTYLE_1
 70
     0
 40
0.0
 41
0.8
 50
0.0
 71
     0
 42
0.2
  3
gdt
  4

  0
ENDTAB
  0
TABLE
  2
VIEW
  5
6
330
0
100
AcDbSymbolTable
 70
     0
  0
ENDTAB
  0
TABLE
  2
UCS
  5
7
330
0
100
AcDbSymbolTable
 70
     0
  0
ENDTAB
  0
TABLE
  2
APPID
  5
9
330
0
100
AcDbSymbolTable
 70
     3
  0
APPID
  5
215
330
9
100
AcDbSymbolTableRecord
100
AcDbRegAppTableRecord
  2
ACAD
 70
     0
  0
APPID
  5
388
330
9
100
AcDbSymbolTableRecord
100
AcDbRegAppTableRecord
  2
ACAD_MLEADERVER
 70
     0
  0
APPID
  5
3EE
330
9
100
AcDbSymbolTableRecord
100
AcDbRegAppTableRecord
  2
ACAD_NAV_VCDISPLAY
 70
     0
  0
ENDTAB
  0
TABLE
  2
DIMSTYLE
  5
A
330
0
100
AcDbSymbolTable
 70
     1
100
AcDbDimStyleTable
 71
     0
  0
DIMSTYLE
105
218
330
A
100
AcDbSymbolTableRecord
100
AcDbDimStyleTableRecord
  2
STANDARD
 70
     0
 41
3.5
 47
0.01
 48
0.01
 71
     1
 73
     0
 74
     0
 77
     1
 78
     8
140
3.5
271
     2
272
     2
284
     8
340
11
  0
ENDTAB
  0
TABLE
  2
BLOCK_RECORD
  5
1
330
0
100
AcDbSymbolTable
 70
     0
  0
BLOCK_RECORD
  5
216
330
1
100
AcDbSymbolTableRecord
100
AcDbBlockTableRecord
  2
*Model_Space
340
333
 70
     0
280
     1
281
     0
  0
BLOCK_RECORD
  5
217
330
1
100
AcDbSymbolTableRecord
100
AcDbBlockTableRecord
  2
*Paper_Space
340
334
 70
     0
280
     1
281
     0
  0
ENDTAB
  0
ENDSEC
  0
SECTION
  2
BLOCKS
  0
BLOCK
  5
20
330
216
100
AcDbEntity
  8
0
100
AcDbBlockBegin
  2
*Model_Space
 70
     0
 10
0.0
 20
0.0
 30
0.0
  3
*Model_Space
  1

  0
ENDBLK
  5
21
330
216
100
AcDbEntity
  8
0
100
AcDbBlockEnd
  0
BLOCK
  5
1C
330
217
100
AcDbEntity
 67
     1
  8
0
100
AcDbBlockBegin
  2
*Paper_Space
 70
     0
 10
0.0
 20
0.0
 30
0.0
  3
*Paper_Space
  1

  0
ENDBLK
  5
1D
330
217
100
AcDbEntity
 67
     1
  8
0
100
AcDbBlockEnd
  0
ENDSEC
  0
SECTION
  2
ENTITIES
  0
LINE
  5
21D
330
216
100
AcDbEntity
  8
0
  6
Continuous
 62
     7
100
AcDbLine
 10
208.6658471459
 20
275.5045587641
 30
0.0
 11
201.2676626483
 21
273.0429979677
 31
0.0
  0
LWPOLYLINE
  5
21E
330
216
100
AcDbEntity
  8
0
  6
Continuous
 62
     7
100
AcDbPolyline
 90
       11
 70
     0
 43
0.0
 10
210.8877160801
 20
201.6504548385
 10
213.2611607463
 20
200.9109005516
 10
217.486126062
 20
200.3369289093
 10
222.0786299989
 20
200.6005915712
 10
226.9856961119
 20
201.7608822208
 10
232.3317382192
 20
203.9594518042
 10
238.1860466957
 20
207.2785076468
 10
244.5721041289
 20
211.6996851896
 10
251.540594495
 20
217.3329370083
 10
258.5734997547
 20
223.8824215473
 10
265.4505758331
 20
231.1529252149
  0
LINE
  5
21F
330
216
100
AcDbEntity
  8
0
  6
Continuous
 62
     7
100
AcDbLine
 10
210.8876535368
 20
201.6504797995
 30
0.0
 11
210.8763898678
 21
201.654832438
 31
0.0
  0
LINE
  5
220
330
216
100
AcDbEntity
  8
0
  6
Continuous
 62
     7
100
AcDbLine
 10
208.6219242429
 20
202.5268987589
 30
0.0
 11
210.8763898678
 21
201.654832438
 31
0.0
  0
LINE
  5
221
330
216
100
AcDbEntity
  8
0
  6
Continuous
 62
     7
100
AcDbLine
 10
212.4157813986
 20
205.5415830676
 30
0.0
 11
211.0225259447
 21
205.963672938
 31
0.0
  0
LINE
  5
222
330
216
100
AcDbEntity
  8
0
  6
Continuous
 62
     7
100
AcDbLine
 10
212.3727210358
 20
205.3652156391
 30
0.0
 11
212.3202377122
 21
205.3854151046
 31
0.0
  0
LWPOLYLINE
  5
223
330
216
100
AcDbEntity
  8
0
  6
Continuous
 62
     7
100
AcDbPolyline
 90
       16
 70
     0
 43
0.0
 10
212.3720190442
 20
205.3655156142
 10
211.099932787
 20
205.9164295929
 10
208.5497843762
 20
207.4728493825
 10
206.4082234782
 20
209.4066639285
 10
204.6191220548
 20
211.6830168364
 10
203.1561306819
 20
214.2683262879
 10
202.0330809202
 20
217.1096522846
 10
201.2759886543
 20
220.1601379502
 10
200.9135247413
 20
223.374063515
 10
200.9715708934
 20
226.7099517011
 10
201.4644833563
 20
230.1022598939
 10
202.3474795845
 20
233.4655586402
 10
203.5480699249
 20
236.7304176843
 10
205.0124185135
 20
239.8409937669
 10
206.7031590104
 20
242.7480839775
 10
208.5926161713
 20
245.3961347213
  0
LINE
  5
224
330
216
100
AcDbEntity
  8
0
  6
Continuous
 62
     7
100
AcDbLine
 10
200.826004998
 20
272.3532813933
 30
0.0
 11
199.9063037492
 21
261.8251800375
 31
0.0
  0
LWPOLYLINE
  5
225
330
216
100
AcDbEntity
  8
0
  6
Continuous
 62
     7
100
AcDbPolyline
 90
       20
 70
     0
 43
0.0
 10
214.2660850283
 20
256.2946593444
 10
212.1440993304
 20
255.3786741986
 10
209.7680656514
 20
253.8708968446
 10
207.3496743447
 20
251.8127869581
 10
204.98149942
 20
249.2414406611
 10
202.7552462753
 20
246.2311042879
 10
200.7461649594
 20
242.8920129143
 10
199.0153046594
 20
239.3419902323
 10
197.6111065585
 20
235.6975434547
 10
196.5569827386
 20
232.0075628391
 10
195.8868959149
 20
228.2832300212
 10
195.6511278594
 20
224.5608179331
 10
195.8656722389
 20
220.8934874614
 10
196.5264192854
 20
217.3572725203
 10
197.6168616809
 20
214.0140366097
 10
199.1222965182
 20
210.9111821454
 10
201.0496366784
 20
208.0940686677
 10
203.4269049245
 20
205.6369623725
 10
206.2768455408
 20
203.6340887134
 10
208.622607139
 20
202.5283474808
  0
LINE
  5
226
330
216
100
AcDbEntity
  8
0
  6
Continuous
 62
     7
100
AcDbLine
 10
224.4648655113
 20
259.766016673
 30
0.0
 11
224.1302176157
 21
259.6546709583
 31
0.0
  0
LINE
  5
227
330
216
100
AcDbEntity
  8
0
  6
Continuous
 62
     7
100
AcDbLine
 10
214.2660745165
 20
256.2946575514
 30
0.0
 11
224.5732213131
 21
259.7241027734999
 31
0.0
  0
LINE
  5
228
330
216
100
AcDbEntity
  8
0
  6
Continuous
 62
     7
100
AcDbLine
 10
237.9739002698
 20
264.1676965935
 30
0.0
 11
230.5757157722
 21
261.7061357971
 31
0.0
  0
LINE
  5
229
330
216
100
AcDbEntity
  8
0
  6
Continuous
 62
     7
100
AcDbLine
 10
214.4646233638
 20
256.2860745804
 30
0.0
 11
224.6769610568
 21
259.6839744453
 31
0.0
  0
LINE
  5
22A
330
216
100
AcDbEntity
  8
0
  6
Continuous
 62
     7
100
AcDbLine
 10
238.308949795
 20
263.556507014
 30
0.0
 11
230.9107652975
 21
261.0949462175
 31
0.0
  0
LWPOLYLINE
  5
22B
330
216
100
AcDbEntity
  8
0
  6
Continuous
 62
     7
100
AcDbPolyline
 90
        5
 70
     0
 43
0.0
 10
208.5926161713
 20
245.3961347213
 10
210.6361046662
 20
247.6970200003
 10
212.7418528154
 20
249.5503785751
 10
214.801051771
 20
250.8939853678
 10
216.5920546657
 20
251.6786541963
  0
LINE
  5
22C
330
216
100
AcDbEntity
  8
0
  6
Continuous
 62
     7
100
AcDbLine
 10
216.7190889887
 20
255.4140082596
 30
0.0
 11
226.9314266817
 21
258.8119081245
 31
0.0
  0
LINE
  5
22D
330
216
100
AcDbEntity
  8
0
  6
Continuous
 62
     7
100
AcDbLine
 10
217.054138514
 20
254.8028186801
 30
0.0
 11
227.2260922521
 21
258.1872817943
 31
0.0
  0
LINE
  5
22E
330
216
100
AcDbEntity
  8
0
  6
Continuous
 62
     7
100
AcDbLine
 10
216.8099700408
 20
252.0077475237
 30
0.0
 11
226.981923779
 21
255.3922106379
 31
0.0
  0
LINE
  5
22F
330
216
100
AcDbEntity
  8
0
  6
Continuous
 62
     7
100
AcDbLine
 10
216.5920798718
 20
251.6786637467
 30
0.0
 11
226.9588382231
 21
255.1279432222
 31
0.0
  0
LINE
  5
230
330
216
100
AcDbEntity
  8
0
  6
Continuous
 62
     7
100
AcDbLine
 10
226.9158957757
 20
254.9447180446
 30
0.0
 11
226.7436039131
 21
254.8873922379
 31
0.0
  0
LINE
  5
231
330
216
100
AcDbEntity
  8
0
  6
Continuous
 62
     7
100
AcDbLine
 10
229.9747861504
 20
250.3805067847
 30
0.0
 11
237.372970648
 21
252.8420675811
 31
0.0
  0
LINE
  5
232
330
216
100
AcDbEntity
  8
0
  6
Continuous
 62
     7
100
AcDbLine
 10
229.7568959814
 20
250.0514230077
 30
0.0
 11
237.155080479
 21
252.5129838042
 31
0.0
  0
LINE
  5
233
330
216
100
AcDbEntity
  8
0
  6
Continuous
 62
     7
100
AcDbLine
 10
224.1232028139
 20
259.5743703769
 30
0.0
 11
224.1302176157
 21
259.6546709583
 31
0.0
  0
LINE
  5
234
330
216
100
AcDbEntity
  8
0
  6
Continuous
 62
     7
100
AcDbLine
 10
227.2488950635
 20
258.4483125478
 30
0.0
 11
226.9518234212
 21
255.0476426409
 31
0.0
  0
LINE
  5
235
330
216
100
AcDbEntity
  8
0
  6
Continuous
 62
     7
100
AcDbLine
 10
230.1340581219
 20
261.0164192226
 30
0.0
 11
229.2143568731
 21
250.4883178669
 31
0.0
  0
LINE
  5
236
330
216
100
AcDbEntity
  8
0
  6
Continuous
 62
     7
100
AcDbLine
 10
230.8371556891
 20
260.9799934551
 30
0.0
 11
229.9174544403
 21
250.4518920994
 31
0.0
  0
LINE
  5
237
330
216
100
AcDbEntity
  8
0
  6
Continuous
 62
     7
100
AcDbLine
 10
191.2165567229
 20
272.0558333376
 30
0.0
 11
191.2226289715
 21
272.0506725512
 31
0.0
  0
LINE
  5
238
330
216
100
AcDbEntity
  8
0
  6
Continuous
 62
     7
100
AcDbLine
 10
195.7995028718
 20
273.5806940079001
 30
0.0
 11
195.8055751204
 21
273.5755332215
 31
0.0
  0
LINE
  5
239
330
216
100
AcDbEntity
  8
0
  6
Continuous
 62
     7
100
AcDbLine
 10
237.4465802564
 20
252.9570203435
 30
0.0
 11
238.3662815052
 21
263.4851216993
 31
0.0
  0
LINE
  5
23A
330
216
100
AcDbEntity
  8
0
  6
Continuous
 62
     7
100
AcDbLine
 10
237.5689390331
 20
253.0588520418
 30
0.0
 11
238.4886402819
 21
263.5869533976
 31
0.0
  0
LINE
  5
23B
330
216
100
AcDbEntity
  8
0
  6
Continuous
 62
     7
100
AcDbLine
 10
261.8598402993
 20
234.7300461407
 30
0.0
 11
264.1143058045
 21
233.8579796855
 31
0.0
  0
LINE
  5
23C
330
216
100
AcDbEntity
  8
0
  6
Continuous
 62
     7
100
AcDbLine
 10
262.1768935693999
 20
234.8564507016
 30
0.0
 11
264.4313592232
 21
233.9843843696
 31
0.0
  0
LINE
  5
23D
330
216
100
AcDbEntity
  8
0
  6
Continuous
 62
     7
100
AcDbLine
 10
199.9173840993
 20
267.3845249139
 30
0.0
 11
199.7801519478
 21
267.4782318575
 31
0.0
  0
LINE
  5
23E
330
216
100
AcDbEntity
  8
0
  6
Continuous
 62
     7
100
AcDbLine
 10
229.3907203818
 20
250.0594267192
 30
0.0
 11
221.2221046529
 21
253.219188654
 31
0.0
  0
LINE
  5
23F
330
216
100
AcDbEntity
  8
0
  6
Continuous
 62
     7
100
AcDbLine
 10
213.7959926236
 20
256.0917373076
 30
0.0
 11
200.0826672579
 21
261.3962888899
 31
0.0
  0
LINE
  5
240
330
216
100
AcDbEntity
  8
0
  6
Continuous
 62
     7
100
AcDbLine
 10
229.2143568731
 20
250.4883178669
 30
0.0
 11
221.7233548176
 21
253.3859671056
 31
0.0
  0
LINE
  5
241
330
216
100
AcDbEntity
  8
0
  6
Continuous
 62
     7
100
AcDbLine
 10
214.2366509778
 20
256.2819537201
 30
0.0
 11
199.9063037492
 21
261.8251800375
 31
0.0
  0
LINE
  5
242
330
216
100
AcDbEntity
  8
0
  6
Continuous
 62
     7
100
AcDbLine
 10
216.7190889887
 20
255.4140082596
 30
0.0
 11
214.4646233638
 21
256.2860745804
 31
0.0
  0
LINE
  5
243
330
216
100
AcDbEntity
  8
0
  6
Continuous
 62
     7
100
AcDbLine
 10
226.7436039131
 20
254.8873922379
 30
0.0
 11
226.5088197238
 21
254.9782108256
 31
0.0
  0
LINE
  5
244
330
216
100
AcDbEntity
  8
02___PRT_ALL_AXES
  6
Continuous
 62
     7
100
AcDbLine
 10
193.0435662917
 20
272.0213846552
 30
0.0
 11
192.9719857802
 21
272.0480987891
 31
0.0
  0
LINE
  5
245
330
216
100
AcDbEntity
  8
0
  6
Continuous
 62
     7
100
AcDbLine
 10
224.3384371239
 20
259.8149213612
 30
0.0
 11
227.0813703009
 21
258.7539073375999
 31
0.0
  0
LINE
  5
246
330
216
100
AcDbEntity
  8
02___PRT_ALL_AXES
  6
Continuous
 62
     7
100
AcDbLine
 10
193.0435662917
 20
272.0213846552
 30
0.0
 11
193.1695376424
 21
271.9726567566
 31
0.0
  0
LINE
  5
247
330
216
100
AcDbEntity
  8
02___PRT_ALL_AXES
  6
Continuous
 62
     7
100
AcDbLine
 10
193.6709402877
 20
271.7787055358
 30
0.0
 11
193.8474057115
 21
271.7104456559
 31
0.0
  0
LINE
  5
248
330
216
100
AcDbEntity
  8
02___PRT_ALL_AXES
  6
Continuous
 62
     7
100
AcDbLine
 10
194.3472799752
 20
271.5170856395
 30
0.0
 11
194.5218169581
 21
271.4495717139
 31
0.0
  0
LINE
  5
249
330
216
100
AcDbEntity
  8
02___PRT_ALL_AXES
  6
Continuous
 62
     7
100
AcDbLine
 10
195.0236196627
 20
271.2554657433
 30
0.0
 11
195.1981502829
 21
271.1879542789
 31
0.0
  0
LINE
  5
24A
330
216
100
AcDbEntity
  8
02___PRT_ALL_AXES
  6
Continuous
 62
     7
100
AcDbLine
 10
195.6999593502
 20
270.9938458471
 30
0.0
 11
195.8764104951
 21
270.9255914904
 31
0.0
  0
LINE
  5
24B
330
216
100
AcDbEntity
  8
02___PRT_ALL_AXES
  6
Continuous
 62
     7
100
AcDbLine
 10
196.3762990376
 20
270.7322259508
 30
0.0
 11
196.551288382
 21
270.664537044
 31
0.0
  0
LINE
  5
24C
330
216
100
AcDbEntity
  8
02___PRT_ALL_AXES
  6
Continuous
 62
     7
100
AcDbLine
 10
197.0526387251
 20
270.4706060546
 30
0.0
 11
197.2267178596
 21
270.4032692326
 31
0.0
  0
LINE
  5
24D
330
216
100
AcDbEntity
  8
02___PRT_ALL_AXES
  6
Continuous
 62
     7
100
AcDbLine
 10
197.7289784126
 20
270.2089861583
 30
0.0
 11
197.905362854
 21
270.1407576038
 31
0.0
  0
LINE
  5
24E
330
216
100
AcDbEntity
  8
02___PRT_ALL_AXES
  6
Continuous
 62
     7
100
AcDbLine
 10
198.4053181001
 20
269.9473662621
 30
0.0
 11
198.5806963584
 21
269.8795269166
 31
0.0
  0
LINE
  5
24F
330
216
100
AcDbEntity
  8
02___PRT_ALL_AXES
  6
Continuous
 62
     7
100
AcDbLine
 10
199.0816577875
 20
269.6857463658
 30
0.0
 11
199.2552410973
 21
269.6186013375
 31
0.0
  0
LINE
  5
250
330
216
100
AcDbEntity
  8
02___PRT_ALL_AXES
  6
Continuous
 62
     7
100
AcDbLine
 10
199.757997475
 20
269.4241264696
 30
0.0
 11
199.934263878
 21
269.3559435743
 31
0.0
  0
LINE
  5
251
330
216
100
AcDbEntity
  8
02___PRT_ALL_AXES
  6
Continuous
 62
     7
100
AcDbLine
 10
200.4343371625
 20
269.1625065733
 30
0.0
 11
200.5435777567
 21
269.1202504209
 31
0.0
  0
LINE
  5
252
330
216
100
AcDbEntity
  8
02___PRT_ALL_AXES
  6
Continuous
 62
     7
100
AcDbLine
 10
197.6265124407
 20
273.5462453255
 30
0.0
 11
197.5549319291
 21
273.5729594595
 31
0.0
  0
LINE
  5
253
330
216
100
AcDbEntity
  8
02___PRT_ALL_AXES
  6
Continuous
 62
     7
100
AcDbLine
 10
197.6265124407
 20
273.5462453255
 30
0.0
 11
197.7524837914
 21
273.4975174269
 31
0.0
  0
LINE
  5
254
330
216
100
AcDbEntity
  8
02___PRT_ALL_AXES
  6
Continuous
 62
     7
100
AcDbLine
 10
198.2538864367
 20
273.3035662061
 30
0.0
 11
198.4303518604
 21
273.2353063262
 31
0.0
  0
LINE
  5
255
330
216
100
AcDbEntity
  8
02___PRT_ALL_AXES
  6
Continuous
 62
     7
100
AcDbLine
 10
198.9302261241999
 20
273.0419463099
 30
0.0
 11
199.1047631071
 21
272.9744323843
 31
0.0
  0
LINE
  5
256
330
216
100
AcDbEntity
  8
02___PRT_ALL_AXES
  6
Continuous
 62
     7
100
AcDbLine
 10
199.6065658116
 20
272.7803264136
 30
0.0
 11
199.7810964319
 21
272.7128149492
 31
0.0
  0
LINE
  5
257
330
216
100
AcDbEntity
  8
02___PRT_ALL_AXES
  6
Continuous
 62
     7
100
AcDbLine
 10
200.2829054991
 20
272.5187065174
 30
0.0
 11
200.459356644
 21
272.4504521608
 31
0.0
  0
LINE
  5
258
330
216
100
AcDbEntity
  8
0
  6
Continuous
 62
     7
100
AcDbLine
 10
230.1340581219
 20
261.0164192226
 30
0.0
 11
200.826004998
 21
272.3532813933
 31
0.0
  0
LINE
  5
259
330
216
100
AcDbEntity
  8
0
  6
Continuous
 62
     7
100
AcDbLine
 10
230.5757157722
 20
261.7061357971
 30
0.0
 11
201.2676626483
 21
273.0429979677
 31
0.0
  0
LWPOLYLINE
  5
25A
330
216
100
AcDbEntity
  8
0
  6
Continuous
 62
     7
100
AcDbPolyline
 90
       10
 70
     0
 43
0.0
 10
261.6233514719
 20
234.7229182955
 10
255.0152065523
 20
227.7323564484
 10
248.2680500548
 20
221.4347156696
 10
241.5986875199
 20
216.0200654009
 10
235.5587027119
 20
211.8056561122
 10
230.0874422871
 20
208.6470275814
 10
225.1211701924
 20
206.5297976701
 10
220.5515842532
 20
205.3763130791
 10
216.2925359044
 20
205.0694240794
 10
212.4157813986
 20
205.5415830676
  0
LINE
  5
25B
330
216
100
AcDbEntity
  8
0
  6
Continuous
 62
     7
100
AcDbLine
 10
237.9739002698
 20
264.1676965935
 30
0.0
 11
208.6658471459
 21
275.5045587641
 31
0.0
  0
LINE
  5
25C
330
216
100
AcDbEntity
  8
0
  6
Continuous
 62
     7
100
AcDbLine
 10
238.141527022
 20
264.168275853
 30
0.0
 11
208.8334738981
 21
275.5051380236
 31
0.0
  0
LINE
  5
25D
330
216
100
AcDbEntity
  8
0
  6
Continuous
 62
     7
100
AcDbLine
 10
264.6267188638
 20
233.37271428
 30
0.0
 11
265.4531438479001
 21
231.3403562508
 31
0.0
  0
LINE
  5
25E
330
216
100
AcDbEntity
  8
0
  6
Continuous
 62
     7
100
AcDbLine
 10
264.7141459207
 20
233.7063996505
 30
0.0
 11
265.5405708926
 21
231.6740416381
 31
0.0
  0
ARC
  5
25F
330
216
100
AcDbEntity
  8
0
  6
Continuous
 62
     7
100
AcDbCircle
 10
216.8075636953
 20
220.6567577793
 30
0.0
 40
20.1101974171
100
AcDbArc
 50
215.9155215376
 51
220.233774427
  0
ARC
  5
260
330
216
100
AcDbEntity
  8
0
  6
Continuous
 62
     7
100
AcDbCircle
 10
215.1832756563
 20
219.1448641591
 30
0.0
 40
17.8885907234
100
AcDbArc
 50
228.1002888698
 51
229.8268565581
  0
ARC
  5
261
330
216
100
AcDbEntity
  8
0
  6
Continuous
 62
     7
100
AcDbCircle
 10
217.248108121
 20
218.1373535177
 30
0.0
 40
17.6712278759
100
AcDbArc
 50
241.864419684
 51
248.8647816276
  0
ARC
  5
262
330
216
100
AcDbEntity
  8
0
  6
Continuous
 62
     7
100
AcDbCircle
 10
216.3857327911
 20
222.75012561
 30
0.0
 40
17.6637822236
100
AcDbArc
 50
252.5327417318
 51
256.960051607
  0
ARC
  5
263
330
216
100
AcDbEntity
  8
0
  6
Continuous
 62
     7
100
AcDbCircle
 10
214.9810284848
 20
218.9792896502
 30
0.0
 40
17.6385762691
100
AcDbArc
 50
240.9107606462
 51
248.8677098108
  0
ARC
  5
264
330
216
100
AcDbEntity
  8
0
  6
Continuous
 62
     7
100
AcDbCircle
 10
214.8763147267
 20
218.7638078429
 30
0.0
 40
17.3994094443
100
AcDbArc
 50
229.7897418139
 51
239.9300254108001
  0
ARC
  5
265
330
216
100
AcDbEntity
  8
0
  6
Continuous
 62
     7
100
AcDbCircle
 10
217.1103327081
 20
217.8611626195
 30
0.0
 40
17.3627061818
100
AcDbArc
 50
241.1178722215
 51
241.8355604609
  0
ARC
  5
266
330
216
100
AcDbEntity
  8
0
  6
Continuous
 62
     7
100
AcDbCircle
 10
214.8413143006
 20
218.7069644318
 30
0.0
 40
17.3326792295
100
AcDbArc
 50
239.9360022158
 51
240.8766940488
  0
ARC
  5
267
330
216
100
AcDbEntity
  8
0
  6
Continuous
 62
     7
100
AcDbCircle
 10
218.304283598
 20
244.7470087275
 30
0.0
 40
12.1611278865
100
AcDbArc
 50
108.405024531
 51
109.2084911286
  0
ARC
  5
268
330
216
100
AcDbEntity
  8
0
  6
Continuous
 62
     7
100
AcDbCircle
 10
220.0685780008
 20
242.2193052543
 30
0.0
 40
10.3165947821
100
AcDbArc
 50
108.41278778
 51
110.1841075845999
  0
ARC
  5
269
330
216
100
AcDbEntity
  8
02___PRT_ALL_AXES
  6
Continuous
 62
     7
100
AcDbCircle
 10
198.2285733243999
 20
275.1135173199001
 30
0.0
 40
3.1786511431
100
AcDbArc
 50
239.5448258585
 51
241.0985485367
  0
ARC
  5
26A
330
216
100
AcDbEntity
  8
02___PRT_ALL_AXES
  6
Continuous
 62
     7
100
AcDbCircle
 10
193.6456271755
 20
273.5886566497
 30
0.0
 40
3.178651143199999
100
AcDbArc
 50
239.5448258585
 51
241.0985485366
  0
ARC
  5
26B
330
216
100
AcDbEntity
  8
02___PRT_ALL_AXES
  6
Continuous
 62
     7
100
AcDbCircle
 10
196.4838247606
 20
270.6248869422
 30
0.0
 40
3.1358393243
100
AcDbArc
 50
79.596683804
 51
85.40619853409999
  0
ARC
  5
26C
330
216
100
AcDbEntity
  8
02___PRT_ALL_AXES
  6
Continuous
 62
     7
100
AcDbCircle
 10
191.9008786117
 20
269.1000262719
 30
0.0
 40
3.1358393243
100
AcDbArc
 50
79.596683804
 51
85.40619853409999
  0
ARC
  5
26D
330
216
100
AcDbEntity
  8
02___PRT_ALL_AXES
  6
Continuous
 62
     7
100
AcDbCircle
 10
198.1334770684
 20
274.987268592
 30
0.0
 40
3.0202890836
100
AcDbArc
 50
226.2491336984
 51
228.2062115049
  0
ARC
  5
26E
330
216
100
AcDbEntity
  8
02___PRT_ALL_AXES
  6
Continuous
 62
     7
100
AcDbCircle
 10
193.5505309195
 20
273.4624079217
 30
0.0
 40
3.0202890837
100
AcDbArc
 50
226.2491336985
 51
228.2062115048
  0
ARC
  5
26F
330
216
100
AcDbEntity
  8
02___PRT_ALL_AXES
  6
Continuous
 62
     7
100
AcDbCircle
 10
198.0880941317
 20
274.9407905804
 30
0.0
 40
2.955332209899999
100
AcDbArc
 50
222.611813875
 51
226.2615776792
  0
ARC
  5
270
330
216
100
AcDbEntity
  8
02___PRT_ALL_AXES
  6
Continuous
 62
     7
100
AcDbCircle
 10
193.5051479829
 20
273.4159299102
 30
0.0
 40
2.955332209999999
100
AcDbArc
 50
222.6118138751
 51
226.2615776791
  0
ARC
  5
271
330
216
100
AcDbEntity
  8
0
  6
Continuous
 62
     7
100
AcDbCircle
 10
198.7075711117
 20
268.9721816856
 30
0.0
 40
1.220616430099999
100
AcDbArc
 50
188.9984913875
 51
194.0192945491
  0
ARC
  5
272
330
216
100
AcDbEntity
  8
0
  6
Continuous
 62
     7
100
AcDbCircle
 10
200.5550989413
 20
271.5364201406
 30
0.0
 40
1.1897341341
100
AcDbArc
 50
191.7788703859
 51
194.0080117058
  0
ARC
  5
273
330
216
100
AcDbEntity
  8
0
  6
Continuous
 62
     7
100
AcDbCircle
 10
195.9721527925
 20
270.0115594702999
 30
0.0
 40
1.1897341342
100
AcDbArc
 50
191.7788703861
 51
194.0080117056
  0
ARC
  5
274
330
216
100
AcDbEntity
  8
0
  6
Continuous
 62
     7
100
AcDbCircle
 10
197.9951149431
 20
269.2252483324001
 30
0.0
 40
1.183506769
100
AcDbArc
 50
192.1800152341
 51
194.0028016324
  0
ARC
  5
275
330
216
100
AcDbEntity
  8
0
  6
Continuous
 62
     7
100
AcDbCircle
 10
200.0181670238
 20
268.4389444417
 30
0.0
 40
1.177368196099999
100
AcDbArc
 50
192.5836015816999
 51
193.9961020296
  0
ARC
  5
276
330
216
100
AcDbEntity
  8
0
  6
Continuous
 62
     7
100
AcDbCircle
 10
199.8328071713
 20
271.7865870874
 30
0.0
 40
1.1423781204
100
AcDbArc
 50
193.9727538485
 51
195.0548407081
  0
ARC
  5
277
330
216
100
AcDbEntity
  8
0
  6
Continuous
 62
     7
100
AcDbCircle
 10
195.2498610224
 20
270.2617264171
 30
0.0
 40
1.1423781204
100
AcDbArc
 50
193.9727538485
 51
195.0548407081
  0
ARC
  5
278
330
216
100
AcDbEntity
  8
0
  6
Continuous
 62
     7
100
AcDbCircle
 10
197.2735122338
 20
269.475467841
 30
0.0
 40
1.1368308365
100
AcDbArc
 50
193.9835507413
 51
195.4738302421
  0
ARC
  5
279
330
216
100
AcDbEntity
  8
0
  6
Continuous
 62
     7
100
AcDbCircle
 10
199.297169183
 20
268.6891998202999
 30
0.0
 40
1.131286755199999
100
AcDbArc
 50
193.9922154654
 51
195.8950902412
  0
ARC
  5
27A
330
216
100
AcDbEntity
  8
0
  6
Continuous
 62
     7
100
AcDbCircle
 10
236.9157793675
 20
253.1167256475
 30
0.0
 40
0.6557186157000001
100
AcDbArc
 50
343.7534643268
 51
354.9364964171
  0
ARC
  5
27B
330
216
100
AcDbEntity
  8
0
  6
Continuous
 62
     7
100
AcDbCircle
 10
198.2971916424
 20
272.263544267
 30
0.0
 40
0.5574151694000001
100
AcDbArc
 50
214.5151422297
 51
217.1446308299
  0
ARC
  5
27C
330
216
100
AcDbEntity
  8
0
  6
Continuous
 62
     7
100
AcDbCircle
 10
193.7142454934999
 20
270.7386835967
 30
0.0
 40
0.5574151694000001
100
AcDbArc
 50
214.5151422297
 51
217.1446308299
  0
ARC
  5
27D
330
216
100
AcDbEntity
  8
0
  6
Continuous
 62
     7
100
AcDbCircle
 10
261.9965064502
 20
234.3901299661
 30
0.0
 40
0.4999927096000001
100
AcDbArc
 50
92.64659049530001
 51
138.2725412877
  0
ARC
  5
27E
330
216
100
AcDbEntity
  8
0
  6
Continuous
 62
     7
100
AcDbCircle
 10
264.2510070657
 20
233.5181058952
 30
0.0
 40
0.4999433997000001
100
AcDbArc
 50
22.1168749284
 51
68.8537799701
  0
ARC
  5
27F
330
216
100
AcDbEntity
  8
0
  6
Continuous
 62
     7
100
AcDbCircle
 10
196.2213043546
 20
273.3834685368
 30
0.0
 40
0.4656333078000001
100
AcDbArc
 50
154.9402016968
 51
155.2317139933
  0
ARC
  5
280
330
216
100
AcDbEntity
  8
0
  6
Continuous
 62
     7
100
AcDbCircle
 10
191.6383582056
 20
271.8586078665
 30
0.0
 40
0.4656333078000001
100
AcDbArc
 50
154.9402016968
 51
155.2317139933
  0
ARC
  5
281
330
216
100
AcDbEntity
  8
0
  6
Continuous
 62
     7
100
AcDbCircle
 10
200.1967845229
 20
269.1956136905
 30
0.0
 40
0.4205852944
100
AcDbArc
 50
27.6098521823
 51
32.24805056520001
  0
ARC
  5
282
330
216
100
AcDbEntity
  8
0
  6
Continuous
 62
     7
100
AcDbCircle
 10
237.5056764667
 20
253.0643503759
 30
0.0
 40
0.0634905642
100
AcDbArc
 50
344.4884327984
 51
355.0327417242
  0
SPLINE
  5
283
330
216
100
AcDbEntity
  8
02___PRT_ALL_AXES
  6
Continuous
 62
     7
100
AcDbSpline
210
0.0
220
0.0
230
1.0
 70
  1064
 71
     3
 72
     9
 73
     5
 74
     3
 42
0.000000001
 43
0.0000000001
 44
0.0000000001
 12
0.4346248679305294
 22
-0.9006115834122777
 32
0.0
 13
0.6052241617998046
 23
-0.7960550948104811
 33
0.0
 40
0.0
 40
0.0
 40
0.0
 40
0.0
 40
0.1203216713709678
 40
0.5062277460177298
 40
0.5062277460177298
 40
0.5062277460177298
 40
0.5062277460177298
 10
195.477215528
 20
273.573475396
 30
0.0
 10
195.4946471248429
 20
273.5373543656759
 30
0.0
 10
195.5720695624495
 20
273.3873750917537
 30
0.0
 10
195.6650680611461
 20
273.2455392716803
 30
0.0
 10
195.742921288
 20
273.1431384394
 30
0.0
 11
195.477215528
 21
273.573475396
 31
0.0
 11
195.5323310424
 21
273.4665194019
 31
0.0
 11
195.742921288
 21
273.1431384394
 31
0.0
  0
SPLINE
  5
284
330
216
100
AcDbEntity
  8
0
  6
Continuous
 62
     7
100
AcDbSpline
210
0.0
220
0.0
230
1.0
 70
  1064
 71
     3
 72
    19
 73
    15
 74
    13
 42
0.000000001
 43
0.0000000001
 44
0.0000000001
 12
0.3433849387526928
 22
0.9391947528802582
 32
0.0
 13
0.0576567882692118
 23
-0.9983364637067403
 33
0.0
 40
0.0
 40
0.0
 40
0.0
 40
0.0
 40
0.2888066419946778
 40
0.5509102953084227
 40
0.7760965831847999
 40
0.8736875760264204
 40
0.961694211774644
 40
1.041717782231696
 40
1.1165182007196
 40
1.189837654663363
 40
1.2657382844765
 40
1.347732562054287
 40
1.438260775104794
 40
1.648707898085402
 40
1.648707898085402
 40
1.648707898085402
 40
1.648707898085402
 10
199.4742309383
 20
272.1998374782
 30
0.0
 10
199.5072882219909
 20
272.2902527057861
 30
0.0
 10
199.5839147576767
 20
272.4582689735245
 30
0.0
 10
199.7307674602519
 20
272.6727534527499
 30
0.0
 10
199.8735069278512
 20
272.8089928100578
 30
0.0
 10
199.9918264554524
 20
272.87905294064
 30
0.0
 10
200.0753749143266
 20
272.9100606883855
 30
0.0
 10
200.1563218896736
 20
272.9212313041339
 30
0.0
 10
200.2327571398083
 20
272.9118158766115
 30
0.0
 10
200.3022250620928
 20
272.8817146105797
 30
0.0
 10
200.3623246776112
 20
272.8320125423385
 30
0.0
 10
200.4116188574524
 20
272.7645758919276
 30
0.0
 10
200.4644244881221
 20
272.6476226488173
 30
0.0
 10
200.4808898128962
 20
272.5467200338179
 30
0.0
 10
200.4849343813
 20
272.4766876883001
 30
0.0
 11
199.4742309383
 21
272.1998374782
 31
0.0
 11
199.5952185382
 21
272.462080261
 31
0.0
 11
199.7454827835
 21
272.6768335652
 31
0.0
 11
199.9115564788
 21
272.8289137808
 31
0.0
 11
199.9959472547
 21
272.8779260122
 31
0.0
 11
200.0787528223
 21
272.907732151
 31
0.0
 11
200.1581326701
 21
272.917861889
 31
0.0
 11
200.2323114008
 21
272.9082380375
 31
0.0
 11
200.2996173897
 21
272.8791580412
 31
0.0
 11
200.3584968115
 21
272.8312610758
 31
0.0
 11
200.4075661457
 21
272.765570422
 31
0.0
 11
200.4456246275
 21
272.6834308498
 31
0.0
 11
200.4849343813
 21
272.4766876883001
 31
0.0
  0
SPLINE
  5
285
330
216
100
AcDbEntity
  8
0
  6
Continuous
 62
     7
100
AcDbSpline
210
0.0
220
0.0
230
1.0
 70
  1064
 71
     3
 72
    11
 73
     7
 74
     5
 42
0.000000001
 43
0.0000000001
 44
0.0000000001
 12
-0.9615215207086208
 22
-0.2747296220180512
 32
0.0
 13
-0.4084765878951311
 23
0.91276879719979
 33
0.0
 40
0.0
 40
0.0
 40
0.0
 40
0.0
 40
0.2258464012675471
 40
0.4377007833239837
 40
0.6539222014101379
 40
0.8906388921174034
 40
0.8906388921174034
 40
0.8906388921174034
 40
0.8906388921174034
 10
197.4874774462
 20
271.7613255705
 30
0.0
 10
197.4150920544689
 20
271.7406433383485
 30
0.0
 10
197.2670407279571
 20
271.7208406811667
 30
0.0
 10
197.0503361931562
 20
271.777340984295
 30
0.0
 10
196.871924781152
 20
271.917943359281
 30
0.0
 10
196.7916331650726
 20
272.0491478359487
 30
0.0
 10
196.7594020897
 20
272.1211703723
 30
0.0
 11
197.4874774462
 21
271.7613255705
 31
0.0
 11
197.2631068944
 21
271.7355485953
 31
0.0
 11
197.0583908601
 21
271.7900795452
 31
0.0
 11
196.8868286850999
 21
271.9216778801
 31
0.0
 11
196.7594020897
 21
272.1211703723
 31
0.0
  0
SPLINE
  5
286
330
216
100
AcDbEntity
  8
0
  6
Continuous
 62
     7
100
AcDbSpline
210
0.0
220
0.0
230
1.0
 70
  1064
 71
     3
 72
    14
 73
    10
 74
     8
 42
0.000000001
 43
0.0000000001
 44
0.0000000001
 12
-0.4084765878740614
 22
0.9127687972092191
 32
0.0
 13
0.9127037428452513
 23
0.408621925251533
 33
0.0
 40
0.0
 40
0.0
 40
0.0
 40
0.0
 40
0.501409849325663
 40
0.7778996488005983
 40
1.057922662028008
 40
1.329573313837802
 40
1.581068444401259
 40
1.802522402065624
 40
1.988279445437489
 40
1.988279445437489
 40
1.988279445437489
 40
1.988279445437489
 10
196.7594020897
 20
272.1211703723
 30
0.0
 10
196.691130694907
 20
272.2737274606593
 30
0.0
 10
196.6487242065842
 20
272.5393788490991
 30
0.0
 10
196.6777891796123
 20
272.8909337561471
 30
0.0
 10
196.7423004955398
 20
273.1607039977669
 30
0.0
 10
196.8428492924564
 20
273.4098339324037
 30
0.0
 10
196.9713372707456
 20
273.62365832623
 30
0.0
 10
197.1175135986874
 20
273.7891550392629
 30
0.0
 10
197.2307992059515
 20
273.8681525301028
 30
0.0
 10
197.2873129222
 20
273.893453997
 30
0.0
 11
196.7594020897
 21
272.1211703723
 31
0.0
 11
196.6629607629
 21
272.6132180402
 31
0.0
 11
196.684618605
 21
272.8888582896
 31
0.0
 11
196.7496747708
 21
273.1612194161
 31
0.0
 11
196.8520544525
 21
273.412839124
 31
0.0
 11
196.983121593
 21
273.6274811641
 31
0.0
 11
197.1322137914
 21
273.7912290549
 31
0.0
 11
197.2873129222
 21
273.893453997
 31
0.0
  0
SPLINE
  5
287
330
216
100
AcDbEntity
  8
02___PRT_ALL_AXES
  6
Continuous
 62
     7
100
AcDbSpline
210
0.0
220
0.0
230
1.0
 70
  1064
 71
     3
 72
     9
 73
     5
 74
     3
 42
0.000000001
 43
0.0000000001
 44
0.0000000001
 12
-0.9993676574934815
 22
-0.0355567877625565
 32
0.0
 13
-0.9275501448485993
 23
-0.3736987139278682
 33
0.0
 40
0.0
 40
0.0
 40
0.0
 40
0.0
 40
0.2450366035781205
 40
0.9277493827872849
 40
0.9277493827872849
 40
0.9277493827872849
 40
0.9277493827872849
 10
196.3836866619
 20
273.7585861363001
 30
0.0
 10
196.3020594430606
 20
273.7556818981309
 30
0.0
 10
195.993696523632
 20
273.7320683275729
 30
0.0
 10
195.6882989737484
 20
273.6585183585242
 30
0.0
 10
195.477215528
 20
273.573475396
 30
0.0
 11
196.3836866619
 21
273.7585861363001
 31
0.0
 11
196.1393770504
 21
273.7397247784
 31
0.0
 11
195.477215528
 21
273.573475396
 31
0.0
  0
SPLINE
  5
288
330
216
100
AcDbEntity
  8
0
  6
Continuous
 62
     7
100
AcDbSpline
210
0.0
220
0.0
230
1.0
 70
  1064
 71
     3
 72
    11
 73
     7
 74
     5
 42
0.000000001
 43
0.0000000001
 44
0.0000000001
 12
-0.9991158218154016
 22
0.0420425332031139
 32
0.0
 13
-0.2426575752051589
 23
0.9701120044590485
 33
0.0
 40
0.0
 40
0.0
 40
0.0
 40
0.0
 40
0.2008265316303054
 40
0.4033939605749226
 40
0.6220170929787987
 40
0.8642078802222162
 40
0.8642078802222162
 40
0.8642078802222162
 40
0.8642078802222162
 10
200.6567958748
 20
270.4261854189
 30
0.0
 10
200.5899128864026
 20
270.4289998376081
 30
0.0
 10
200.4549308324169
 20
270.4586890689181
 30
0.0
 10
200.2805435429749
 20
270.5792546806562
 30
0.0
 10
200.1497537236351
 20
270.7618574895554
 30
0.0
 10
200.0968278725232
 20
270.9078946313086
 30
0.0
 10
200.0772380628
 20
270.986212028
 30
0.0
 11
200.6567958748
 21
270.4261854189
 31
0.0
 11
200.4609380988
 21
270.4705816731
 31
0.0
 11
200.2931505967
 21
270.5840758025
 31
0.0
 11
200.1629368183
 21
270.7596902835
 31
0.0
 11
200.0772380628
 21
270.986212028
 31
0.0
  0
SPLINE
  5
289
330
216
100
AcDbEntity
  8
0
  6
Continuous
 62
     7
100
AcDbSpline
210
0.0
220
0.0
230
1.0
 70
  1064
 71
     3
 72
    11
 73
     7
 74
     5
 42
0.000000001
 43
0.0000000001
 44
0.0000000001
 12
-0.2426575751675951
 22
0.9701120044684444
 32
0.0
 13
0.6231501980520559
 23
0.7821021868449697
 33
0.0
 40
0.0
 40
0.0
 40
0.0
 40
0.0
 40
0.3594320046004182
 40
0.7428755734249229
 40
1.122784887647034
 40
1.469403783398266
 40
1.469403783398266
 40
1.469403783398266
 40
1.469403783398266
 10
200.0772380628
 20
270.986212028
 30
0.0
 10
200.0481650965753
 20
271.1024417954844
 30
0.0
 10
200.024644357227
 20
271.3522556553117
 30
0.0
 10
200.0738579808535
 20
271.7257771338243
 30
0.0
 10
200.1945568416087
 20
272.077925376687
 30
0.0
 10
200.319546638188
 20
272.2883747748104
 30
0.0
 10
200.3915451827
 20
272.3787385736
 30
0.0
 11
200.0772380628
 21
270.986212028
 31
0.0
 11
200.0385334632
 21
271.3435540489
 31
0.0
 11
200.0865149274
 21
271.7239837396
 31
0.0
 11
200.2107512743
 21
272.0830052113
 31
0.0
 11
200.3915451827
 21
272.3787385736
 31
0.0
  0
SPLINE
  5
28A
330
216
100
AcDbEntity
  8
0
  6
Continuous
 62
     7
100
AcDbSpline
210
0.0
220
0.0
230
1.0
 70
  1064
 71
     3
 72
    11
 73
     7
 74
     5
 42
0.000000001
 43
0.0000000001
 44
0.0000000001
 12
0.6231501980517478
 22
0.7821021868452151
 32
0.0
 13
0.9707479054741668
 23
-0.2401010287723023
 33
0.0
 40
0.0
 40
0.0
 40
0.0
 40
0.0
 40
0.1865846565364993
 40
0.3482406354568551
 40
0.4857748880738164
 40
0.6057419830888461
 40
0.6057419830888461
 40
0.6057419830888461
 40
0.6057419830888461
 10
200.3915451827
 20
272.3787385736
 30
0.0
 10
200.4303019379247
 20
272.4273813295696
 30
0.0
 10
200.5096888508136
 20
272.5130288816987
 30
0.0
 10
200.6421548353049
 20
272.6084680465922
 30
0.0
 10
200.7748201884321
 20
272.6586887649056
 30
0.0
 10
200.8635354197628
 20
272.657864985344
 30
0.0
 10
200.9023546885
 20
272.6482635777
 30
0.0
 11
200.3915451827
 21
272.3787385736
 31
0.0
 11
200.5198428583
 21
272.514213813
 31
0.0
 11
200.6525595816
 21
272.6065118459
 31
0.0
 11
200.7824384746
 21
272.6517572191
 31
0.0
 11
200.9023546885
 21
272.6482635777
 31
0.0
  0
SPLINE
  5
28B
330
216
100
AcDbEntity
  8
0
  6
Continuous
 62
     7
100
AcDbSpline
210
0.0
220
0.0
230
1.0
 70
  1064
 71
     3
 72
    12
 73
     8
 74
     6
 42
0.000000001
 43
0.0000000001
 44
0.0000000001
 12
-0.9632802522083105
 22
-0.2684979621998903
 32
0.0
 13
-0.2422176135149942
 23
0.9702219476506915
 33
0.0
 40
0.0
 40
0.0
 40
0.0
 40
0.0
 40
0.2626730763696723
 40
0.387475662058606
 40
0.5122844470496122
 40
0.7750010119161109
 40
1.072185328854049
 40
1.072185328854049
 40
1.072185328854049
 40
1.072185328854049
 10
200.1871766081
 20
270.7131419577
 30
0.0
 10
200.1028340123488
 20
270.68963289579
 30
0.0
 10
199.9693781782803
 20
270.6764773220551
 30
0.0
 10
199.8027207905199
 20
270.7194595945143
 30
0.0
 10
199.6503855691628
 20
270.8000602961246
 30
0.0
 10
199.4929116252801
 20
270.9750239316355
 30
0.0
 10
199.4247396786409
 20
271.1523244045364
 30
0.0
 10
199.4007452533
 20
271.2484359868
 30
0.0
 11
200.1871766081
 21
270.7131419577
 31
0.0
 11
199.9252937296
 21
270.692782611
 31
0.0
 11
199.80446892
 21
270.7240404225
 31
0.0
 11
199.6940983301
 21
270.7823119052
 31
0.0
 11
199.5141803598
 21
270.973752542
 31
0.0
 11
199.4007452533
 21
271.2484359868
 31
0.0
  0
SPLINE
  5
28C
330
216
100
AcDbEntity
  8
0
  6
Continuous
 62
     7
100
AcDbSpline
210
0.0
220
0.0
230
1.0
 70
  1064
 71
     3
 72
     9
 73
     5
 74
     3
 42
0.000000001
 43
0.0000000001
 44
0.0000000001
 12
-0.2042929213556252
 22
0.9789098029358907
 32
0.0
 13
0.3433849386973267
 23
0.939194752900501
 33
0.0
 40
0.0
 40
0.0
 40
0.0
 40
0.0
 40
0.4482938684215469
 40
0.9185105315918612
 40
0.9185105315918612
 40
0.9185105315918612
 40
0.9185105315918612
 10
199.3904173524
 20
271.2935537038
 30
0.0
 10
199.3598895977314
 20
271.4398334579313
 30
0.0
 10
199.3508056872169
 20
271.7511409127475
 30
0.0
 10
199.4204091649476
 20
272.0526291372747
 30
0.0
 10
199.4742309383
 20
272.1998374782
 30
0.0
 11
199.3904173524
 21
271.2935537038
 31
0.0
 11
199.3697665073
 21
271.7413716747
 31
0.0
 11
199.4742309383
 21
272.1998374782
 31
0.0
  0
SPLINE
  5
28D
330
216
100
AcDbEntity
  8
0
  6
Continuous
 62
     7
100
AcDbSpline
210
0.0
220
0.0
230
1.0
 70
  1064
 71
     3
 72
    12
 73
     8
 74
     6
 42
0.000000001
 43
0.0000000001
 44
0.0000000001
 12
-0.9609625230469227
 22
-0.2766785667508289
 32
0.0
 13
-0.2597869107626284
 23
0.9656659676080597
 33
0.0
 40
0.0
 40
0.0
 40
0.0
 40
0.0
 40
0.2607152475380666
 40
0.3843533578611522
 40
0.5076931881825018
 40
0.7663094861235109
 40
1.058092338412454
 40
1.058092338412454
 40
1.058092338412454
 40
1.058092338412454
 10
199.5172275424
 20
270.9765684242
 30
0.0
 10
199.433715015043
 20
270.952523650527
 30
0.0
 10
199.3016592719435
 20
270.9379250912265
 30
0.0
 10
199.1358181216011
 20
270.9776460023757
 30
0.0
 10
198.9839471941756
 20
271.0541458592441
 30
0.0
 10
198.8253083971831
 20
271.2229128980223
 30
0.0
 10
198.7549052688365
 20
271.395940247971
 30
0.0
 10
198.7296381469
 20
271.4898618381
 30
0.0
 11
199.5172275424
 21
270.9765684242
 31
0.0
 11
199.2575552157
 21
270.9532720072
 31
0.0
 11
199.1373469561
 21
270.9821918386
 31
0.0
 11
199.0271673721
 21
271.0376280453
 31
0.0
 11
198.8461865592
 21
271.2223666036
 31
0.0
 11
198.7296381469
 21
271.4898618381
 31
0.0
  0
SPLINE
  5
28E
330
216
100
AcDbEntity
  8
0
  6
Continuous
 62
     7
100
AcDbSpline
210
0.0
220
0.0
230
1.0
 70
  1064
 71
     3
 72
    11
 73
     7
 74
     5
 42
0.000000001
 43
0.0000000001
 44
0.0000000001
 12
-0.2415037105690495
 22
0.9703998958065593
 32
0.0
 13
0.423840573502973
 23
0.9057368095935327
 33
0.0
 40
0.0
 40
0.0
 40
0.0
 40
0.0
 40
0.2662581009798405
 40
0.5492511938329356
 40
0.8384835253597795
 40
1.121535864088682
 40
1.121535864088682
 40
1.121535864088682
 40
1.121535864088682
 10
198.7242312667
 20
271.5107479425
 30
0.0
 10
198.7027971602481
 20
271.5968735536495
 30
0.0
 10
198.6787116301879
 20
271.779827509072
 30
0.0
 10
198.6922417426373
 20
272.0601862412332
 30
0.0
 10
198.7507454801341
 20
272.340316072864
 30
0.0
 10
198.8176655745739
 20
272.5199054883239
 30
0.0
 10
198.8576552631
 20
272.6053624624
 30
0.0
 11
198.7242312667
 21
271.5107479425
 31
0.0
 11
198.6871883015
 21
271.7744166647
 31
0.0
 11
198.6994559972
 21
272.0571437314
 31
0.0
 11
198.7582624818
 21
272.3403347252
 31
0.0
 11
198.8576552631
 21
272.6053624624
 31
0.0
  0
SPLINE
  5
28F
330
216
100
AcDbEntity
  8
0
  6
Continuous
 62
     7
100
AcDbSpline
210
0.0
220
0.0
230
1.0
 70
  1064
 71
     3
 72
    17
 73
    13
 74
    11
 42
0.000000001
 43
0.0000000001
 44
0.0000000001
 12
0.4238405735015561
 22
0.9057368095941956
 32
0.0
 13
0.0618781648465818
 23
-0.9980837102744535
 33
0.0
 40
0.0
 40
0.0
 40
0.0
 40
0.0
 40
0.2582667736345345
 40
0.4887211013048277
 40
0.6849702198129832
 40
0.8472200066537087
 40
0.919058569383983
 40
0.9877260092956866
 40
1.056443152411929
 40
1.128421240463848
 40
1.291130919141275
 40
1.487912347268496
 40
1.487912347268496
 40
1.487912347268496
 40
1.487912347268496
 10
198.8576552631
 20
272.6053624624
 30
0.0
 10
198.8941432422512
 20
272.6833363702586
 30
0.0
 10
198.9742453919125
 20
272.8261370218119
 30
0.0
 10
199.1197281036105
 20
273.0039361209523
 30
0.0
 10
199.275151285474
 20
273.1268216884124
 30
0.0
 10
199.4129071750941
 20
273.1790791129088
 30
0.0
 10
199.5147860065907
 20
273.1807453077943
 30
0.0
 10
199.583341008507
 20
273.1640562571263
 30
0.0
 10
199.6450492765055
 20
273.1297539262325
 30
0.0
 10
199.7189335314481
 20
273.0592799421544
 30
0.0
 10
199.7851114680039
 20
272.9273025232446
 30
0.0
 10
199.8042972715505
 20
272.8077331591328
 30
0.0
 10
199.8083560961
 20
272.7422650465
 30
0.0
 11
198.8576552631
 21
272.6053624624
 31
0.0
 11
198.9854220799
 21
272.829811492
 31
0.0
 11
199.1334035044
 21
273.0064769814
 31
0.0
 11
199.2901627145
 21
273.1245458874
 31
0.0
 11
199.4436924221
 21
273.1770208549
 31
0.0
 11
199.5155283955
 21
273.17763079
 31
0.0
 11
199.5821948273
 21
273.1611746612
 31
0.0
 11
199.642368862
 21
273.1279913626
 31
0.0
 11
199.6948489872
 21
273.0787300023
 31
0.0
 11
199.7725205387
 21
272.935755985
 31
0.0
 11
199.8083560961
 21
272.7422650465
 31
0.0
  0
SPLINE
  5
290
330
216
100
AcDbEntity
  8
0
  6
Continuous
 62
     7
100
AcDbSpline
210
0.0
220
0.0
230
1.0
 70
  1064
 71
     3
 72
    13
 73
     9
 74
     7
 42
0.000000001
 43
0.0000000001
 44
0.0000000001
 12
-0.9616253843212247
 22
-0.2743658510621487
 32
0.0
 13
-0.2426202430118392
 23
0.9701213417304437
 33
0.0
 40
0.0
 40
0.0
 40
0.0
 40
0.0
 40
0.2641044316267549
 40
0.3894354489603298
 40
0.5146815079408162
 40
0.643694303133855
 40
0.7796059461444387
 40
1.077780103001931
 40
1.077780103001931
 40
1.077780103001931
 40
1.077780103001931
 10
198.8391496973
 20
271.2376942766
 30
0.0
 10
198.7544931887786
 20
271.2135405308825
 30
0.0
 10
198.6204513046184
 20
271.1994183441297
 30
0.0
 10
198.452748914427
 20
271.241605870817
 30
0.0
 10
198.3395981247431
 20
271.3008599423257
 30
0.0
 10
198.2403513408775
 20
271.3865562241398
 30
0.0
 10
198.1260358942355
 20
271.5367415928661
 30
0.0
 10
198.0723260812322
 20
271.6746783523267
 30
0.0
 10
198.0482117191
 20
271.7711000567
 30
0.0
 11
198.8391496973
 21
271.2376942766
 31
0.0
 11
198.5759742375
 21
271.2155622147
 31
0.0
 11
198.4544608056
 21
271.2462599308
 31
0.0
 11
198.3434182103
 21
271.3041919368
 31
0.0
 11
198.2453327273
 21
271.3879984959
 31
0.0
 11
198.1623507221
 21
271.4956366003
 31
0.0
 11
198.0482117191
 21
271.7711000567
 31
0.0
  0
SPLINE
  5
291
330
216
100
AcDbEntity
  8
0
  6
Continuous
 62
     7
100
AcDbSpline
210
0.0
220
0.0
230
1.0
 70
  1064
 71
     3
 72
    11
 73
     7
 74
     5
 42
0.000000001
 43
0.0000000001
 44
0.0000000001
 12
-0.2426202430424223
 22
0.970121341722795
 32
0.0
 13
0.628203205670883
 23
0.7780493123092047
 33
0.0
 40
0.0
 40
0.0
 40
0.0
 40
0.0
 40
0.3617081549731424
 40
0.7475645425122312
 40
1.129470639462899
 40
1.477160247670416
 40
1.477160247670416
 40
1.477160247670416
 40
1.477160247670416
 10
198.0482117191
 20
271.7711000567
 30
0.0
 10
198.01895914561
 20
271.8880669902382
 30
0.0
 10
197.9955187857496
 20
272.1395141394883
 30
0.0
 10
198.0457692016626
 20
272.515185681219
 30
0.0
 10
198.1681241625708
 20
272.8687310827945
 30
0.0
 10
198.2946293714151
 20
273.0795465362124
 30
0.0
 10
198.3674359469
 20
273.1697197564
 30
0.0
 11
198.0482117191
 21
271.7711000567
 31
0.0
 11
198.0095499087
 21
272.1307360585
 31
0.0
 11
198.0585887219
 21
272.5134635681
 31
0.0
 11
198.1846115459
 21
272.8739778046
 31
0.0
 11
198.3674359469
 21
273.1697197564
 31
0.0
  0
SPLINE
  5
292
330
216
100
AcDbEntity
  8
0
  6
Continuous
 62
     7
100
AcDbSpline
210
0.0
220
0.0
230
1.0
 70
  1064
 71
     3
 72
    15
 73
    11
 74
     9
 42
0.000000001
 43
0.0000000001
 44
0.0000000001
 12
0.6282032057047795
 22
0.7780493122818364
 32
0.0
 13
0.0575391259813375
 23
-0.9983432520838229
 33
0.0
 40
0.0
 40
0.0
 40
0.0
 40
0.0
 40
0.1819929492091148
 40
0.340063170548341
 40
0.4749966742687987
 40
0.5928580483029986
 40
0.7057657662211521
 40
0.8281010322242712
 40
0.970155292535135
 40
1.136086627747833
 40
1.136086627747833
 40
1.136086627747833
 40
1.136086627747833
 10
198.3674359469
 20
273.1697197564
 30
0.0
 10
198.4055454649362
 20
273.2169195860574
 30
0.0
 10
198.4835309175332
 20
273.3001014755989
 30
0.0
 10
198.6132144339645
 20
273.3930992382956
 30
0.0
 10
198.7431458305174
 20
273.4425756667455
 30
0.0
 10
198.8685080110908
 20
273.4433507873156
 30
0.0
 10
198.9784013906001
 20
273.3910347048943
 30
0.0
 10
199.0611614728044
 20
273.2923543472186
 30
0.0
 10
199.1144955733965
 20
273.1573783501485
 30
0.0
 10
199.1290874631329
 20
273.0549198913063
 30
0.0
 10
199.1322699778
 20
272.9997010817
 30
0.0
 11
198.3674359469
 21
273.1697197564
 31
0.0
 11
198.4932726815
 21
273.3011980808
 31
0.0
 11
198.6232167397
 21
273.391202173
 31
0.0
 11
198.7504575983
 21
273.4361111290001
 31
0.0
 11
198.8683052869
 21
273.4343150831
 31
0.0
 11
198.9704887295
 21
273.3862869994
 31
0.0
 11
199.0514354062
 21
273.2945615785
 31
0.0
 11
199.1065198615
 21
273.1636222198
 31
0.0
 11
199.1322699778
 21
272.9997010817
 31
0.0
  0
SPLINE
  5
293
330
216
100
AcDbEntity
  8
0
  6
Continuous
 62
     7
100
AcDbSpline
210
0.0
220
0.0
230
1.0
 70
  1064
 71
     3
 72
    12
 73
     8
 74
     6
 42
0.000000001
 43
0.0000000001
 44
0.0000000001
 12
-0.9630623495941101
 22
-0.2692785004308211
 32
0.0
 13
-0.2419988102329282
 23
0.9702765460660415
 33
0.0
 40
0.0
 40
0.0
 40
0.0
 40
0.0
 40
0.2629257914921101
 40
0.3878292472722664
 40
0.5127300351367508
 40
0.7756370818800871
 40
1.073064213570587
 40
1.073064213570587
 40
1.073064213570587
 40
1.073064213570587
 10
198.1587683409
 20
271.4981727278
 30
0.0
 10
198.0743636973922
 20
271.4745726401808
 30
0.0
 10
197.9407934037693
 20
271.4612908115116
 30
0.0
 10
197.7739627184389
 20
271.5042105686466
 30
0.0
 10
197.621476756268
 20
271.5848073169096
 30
0.0
 10
197.463851817767
 20
271.7598945413188
 30
0.0
 10
197.3956568978333
 20
271.9373486704524
 30
0.0
 10
197.3716645605
 20
272.0335441938
 30
0.0
 11
198.1587683409
 21
271.4981727278
 31
0.0
 11
197.8966494859
 21
271.4775892955
 31
0.0
 11
197.7757084111
 21
271.5088003463
 31
0.0
 11
197.6652318218
 21
271.5670680906
 31
0.0
 11
197.4851551207
 21
271.7586209474
 31
0.0
 11
197.3716645605
 21
272.0335441938
 31
0.0
  0
SPLINE
  5
294
330
216
100
AcDbEntity
  8
0
  6
Continuous
 62
     7
100
AcDbSpline
210
0.0
220
0.0
230
1.0
 70
  1064
 71
     3
 72
    11
 73
     7
 74
     5
 42
0.000000001
 43
0.0000000001
 44
0.0000000001
 12
-0.2419988102167114
 22
0.9702765460700861
 32
0.0
 13
0.7159790419629487
 23
0.6981217740980569
 33
0.0
 40
0.0
 40
0.0
 40
0.0
 40
0.0
 40
0.4004960183065273
 40
0.8270299165747999
 40
1.241009233428357
 40
1.603088922501735
 40
1.603088922501735
 40
1.603088922501735
 40
1.603088922501735
 10
197.3716645605
 20
272.0335441938
 30
0.0
 10
197.3393580405244
 20
272.1630748249191
 30
0.0
 10
197.3178553169512
 20
272.4423117110195
 30
0.0
 10
197.3867637990821
 20
272.8534993206949
 30
0.0
 10
197.5379030615878
 20
273.2278912021841
 30
0.0
 10
197.6905950053343
 20
273.4418603082664
 30
0.0
 10
197.7770088283
 20
273.5261188799
 30
0.0
 11
197.3716645605
 21
272.0335441938
 31
0.0
 11
197.3343437554
 21
272.4322975238
 31
0.0
 11
197.4026454079
 21
272.8533272741
 31
0.0
 11
197.5601213879
 21
273.2361851988
 31
0.0
 11
197.7770088283
 21
273.5261188799
 31
0.0
  0
SPLINE
  5
295
330
216
100
AcDbEntity
  8
0
  6
Continuous
 62
     7
100
AcDbSpline
210
0.0
220
0.0
230
1.0
 70
  1064
 71
     3
 72
    15
 73
    11
 74
     9
 42
0.000000001
 43
0.0000000001
 44
0.0000000001
 12
0.7159790420229499
 22
0.6981217740365209
 32
0.0
 13
0.0573761331513952
 23
-0.9983526327628899
 33
0.0
 40
0.0
 40
0.0
 40
0.0
 40
0.0
 40
0.1523756120271493
 40
0.2846942650324525
 40
0.3996199333552371
 40
0.5040593870451885
 40
0.6085781777303941
 40
0.7237098551328281
 40
0.8562986320099183
 40
1.008955536342465
 40
1.008955536342465
 40
1.008955536342465
 40
1.008955536342465
 10
197.7770088283
 20
273.5261188799
 30
0.0
 10
197.8133747432089
 20
273.5615777907628
 30
0.0
 10
197.8867530613559
 20
273.6227556362277
 30
0.0
 10
198.0057696370149
 20
273.6852884093881
 30
0.0
 10
198.1225692697117
 20
273.7094853121885
 30
0.0
 10
198.2319416473456
 20
273.691386957142
 30
0.0
 10
198.3247293197488
 20
273.6306100620069
 30
0.0
 10
198.3945062523196
 20
273.5336574545669
 30
0.0
 10
198.4401175437823
 20
273.406926709549
 30
0.0
 10
198.4530115906435
 20
273.31208201625
 30
0.0
 10
198.4559312116
 20
273.2612802088
 30
0.0
 11
197.7770088283
 21
273.5261188799
 31
0.0
 11
197.8951913759999
 21
273.6223021038
 31
0.0
 11
198.0133779624999
 21
273.6818013198
 31
0.0
 11
198.1263875467
 21
273.7026997197
 31
0.0
 11
198.2292324173
 21
273.6845191785
 31
0.0
 11
198.3173039087
 21
273.6282378316
 31
0.0
 11
198.3865439786
 21
273.5362535076
 31
0.0
 11
198.4335962886
 21
273.4122943858
 31
0.0
 11
198.4559312116
 21
273.2612802088
 31
0.0
  0
SPLINE
  5
296
330
216
100
AcDbEntity
  8
0
  6
Continuous
 62
     7
100
AcDbSpline
210
0.0
220
0.0
230
1.0
 70
  1064
 71
     3
 72
    13
 73
     9
 74
     7
 42
0.000000001
 43
0.0000000001
 44
0.0000000001
 12
0.912703742850206
 22
0.4086219252404658
 32
0.0
 13
0.0434704978870684
 23
-0.9990547111211931
 33
0.0
 40
0.0
 40
0.0
 40
0.0
 40
0.0
 40
0.1726460007985853
 40
0.2503620336135346
 40
0.3284373325428045
 40
0.412047233263867
 40
0.5050729234823273
 40
0.7259334268039427
 40
0.7259334268039427
 40
0.7259334268039427
 40
0.7259334268039427
 10
197.2873129222
 20
273.893453997
 30
0.0
 10
197.3398378059057
 20
273.9169696440772
 30
0.0
 10
197.425765734987
 20
273.9379399033444
 30
0.0
 10
197.5340393274159
 20
273.9124212969016
 30
0.0
 10
197.6029584817828
 20
273.8695637740347
 30
0.0
 10
197.6592536113456
 20
273.8045642852361
 30
0.0
 10
197.7191385223033
 20
273.6852665950396
 30
0.0
 10
197.7359235782523
 20
273.579305667448
 30
0.0
 10
197.7391238836
 20
273.505755092
 30
0.0
 11
197.2873129222
 21
273.893453997
 31
0.0
 11
197.4567336934
 21
273.9266691122
 31
0.0
 11
197.5323010886
 21
273.9085210947
 31
0.0
 11
197.5988442498
 21
273.8676828773
 31
0.0
 11
197.654387954
 21
273.8051887782
 31
0.0
 11
197.6972002813
 21
273.7226001369
 31
0.0
 11
197.7391238836
 21
273.505755092
 31
0.0
  0
SPLINE
  5
297
330
216
100
AcDbEntity
  8
0
  6
Continuous
 62
     7
100
AcDbSpline
210
0.0
220
0.0
230
1.0
 70
  1064
 71
     3
 72
    20
 73
    16
 74
    14
 42
0.000000001
 43
0.0000000001
 44
0.0000000001
 12
-0.9914054041677545
 22
-0.1308255502070282
 32
0.0
 13
0.995189774224813
 23
-0.0979658781329795
 33
0.0
 40
0.0
 40
0.0
 40
0.0
 40
0.0
 40
0.1387260470361748
 40
0.2725359690101232
 40
0.4070402358251969
 40
0.5477932371811278
 40
0.6988084074862688
 40
0.8618172188156234
 40
1.2187023711076
 40
1.594689003059063
 40
1.777353553135718
 40
1.948598165470271
 40
2.103119965877023
 40
2.236827706581447
 40
2.436590097971099
 40
2.436590097971099
 40
2.436590097971099
 40
2.436590097971099
 10
196.7598333083
 20
272.1268808496
 30
0.0
 10
196.7139887240565
 20
272.1208312124562
 30
0.0
 10
196.622020822984
 20
272.1192674842334
 30
0.0
 10
196.4889945900623
 20
272.1536306670204
 30
0.0
 10
196.3701988908754
 20
272.2241275482312
 30
0.0
 10
196.270529045867
 20
272.3274954021399
 30
0.0
 10
196.1928971790833
 20
272.4590783275572
 30
0.0
 10
196.1190511008796
 20
272.6714145088286
 30
0.0
 10
196.0947120467622
 20
272.9738061603347
 30
0.0
 10
196.1475649461173
 20
273.277412898353
 30
0.0
 10
196.2320905308087
 20
273.5062041283338
 30
0.0
 10
196.3107629309022
 20
273.6567020547645
 30
0.0
 10
196.4017721418814
 20
273.7815116050604
 30
0.0
 10
196.5172780751959
 20
273.8937938115701
 30
0.0
 10
196.6293701784381
 20
273.9469970208635
 30
0.0
 10
196.6956373415
 20
273.9404737215
 30
0.0
 11
196.7598333083
 21
272.1268808496
 31
0.0
 11
196.6211131206
 21
272.1256058395
 31
0.0
 11
196.4916510266999
 21
272.1594386854
 31
0.0
 11
196.3757329039
 21
272.2276617504
 31
0.0
 11
196.2772140395
 21
272.3281875717
 31
0.0
 11
196.1993480317
 21
272.457580255
 31
0.0
 11
196.1446278937
 21
272.6111301787
 31
0.0
 11
196.1099853191999
 21
272.9663299872
 31
0.0
 11
196.1734212992
 21
273.3369265655
 31
0.0
 11
196.237083375
 21
273.5081383582
 31
0.0
 11
196.3172516288
 21
273.6594584439
 31
0.0
 11
196.4090944432
 21
273.7837238222
 31
0.0
 11
196.5069743878
 21
273.8748132089
 31
0.0
 11
196.6956373415
 21
273.9404737215
 31
0.0
  0
SPLINE
  5
298
330
216
100
AcDbEntity
  8
0
  6
Continuous
 62
     7
100
AcDbSpline
210
0.0
220
0.0
230
1.0
 70
  1064
 71
     3
 72
    11
 73
     7
 74
     5
 42
0.000000001
 43
0.0000000001
 44
0.0000000001
 12
0.9951897742379712
 22
-0.0979658779993109
 32
0.0
 13
0.160309905847332
 23
-0.9870667323373934
 33
0.0
 40
0.0
 40
0.0
 40
0.0
 40
0.0
 40
0.0624167344260334
 40
0.1267391460716711
 40
0.1993949588976876
 40
0.2843628186523706
 40
0.2843628186523706
 40
0.2843628186523706
 40
0.2843628186523706
 10
196.6956373415
 20
273.9404737215
 30
0.0
 10
196.716342840114
 20
273.9384354847701
 30
0.0
 10
196.7581865667639
 20
273.9261468085445
 30
0.0
 10
196.8101271361021
 20
273.8820831675929
 30
0.0
 10
196.8472083739955
 20
273.8167590879274
 30
0.0
 10
196.8604888915676
 20
273.7653885563939
 30
0.0
 10
196.8650292881
 20
273.7374322405
 30
0.0
 11
196.6956373415
 21
273.9404737215
 31
0.0
 11
196.7554159427
 21
273.9225191239
 31
0.0
 11
196.8051347165
 21
273.8817096131
 31
0.0
 11
196.8423777401
 21
273.8193251252
 31
0.0
 11
196.8650292881
 21
273.7374322405
 31
0.0
  0
SPLINE
  5
299
330
216
100
AcDbEntity
  8
0
  6
Continuous
 62
     7
100
AcDbSpline
210
0.0
220
0.0
230
1.0
 70
  1064
 71
     3
 72
     8
 73
     4
 74
     2
 42
0.000000001
 43
0.0000000001
 44
0.0000000001
 12
-0.9952449930296019
 22
0.0974033051262002
 32
0.0
 13
-0.9406406569754247
 23
0.3394041167175814
 33
0.0
 40
0.0
 40
0.0
 40
0.0
 40
0.0
 40
0.0878427029077181
 40
0.0878427029077181
 40
0.0878427029077181
 40
0.0878427029077181
 10
196.1030263438999
 20
272.7559448205
 30
0.0
 10
196.0738846738189
 20
272.7587968770315
 30
0.0
 10
196.0448500415245
 20
272.7652050674699
 30
0.0
 10
196.0173072356
 20
272.7751431258
 30
0.0
 11
196.1030263438999
 21
272.7559448205
 31
0.0
 11
196.0173072356
 21
272.7751431258
 31
0.0
  0
SPLINE
  5
29A
330
216
100
AcDbEntity
  8
0
  6
Continuous
 62
     7
100
AcDbSpline
210
0.0
220
0.0
230
1.0
 70
  1064
 71
     3
 72
    11
 73
     7
 74
     5
 42
0.000000001
 43
0.0000000001
 44
0.0000000001
 12
-0.9406406569163749
 22
0.3394041168812343
 32
0.0
 13
-0.1730746825774517
 23
0.9849087035104901
 33
0.0
 40
0.0
 40
0.0
 40
0.0
 40
0.0
 40
0.108090124660327
 40
0.2218791297241043
 40
0.3448594432089035
 40
0.4772157745572418
 40
0.4772157745572418
 40
0.4772157745572418
 40
0.4772157745572418
 10
196.0173072356
 20
272.7751431258
 30
0.0
 10
195.9834159136444
 20
272.7873718702347
 30
0.0
 10
195.9174625709181
 20
272.8239203936429
 30
0.0
 10
195.8375520604039
 20
272.9086960404965
 30
0.0
 10
195.779169632639
 20
273.0183721576923
 30
0.0
 10
195.756616278945
 20
273.1011589764301
 30
0.0
 10
195.7489804356
 20
273.144611944
 30
0.0
 11
196.0173072356
 21
272.7751431258
 31
0.0
 11
195.9226071608
 21
272.8272523465
 31
0.0
 11
195.8437042798
 21
272.9092418156
 31
0.0
 11
195.7847891349
 21
273.0171916336
 31
0.0
 11
195.7489804356
 21
273.144611944
 31
0.0
  0
SPLINE
  5
29B
330
216
100
AcDbEntity
  8
0
  6
Continuous
 62
     7
100
AcDbSpline
210
0.0
220
0.0
230
1.0
 70
  1064
 71
     3
 72
    10
 73
     6
 74
     4
 42
0.000000001
 43
0.0000000001
 44
0.0000000001
 12
-0.1730746825500258
 22
0.9849087035153095
 32
0.0
 13
0.4189568601058955
 23
0.9080061395002839
 33
0.0
 40
0.0
 40
0.0
 40
0.0
 40
0.0
 40
0.2341292131689404
 40
0.3450788196991496
 40
0.4418284446905516
 40
0.4418284446905516
 40
0.4418284446905516
 40
0.4418284446905516
 10
195.7489804356
 20
273.144611944
 30
0.0
 10
195.7354731558517
 20
273.2214772439324
 30
0.0
 10
195.7337901806078
 20
273.338772493965
 30
0.0
 10
195.7620634481795
 20
273.4835261711136
 30
0.0
 10
195.7849935757323
 20
273.5492623176045
 30
0.0
 10
195.7985048821
 20
273.5785454021
 30
0.0
 11
195.7489804356
 21
273.144611944
 31
0.0
 11
195.7441293418
 21
273.3786908951
 31
0.0
 11
195.7657226798
 21
273.4875189381
 31
0.0
 11
195.7985048821
 21
273.5785454021
 31
0.0
  0
SPLINE
  5
29C
330
216
100
AcDbEntity
  8
0
  6
Continuous
 62
     7
100
AcDbSpline
210
0.0
220
0.0
230
1.0
 70
  1064
 71
     3
 72
    11
 73
     7
 74
     5
 42
0.000000001
 43
0.0000000001
 44
0.0000000001
 12
-0.9326494012080235
 22
0.3607839996816869
 32
0.0
 13
-0.0628150843728082
 23
0.9980251826358076
 33
0.0
 40
0.0
 40
0.0
 40
0.0
 40
0.0
 40
0.1572208077128217
 40
0.3252166075923318
 40
0.5096916485752021
 40
0.7100283625288847
 40
0.7100283625288847
 40
0.7100283625288847
 40
0.7100283625288847
 10
199.4035820312
 20
271.2505337149
 30
0.0
 10
199.3547047338097
 20
271.2694412988466
 30
0.0
 10
199.2604977477037
 20
271.3287647938672
 30
0.0
 10
199.1551654418269
 20
271.4655307731316
 30
0.0
 10
199.0868392437664
 20
271.6386819058296
 30
0.0
 10
199.06720564433
 20
271.7664638417892
 30
0.0
 10
199.0630109218
 20
271.8331108703
 30
0.0
 11
199.4035820312
 21
271.2505337149
 31
0.0
 11
199.2699286727999
 21
271.3333296216
 31
0.0
 11
199.1652217247
 21
271.4647033016
 31
0.0
 11
199.0952181294
 21
271.6353800059
 31
0.0
 11
199.0630109218
 21
271.8331108703
 31
0.0
  0
SPLINE
  5
29D
330
216
100
AcDbEntity
  8
0
  6
Continuous
 62
     7
100
AcDbSpline
210
0.0
220
0.0
230
1.0
 70
  1064
 71
     3
 72
    11
 73
     7
 74
     5
 42
0.000000001
 43
0.0000000001
 44
0.0000000001
 12
-0.9309324091755801
 22
0.3651915244725024
 32
0.0
 13
-0.0628150842740449
 23
0.9980251826420236
 33
0.0
 40
0.0
 40
0.0
 40
0.0
 40
0.0
 40
0.1567941396394511
 40
0.3243802024884161
 40
0.5083628400555278
 40
0.7080970123631323
 40
0.7080970123631323
 40
0.7080970123631323
 40
0.7080970123631323
 10
198.7254181256
 20
271.5128643403
 30
0.0
 10
198.6767632102136
 20
271.5319509705945
 30
0.0
 10
198.5830612832038
 20
271.5914911675839
 30
0.0
 10
198.4783447632939
 20
271.728128297068
 30
0.0
 10
198.4103967318825
 20
271.9008672224583
 30
0.0
 10
198.3908533405886
 20
272.0282841885676
 30
0.0
 10
198.3866712343
 20
272.0947307665
 30
0.0
 11
198.7254181256
 21
271.5128643403
 31
0.0
 11
198.5924598204
 21
271.5959696428
 31
0.0
 11
198.4883317747
 21
271.7272801091
 31
0.0
 11
198.4187176549
 21
271.8975842055
 31
0.0
 11
198.3866712343
 21
272.0947307665
 31
0.0
  0
SPLINE
  5
29E
330
216
100
AcDbEntity
  8
0
  6
Continuous
 62
     7
100
AcDbSpline
210
0.0
220
0.0
230
1.0
 70
  1064
 71
     3
 72
     9
 73
     5
 74
     3
 42
0.000000001
 43
0.0000000001
 44
0.0000000001
 12
-0.9326219397370106
 22
0.3608549812891261
 32
0.0
 13
-0.6039812912462125
 23
0.7969984942423407
 33
0.0
 40
0.0
 40
0.0
 40
0.0
 40
0.0
 40
0.1236461474620557
 40
0.2528112486736902
 40
0.2528112486736902
 40
0.2528112486736902
 40
0.2528112486736902
 10
198.0508913791
 20
271.773778062
 30
0.0
 10
198.0124530091376
 20
271.7886508380763
 30
0.0
 10
197.9380842181343
 20
271.8311513358083
 30
0.0
 10
197.8788727450712
 20
271.8926459774419
 30
0.0
 10
197.8528683102
 20
271.9269607745
 30
0.0
 11
198.0508913791
 21
271.773778062
 31
0.0
 11
197.9433334043
 21
271.8347670105
 31
0.0
 11
197.8528683102
 21
271.9269607745
 31
0.0
  0
SPLINE
  5
29F
330
216
100
AcDbEntity
  8
0
  6
Continuous
 62
     7
100
AcDbSpline
210
0.0
220
0.0
230
1.0
 70
  1064
 71
     3
 72
     9
 73
     5
 74
     3
 42
0.000000001
 43
0.0000000001
 44
0.0000000001
 12
-0.5667763744674055
 22
0.823871677717825
 32
0.0
 13
-0.0628150843701274
 23
0.9980251826359761
 33
0.0
 40
0.0
 40
0.0
 40
0.0
 40
0.0
 40
0.1002784911988312
 40
0.4311645200058449
 40
0.4311645200058449
 40
0.4311645200058449
 40
0.4311645200058449
 10
197.8378946593999
 20
271.9476994437
 30
0.0
 10
197.818949499507
 20
271.9752383132943
 30
0.0
 10
197.7478721291824
 20
272.1008200878646
 30
0.0
 10
197.7172597581721
 20
272.2462731330227
 30
0.0
 10
197.7103315469
 20
272.3563506628
 30
0.0
 11
197.8378946593999
 21
271.9476994437
 31
0.0
 11
197.788076543
 21
272.0347277786
 31
0.0
 11
197.7103315469
 21
272.3563506628
 31
0.0
  0
SPLINE
  5
2A0
330
216
100
AcDbEntity
  8
0
  6
Continuous
 62
     7
100
AcDbSpline
210
0.0
220
0.0
230
1.0
 70
  1064
 71
     3
 72
    13
 73
     9
 74
     7
 42
0.000000001
 43
0.0000000001
 44
0.0000000001
 12
-0.0644224740964649
 22
0.9979227148588664
 32
0.0
 13
0.9968326417372836
 23
-0.0795278842109389
 33
0.0
 40
0.0
 40
0.0
 40
0.0
 40
0.0
 40
0.3116417861413115
 40
0.4632909283471716
 40
0.604860648553431
 40
0.7312950363896289
 40
0.8385301048693055
 40
0.988879056518949
 40
0.988879056518949
 40
0.988879056518949
 40
0.988879056518949
 10
196.3409273659
 20
272.9155806008
 30
0.0
 10
196.334235120935
 20
273.0192454065632
 30
0.0
 10
196.3465487814133
 20
273.1756224841001
 30
0.0
 10
196.4000042275837
 20
273.3704343106922
 30
0.0
 10
196.4541035530296
 20
273.4996865294485
 30
0.0
 10
196.5194940251222
 20
273.6078334950115
 30
0.0
 10
196.6015177443063
 20
273.7033017554283
 30
0.0
 10
196.6850305640149
 20
273.7546364145727
 30
0.0
 10
196.7349881449
 20
273.7506507699
 30
0.0
 11
196.3409273659
 21
272.9155806008
 31
0.0
 11
196.363755968
 21
273.2263851339
 31
0.0
 11
196.4040744399
 21
273.3725763893
 31
0.0
 11
196.4594460281
 21
273.5028682651
 31
0.0
 11
196.5255303679
 21
273.6106574782
 31
0.0
 11
196.5972474546
 21
273.6903821255
 31
0.0
 11
196.7349881449
 21
273.7506507699
 31
0.0
  0
SPLINE
  5
2A1
330
216
100
AcDbEntity
  8
0
  6
Continuous
 62
     7
100
AcDbSpline
210
0.0
220
0.0
230
1.0
 70
  1064
 71
     3
 72
    11
 73
     7
 74
     5
 42
0.000000001
 43
0.0000000001
 44
0.0000000001
 12
-0.9325916468663624
 22
0.3609332627994907
 32
0.0
 13
-0.0687185083726988
 23
0.9976360892665377
 33
0.0
 40
0.0
 40
0.0
 40
0.0
 40
0.0
 40
0.1578638766976432
 40
0.3265908841360407
 40
0.5117656836596729
 40
0.712656171749593
 40
0.712656171749593
 40
0.712656171749593
 40
0.712656171749593
 10
197.3739263443
 20
272.035640038
 30
0.0
 10
197.3248521667166
 20
272.0546328126982
 30
0.0
 10
197.230240025262
 20
272.1141466749772
 30
0.0
 10
197.1241722636828
 20
272.251190934664
 30
0.0
 10
197.0549033467664
 20
272.4246632460577
 30
0.0
 10
197.0345192183626
 20
272.5527413578971
 30
0.0
 10
197.0299175868
 20
272.6195465582
 30
0.0
 11
197.3739263443
 21
272.035640038
 31
0.0
 11
197.2396775692
 21
272.1186958623
 31
0.0
 11
197.1342099131
 21
272.2503977095
 31
0.0
 11
197.0632654284
 21
272.4214432779
 31
0.0
 11
197.0299175868
 21
272.6195465582
 31
0.0
  0
SPLINE
  5
2A2
330
216
100
AcDbEntity
  8
0
  6
Continuous
 62
     7
100
AcDbSpline
210
0.0
220
0.0
230
1.0
 70
  1064
 71
     3
 72
    11
 73
     7
 74
     5
 42
0.000000001
 43
0.0000000001
 44
0.0000000001
 12
-0.8620202998683577
 22
0.5068737541191757
 32
0.0
 13
-0.0644224741999179
 23
0.9979227148521879
 33
0.0
 40
0.0
 40
0.0
 40
0.0
 40
0.0
 40
0.1409922837844311
 40
0.2922321637723795
 40
0.456169803989439
 40
0.631319770057698
 40
0.631319770057698
 40
0.631319770057698
 40
0.631319770057698
 10
196.6174344267
 20
272.3734376538
 30
0.0
 10
196.5769216897843
 20
272.3972594165279
 30
0.0
 10
196.5009082947629
 20
272.4611225109508
 30
0.0
 10
196.4166119734547
 20
272.5896801146591
 30
0.0
 10
196.3612705580837
 20
272.7447923339687
 30
0.0
 10
196.3446885639567
 20
272.857318557585
 30
0.0
 10
196.3409273659
 20
272.9155806008
 30
0.0
 11
196.6174344267
 21
272.3734376538
 31
0.0
 11
196.5086975034
 21
272.4631878939
 31
0.0
 11
196.4241782758
 21
272.5886071965
 31
0.0
 11
196.3676057712
 21
272.7424743522
 31
0.0
 11
196.3409273659
 21
272.9155806008
 31
0.0
  0
SPLINE
  5
2A3
330
216
100
AcDbEntity
  8
0
  6
Continuous
 62
     7
100
AcDbSpline
210
0.0
220
0.0
230
1.0
 70
  1064
 71
     3
 72
     9
 73
     5
 74
     3
 42
0.000000001
 43
0.0000000001
 44
0.0000000001
 12
-0.6769473830842844
 22
0.7360314127368066
 32
0.0
 13
-0.1046154068514685
 23
0.9945127533869547
 33
0.0
 40
0.0
 40
0.0
 40
0.0
 40
0.0
 40
0.1735221613823751
 40
0.3612524420304761
 40
0.3612524420304761
 40
0.3612524420304761
 40
0.3612524420304761
 10
195.9130913388
 20
272.9399456393
 30
0.0
 10
195.8739362144483
 20
272.9825182264944
 30
0.0
 10
195.8111054372064
 20
273.0887955157166
 30
0.0
 10
195.7840872004295
 20
273.2077317979995
 30
0.0
 10
195.7775407072
 20
273.2699651841
 30
0.0
 11
195.9130913388
 21
272.9399456393
 31
0.0
 11
195.82183931
 21
273.0875363156
 31
0.0
 11
195.7775407072
 21
273.2699651841
 31
0.0
  0
SPLINE
  5
2A4
330
216
100
AcDbEntity
  8
0
  6
Continuous
 62
     7
100
AcDbSpline
210
0.0
220
0.0
230
1.0
 70
  1064
 71
     3
 72
     9
 73
     5
 74
     3
 42
0.000000001
 43
0.0000000001
 44
0.0000000001
 12
0.8937953557662201
 22
0.448475040566068
 32
0.0
 13
0.9326829269058224
 23
-0.3606973216678887
 33
0.0
 40
0.0
 40
0.0
 40
0.0
 40
0.0
 40
0.1475029086270674
 40
0.2779612481048097
 40
0.2779612481048097
 40
0.2779612481048097
 40
0.2779612481048097
 10
197.3559775231
 20
273.5200489295
 30
0.0
 10
197.3999233279976
 20
273.5420993871434
 30
0.0
 10
197.4898832239961
 20
273.5726459093246
 30
0.0
 10
197.5859511279989
 20
273.5619240382463
 30
0.0
 10
197.6265098833
 20
273.5462387137
 30
0.0
 11
197.3559775231
 21
273.5200489295
 31
0.0
 11
197.4971195752
 21
273.5628978406
 31
0.0
 11
197.6265098833
 21
273.5462387137
 31
0.0
  0
SPLINE
  5
2A5
330
216
100
AcDbEntity
  8
0
  6
Continuous
 62
     7
100
AcDbSpline
210
0.0
220
0.0
230
1.0
 70
  1064
 71
     3
 72
    11
 73
     7
 74
     5
 42
0.000000001
 43
0.0000000001
 44
0.0000000001
 12
-0.0687185083690191
 22
0.9976360892667914
 32
0.0
 13
0.7909673560414179
 23
0.6118583509905287
 33
0.0
 40
0.0
 40
0.0
 40
0.0
 40
0.0
 40
0.2741009398587856
 40
0.5446405366000456
 40
0.7889154025812781
 40
0.987765133541764
 40
0.987765133541764
 40
0.987765133541764
 40
0.987765133541764
 10
197.0299175868
 20
272.6195465582
 30
0.0
 10
197.0236389842234
 20
272.7106975547683
 30
0.0
 10
197.033209344407
 20
272.8937384028629
 30
0.0
 10
197.1003412628553
 20
273.1498341750492
 30
0.0
 10
197.2063874571986
 20
273.3643460360993
 30
0.0
 10
197.3035496411176
 20
273.4794929733399
 30
0.0
 10
197.3559775231
 20
273.5200489295
 30
0.0
 11
197.0299175868
 21
272.6195465582
 31
0.0
 11
197.0425863636
 21
272.89335457
 31
0.0
 11
197.1116040933
 21
273.1549424642
 31
0.0
 11
197.2226539108
 21
273.372515781
 31
0.0
 11
197.3559775231
 21
273.5200489295
 31
0.0
  0
SPLINE
  5
2A6
330
216
100
AcDbEntity
  8
0
  6
Continuous
 62
     7
100
AcDbSpline
210
0.0
220
0.0
230
1.0
 70
  1064
 71
     3
 72
    16
 73
    12
 74
    10
 42
0.000000001
 43
0.0000000001
 44
0.0000000001
 12
-0.0628150843065863
 22
0.9980251826399756
 32
0.0
 13
0.9325880700436098
 23
-0.3609425045797952
 33
0.0
 40
0.0
 40
0.0
 40
0.0
 40
0.0
 40
0.190845829574107
 40
0.3834108495830342
 40
0.5700506175876505
 40
0.7430093662137032
 40
0.8955581474852413
 40
1.023234916329232
 40
1.125945650686726
 40
1.170302325754529
 40
1.21221414636534
 40
1.21221414636534
 40
1.21221414636534
 40
1.21221414636534
 10
197.7103315469
 20
272.3563506628
 30
0.0
 10
197.7063355479419
 20
272.4198403107722
 30
0.0
 10
197.7092919516572
 20
272.5482611494751
 30
0.0
 10
197.7421649974552
 20
272.7360479255152
 30
0.0
 10
197.7997125630222
 20
272.911568407138
 30
0.0
 10
197.8766124315808
 20
273.0647413947056
 30
0.0
 10
197.9666841383317
 20
273.1871660556326
 30
0.0
 10
198.0628643405757
 20
273.2726723468924
 30
0.0
 10
198.1487919726086
 20
273.31136148992
 30
0.0
 10
198.2123537259439
 20
273.3150117312957
 30
0.0
 10
198.2408671484015
 20
273.3086048229342
 30
0.0
 10
198.2538959697
 20
273.3035622371
 30
0.0
 11
197.7103315469
 21
272.3563506628
 31
0.0
 11
197.7140242764
 21
272.5471607632
 31
0.0
 11
197.7470591675
 21
272.7368710236
 31
0.0
 11
197.8055876671
 21
272.914096354
 31
0.0
 11
197.8841435521
 21
273.0681862682
 31
0.0
 11
197.9759800489
 21
273.1899942668
 31
0.0
 11
198.0734928155
 21
273.2724116051
 31
0.0
 11
198.1687344856
 21
273.310863123
 31
0.0
 11
198.2130432299
 21
273.3129246277
 31
0.0
 11
198.2538959697
 21
273.3035622371
 31
0.0
  0
SPLINE
  5
2A7
330
216
100
AcDbEntity
  8
0
  6
Continuous
 62
     7
100
AcDbSpline
210
0.0
220
0.0
230
1.0
 70
  1064
 71
     3
 72
    16
 73
    12
 74
    10
 42
0.000000001
 43
0.0000000001
 44
0.0000000001
 12
-0.0628150843515999
 22
0.9980251826371425
 32
0.0
 13
0.9326092018650108
 23
-0.360887900319071
 33
0.0
 40
0.0
 40
0.0
 40
0.0
 40
0.0
 40
0.190845245852449
 40
0.3834097813871597
 40
0.5700446480731234
 40
0.7430032208273154
 40
0.8955546197885116
 40
1.023232939746
 40
1.125943033174348
 40
1.170299285122703
 40
1.212210714733664
 40
1.212210714733664
 40
1.212210714733664
 40
1.212210714733664
 10
198.3866712343
 20
272.0947307665
 30
0.0
 10
198.3826752475612
 20
272.1582202202824
 30
0.0
 10
198.3856317875095
 20
272.2866406695098
 30
0.0
 10
198.4185038137538
 20
272.474425621082
 30
0.0
 10
198.4760508895826
 20
272.6499442583688
 30
0.0
 10
198.552949269787
 20
272.8031170699528
 30
0.0
 10
198.6430213520955
 20
272.9255430901944
 30
0.0
 10
198.739201928409
 20
273.0110508755528
 30
0.0
 10
198.8251292445361
 20
273.0497405009694
 30
0.0
 10
198.8886905213025
 20
273.0533921486085
 30
0.0
 10
198.9172035935271
 20
273.0469854587438
 30
0.0
 10
198.9302325885
 20
273.0419436828
 30
0.0
 11
198.3866712343
 21
272.0947307665
 31
0.0
 11
198.3903639466999
 21
272.2855402834
 31
0.0
 11
198.423398405
 21
272.4752501274001
 31
0.0
 11
198.4819251051
 21
272.6524708904
 31
0.0
 11
198.5604799997
 21
272.8065611121
 31
0.0
 11
198.6523175019
 21
272.928371631
 31
0.0
 11
198.7498309832
 21
273.0107905266
 31
0.0
 11
198.8450717082
 21
273.0492426734
 31
0.0
 11
198.8893799929
 21
273.0513049522
 31
0.0
 11
198.9302325885
 21
273.0419436828
 31
0.0
  0
SPLINE
  5
2A8
330
216
100
AcDbEntity
  8
0
  6
Continuous
 62
     7
100
AcDbSpline
210
0.0
220
0.0
230
1.0
 70
  1064
 71
     3
 72
    16
 73
    12
 74
    10
 42
0.000000001
 43
0.0000000001
 44
0.0000000001
 12
-0.0628150842960355
 22
0.9980251826406396
 32
0.0
 13
0.9326331019643571
 23
-0.3608261314266766
 33
0.0
 40
0.0
 40
0.0
 40
0.0
 40
0.0
 40
0.1908440480536504
 40
0.3834087092012525
 40
0.5700393709937374
 40
0.7429968266612458
 40
0.8955502313178843
 40
1.023231159441146
 40
1.125940511755922
 40
1.170296113181155
 40
1.212206992220465
 40
1.212206992220465
 40
1.212206992220465
 40
1.212206992220465
 10
199.0630109218
 20
271.8331108703
 30
0.0
 10
199.0590149601447
 20
271.8965999256049
 30
0.0
 10
199.0619715652693
 20
272.0250199898359
 30
0.0
 10
199.094842723541
 20
272.2128033146232
 30
0.0
 10
199.1523891332754
 20
272.3883203170201
 30
0.0
 10
199.2292861922466
 20
272.5414925219213
 30
0.0
 10
199.3193581932587
 20
272.663920030002
 30
0.0
 10
199.4155394542569
 20
272.7494291957609
 30
0.0
 10
199.5014665830725
 20
272.7881194467768
 30
0.0
 10
199.5650272560059
 20
272.7917726340669
 30
0.0
 10
199.5935397889918
 20
272.7853660194829
 30
0.0
 10
199.6065689467
 20
272.7803251727
 30
0.0
 11
199.0630109218
 21
271.8331108703
 31
0.0
 11
199.0667035555
 21
272.0239191907
 31
0.0
 11
199.0997376882
 21
272.2136292189
 31
0.0
 11
199.1582627554
 21
272.3908460929
 31
0.0
 11
199.2368163409
 21
272.5449357281
 31
0.0
 11
199.3286543033
 21
272.6667484118999
 31
0.0
 11
199.4261693812
 21
272.7491694589
 31
0.0
 11
199.5214090564
 21
272.7876222263
 31
0.0
 11
199.5657166531
 21
272.789685295
 31
0.0
 11
199.6065689467
 21
272.7803251727
 31
0.0
  0
SPLINE
  5
2A9
330
216
100
AcDbEntity
  8
0
  6
Continuous
 62
     7
100
AcDbSpline
210
0.0
220
0.0
230
1.0
 70
  1064
 71
     3
 72
     9
 73
     5
 74
     3
 42
0.000000001
 43
0.0000000001
 44
0.0000000001
 12
-0.0628150844067308
 22
0.9980251826336724
 32
0.0
 13
0.2969216510331973
 23
0.9549018447713462
 33
0.0
 40
0.0
 40
0.0
 40
0.0
 40
0.0
 40
0.112899915104657
 40
0.4544953822597372
 40
0.4544953822597372
 40
0.4544953822597372
 40
0.4544953822597372
 10
199.7393506093
 20
271.571490974
 30
0.0
 10
199.7369866700677
 20
271.6090499601305
 30
0.0
 10
199.7352405193195
 20
271.760670382303
 30
0.0
 10
199.7616596368689
 20
271.9123531664493
 30
0.0
 10
199.7954686669
 20
272.0210832136999
 30
0.0
 11
199.7393506093
 21
271.571490974
 31
0.0
 11
199.7378571269
 21
271.6843810105
 31
0.0
 11
199.7954686669
 21
272.0210832136999
 31
0.0
  0
SPLINE
  5
2AA
330
216
100
AcDbEntity
  8
0
  6
Continuous
 62
     7
100
AcDbSpline
210
0.0
220
0.0
230
1.0
 70
  1064
 71
     3
 72
    13
 73
     9
 74
     7
 42
0.000000001
 43
0.0000000001
 44
0.0000000001
 12
0.2969216509834509
 22
0.9549018447868146
 32
0.0
 13
0.9325371628486093
 23
-0.3610740089043611
 33
0.0
 40
0.0
 40
0.0
 40
0.0
 40
0.0
 40
0.2517670327060233
 40
0.4660269701620111
 40
0.5551538574812762
 40
0.6317097539709311
 40
0.69749241618924
 40
0.7567788725976396
 40
0.7567788725976396
 40
0.7567788725976396
 40
0.7567788725976396
 10
199.7954686669
 20
272.0210832136999
 30
0.0
 10
199.8203870279047
 20
272.1012208150291
 30
0.0
 10
199.8809325091788
 20
272.2454829350401
 30
0.0
 10
199.9897141485593
 20
272.398311690917
 30
0.0
 10
200.0867798433199
 20
272.4807024786929
 30
0.0
 10
200.1553020388323
 20
272.5177336467556
 30
0.0
 10
200.2220150603207
 20
272.5325241375459
 30
0.0
 10
200.2644896366152
 20
272.5258354586963
 30
0.0
 10
200.2829185779
 20
272.5186998592
 30
0.0
 11
199.7954686669
 21
272.0210832136999
 31
0.0
 11
199.8947864697
 21
272.2524327605
 31
0.0
 11
200.0232410298
 21
272.4239167154
 31
0.0
 11
200.0919361347
 21
272.4807021414
 31
0.0
 11
200.159925862
 21
272.5158902398
 31
0.0
 11
200.2244666324
 21
272.5286121738
 31
0.0
 11
200.2829185779
 21
272.5186998592
 31
0.0
  0
SPLINE
  5
2AB
330
216
100
AcDbEntity
  8
0
  6
Continuous
 62
     7
100
AcDbSpline
210
0.0
220
0.0
230
1.0
 70
  1064
 71
     3
 72
    12
 73
     8
 74
     6
 42
0.000000001
 43
0.0000000001
 44
0.0000000001
 12
-0.0628150843039226
 22
0.9980251826401433
 32
0.0
 13
0.911274288157548
 23
0.4117999171235399
 33
0.0
 40
0.0
 40
0.0
 40
0.0
 40
0.0
 40
0.3057354206059892
 40
0.6042412395942294
 40
0.8645067820221415
 40
0.9729403482087331
 40
1.064935958334641
 40
1.064935958334641
 40
1.064935958334641
 40
1.064935958334641
 10
200.4156902968
 20
271.3098710778
 30
0.0
 10
200.40928869806
 20
271.4115816274632
 30
0.0
 10
200.4241385850394
 20
271.6149845283002
 30
0.0
 10
200.5095957173014
 20
271.8921726677652
 30
0.0
 10
200.6238106456783
 20
272.0868828082459
 30
0.0
 10
200.7322482060881
 20
272.1965856028373
 30
0.0
 10
200.788815291523
 20
272.2337169059914
 30
0.0
 10
200.8167597029
 20
272.2463448342
 30
0.0
 11
200.4156902968
 21
271.3098710778
 31
0.0
 11
200.4358063058
 21
271.6149440094
 31
0.0
 11
200.524910611
 21
271.8998407394
 31
0.0
 11
200.661595761
 21
272.1213251008
 31
0.0
 11
200.738865806
 21
272.1973986075
 31
0.0
 11
200.8167597029
 21
272.2463448342
 31
0.0
  0
SPLINE
  5
2AC
330
216
100
AcDbEntity
  8
0
  6
Continuous
 62
     7
100
AcDbSpline
210
0.0
220
0.0
230
1.0
 70
  1064
 71
     3
 72
    11
 73
     7
 74
     5
 42
0.000000001
 43
0.0000000001
 44
0.0000000001
 12
0.7909673559165204
 22
0.6118583511519874
 32
0.0
 13
0.9408359826602211
 23
-0.3388622931690341
 33
0.0
 40
0.0
 40
0.0
 40
0.0
 40
0.0
 40
0.0633957415725082
 40
0.1191371691477332
 40
0.168533471117551
 40
0.2141741295967493
 40
0.2141741295967493
 40
0.2141741295967493
 40
0.2141741295967493
 10
197.3559775231
 20
273.5200489295
 30
0.0
 10
197.3726921771293
 20
273.5329786674696
 30
0.0
 10
197.4059823136539
 20
273.5550468331787
 30
0.0
 10
197.458349719991
 20
273.5765921663356
 30
0.0
 10
197.5087480960638
 20
273.5836886281398
 30
0.0
 10
197.5406158436768
 20
273.578107497698
 30
0.0
 10
197.5549293016
 20
273.5729521983
 30
0.0
 11
197.3559775231
 21
273.5200489295
 31
0.0
 11
197.4091769245
 21
273.5545285429
 31
0.0
 11
197.4610166958
 21
273.5750162187
 31
0.0
 11
197.5100307771
 21
273.5811492834
 31
0.0
 11
197.5549293016
 21
273.5729521983
 31
0.0
  0
SPLINE
  5
2AD
330
216
100
AcDbEntity
  8
0
  6
Continuous
 62
     7
100
AcDbSpline
210
0.0
220
0.0
230
1.0
 70
  1064
 71
     3
 72
    11
 73
     7
 74
     5
 42
0.000000001
 43
0.0000000001
 44
0.0000000001
 12
-0.8488478221970149
 22
0.5286372808943625
 32
0.0
 13
-0.0628150843779871
 23
0.9980251826354816
 33
0.0
 40
0.0
 40
0.0
 40
0.0
 40
0.0
 40
0.1406030135602912
 40
0.2917295104608475
 40
0.4557941217229806
 40
0.6316325480169733
 40
0.6316325480169733
 40
0.6316325480169733
 40
0.6316325480169733
 10
200.685420645
 20
270.762713617
 30
0.0
 10
200.6456371243817
 20
270.787489615258
 30
0.0
 10
200.5713199780595
 20
270.8529614774135
 30
0.0
 10
200.4892947521484
 20
270.9827217918542
 30
0.0
 10
200.435479109549
 20
271.1385468348234
 30
0.0
 10
200.4193720653282
 20
271.2513740186279
 30
0.0
 10
200.4156902968
 20
271.3098710778
 30
0.0
 11
200.685420645
 21
270.762713617
 31
0.0
 11
200.5790686894
 21
270.8546835521
 31
0.0
 11
200.4967217587
 21
270.9814045096
 31
0.0
 11
200.4416959825
 21
271.1359663439
 31
0.0
 11
200.4156902968
 21
271.3098710778
 31
0.0
  0
SPLINE
  5
2AE
330
216
100
AcDbEntity
  8
0
  6
Continuous
 62
     7
100
AcDbSpline
210
0.0
220
0.0
230
1.0
 70
  1064
 71
     3
 72
     9
 73
     5
 74
     3
 42
0.000000001
 43
0.0000000001
 44
0.0000000001
 12
-0.1046154067662847
 22
0.9945127533959153
 32
0.0
 13
0.2970540800240751
 23
0.9548606566096703
 33
0.0
 40
0.0
 40
0.0
 40
0.0
 40
0.0
 40
0.1641429654015429
 40
0.3083488235375843
 40
0.3083488235375843
 40
0.3083488235375843
 40
0.3083488235375843
 10
195.7775407072
 20
273.2699651841
 30
0.0
 10
195.7718167461689
 20
273.324379274924
 30
0.0
 10
195.7719288326851
 20
273.4279419317715
 30
0.0
 10
195.7912961408924
 20
273.5296343880377
 30
0.0
 10
195.8055751204
 20
273.5755332215
 30
0.0
 11
195.7775407072
 21
273.2699651841
 31
0.0
 11
195.7773925086
 21
273.4341080826
 31
0.0
 11
195.8055751204
 21
273.5755332215
 31
0.0
  0
SPLINE
  5
2AF
330
216
100
AcDbEntity
  8
0
  6
Continuous
 62
     7
100
AcDbSpline
210
0.0
220
0.0
230
1.0
 70
  1064
 71
     3
 72
    11
 73
     7
 74
     5
 42
0.000000001
 43
0.0000000001
 44
0.0000000001
 12
-0.9326577403410125
 22
0.36076244175634
 32
0.0
 13
-0.0628150842780561
 23
0.9980251826417712
 33
0.0
 40
0.0
 40
0.0
 40
0.0
 40
0.0
 40
0.1572195348676381
 40
0.32522046987023
 40
0.5096954371494356
 40
0.7100315665873063
 40
0.7100315665873063
 40
0.7100315665873063
 40
0.7100315665873063
 10
200.0799247693
 20
270.9889126324
 30
0.0
 10
200.0310474305909
 20
271.0078189334969
 30
0.0
 10
199.9368390028417
 20
271.0671431202348
 30
0.0
 10
199.8315059849956
 20
271.2039100872226
 30
0.0
 10
199.7631783826653
 20
271.377062295811
 30
0.0
 10
199.7435453195848
 20
271.5048441399427
 30
0.0
 10
199.7393506093
 20
271.571490974
 30
0.0
 11
200.0799247693
 21
270.9889126324
 31
0.0
 11
199.9462717038
 21
271.0717065949
 31
0.0
 11
199.8415613658
 21
271.2030841397
 31
0.0
 11
199.7715574871
 21
271.3737606481
 31
0.0
 11
199.7393506093
 21
271.571490974
 31
0.0
  0
SPLINE
  5
2B0
330
216
100
AcDbEntity
  8
02___PRT_ALL_AXES
  6
Continuous
 62
     7
100
AcDbSpline
210
0.0
220
0.0
230
1.0
 70
  1064
 71
     3
 72
     9
 73
     5
 74
     3
 42
0.000000001
 43
0.0000000001
 44
0.0000000001
 12
0.4346248679305294
 22
-0.9006115834122777
 32
0.0
 13
0.6052241617998046
 23
-0.7960550948104811
 33
0.0
 40
0.0
 40
0.0
 40
0.0
 40
0.0
 40
0.1203216714598354
 40
0.5062277461611765
 40
0.5062277461611765
 40
0.5062277461611765
 40
0.5062277461611765
 10
190.894269379
 20
272.0486147257
 30
0.0
 10
190.9117009758558
 20
272.0124936953493
 30
0.0
 10
190.9891234133664
 20
271.8625144213222
 30
0.0
 10
191.0821219122351
 20
271.7206786012948
 30
0.0
 10
191.1599751391
 20
271.618277769
 30
0.0
 11
190.894269379
 21
272.0486147257
 31
0.0
 11
190.9493848934
 21
271.9416587315
 31
0.0
 11
191.1599751391
 21
271.618277769
 31
0.0
  0
SPLINE
  5
2B1
330
216
100
AcDbEntity
  8
0
  6
Continuous
 62
     7
100
AcDbSpline
210
0.0
220
0.0
230
1.0
 70
  1064
 71
     3
 72
     9
 73
     5
 74
     3
 42
0.000000001
 43
0.0000000001
 44
0.0000000001
 12
-0.735686118507587
 22
0.6773226225627199
 32
0.0
 13
-0.2426781506873534
 23
0.9701068576084626
 33
0.0
 40
0.0
 40
0.0
 40
0.0
 40
0.0
 40
0.225892592215695
 40
0.4770237191303018
 40
0.4770237191303018
 40
0.4770237191303018
 40
0.4770237191303018
 10
199.7801519478
 20
267.4782318575
 30
0.0
 10
199.7247565996777
 20
267.5292325784924
 30
0.0
 10
199.6278295409519
 20
267.6594083026415
 30
0.0
 10
199.5726415941532
 20
267.8104444244404
 30
0.0
 10
199.552326915
 20
267.8916524339
 30
0.0
 11
199.7801519478
 21
267.4782318575
 31
0.0
 11
199.6423176054
 21
267.6571987742
 31
0.0
 11
199.552326915
 21
267.8916524339
 31
0.0
  0
SPLINE
  5
2B2
330
216
100
AcDbEntity
  8
0
  6
Continuous
 62
     7
100
AcDbSpline
210
0.0
220
0.0
230
1.0
 70
  1064
 71
     3
 72
    18
 73
    14
 74
    12
 42
0.000000001
 43
0.0000000001
 44
0.0000000001
 12
-0.2426781507137809
 22
0.9701068576018517
 32
0.0
 13
0.5342768668161115
 23
-0.8453095466071344
 33
0.0
 40
0.0
 40
0.0
 40
0.0
 40
0.0
 40
0.3416845505776087
 40
0.7062148445856904
 40
1.070126618216725
 40
1.40752522262895
 40
1.696265896819668
 40
1.818845775401253
 40
1.926983942917334
 40
2.023355421630895
 40
2.113101436128378
 40
2.203218246556895
 40
2.300587734637624
 40
2.300587734637624
 40
2.300587734637624
 40
2.300587734637624
 10
199.552326915
 20
267.8916524339
 30
0.0
 10
199.5246871233795
 20
268.0021426091173
 30
0.0
 10
199.5006709109752
 20
268.2392244134234
 30
0.0
 10
199.5420512525794
 20
268.5956554549674
 30
0.0
 10
199.6501527384096
 20
268.9365213923124
 30
0.0
 10
199.8096205334737
 20
269.2276935439242
 30
0.0
 10
199.9779006422596
 20
269.4169239189929
 30
0.0
 10
200.1225583534147
 20
269.5137946611432
 30
0.0
 10
200.2246390004215
 20
269.554830195652
 30
0.0
 10
200.3234706240734
 20
269.5665268975917
 30
0.0
 10
200.4153613375158
 20
269.5469987387562
 30
0.0
 10
200.4949615669329
 20
269.4966517827257
 30
0.0
 10
200.5351520886949
 20
269.447467792241
 30
0.0
 10
200.5524928437
 20
269.4200320063
 30
0.0
 11
199.552326915
 21
267.8916524339
 31
0.0
 11
199.5134622339
 21
268.2311194701
 31
0.0
 11
199.5535229389
 21
268.5934418061
 31
0.0
 11
199.6641051518
 21
268.9401453584
 31
0.0
 11
199.8290367634
 21
269.2344842477
 31
0.0
 11
200.0261351777
 21
269.4454899159
 31
0.0
 11
200.1287689467
 21
269.5125133155
 31
0.0
 11
200.2296711024
 21
269.5514057087
 31
0.0
 11
200.3255354889
 21
269.5612789711
 31
0.0
 11
200.4131991198
 21
269.5420582808
 31
0.0
 11
200.489727538
 21
269.4944721407
 31
0.0
 11
200.5524928437
 21
269.4200320063
 31
0.0
  0
SPLINE
  5
2B3
330
216
100
AcDbEntity
  8
0
  6
Continuous
 62
     7
100
AcDbSpline
210
0.0
220
0.0
230
1.0
 70
  1064
 71
     3
 72
    12
 73
     8
 74
     6
 42
0.000000001
 43
0.0000000001
 44
0.0000000001
 12
-0.9632626268086658
 22
-0.2685611881744441
 32
0.0
 13
-0.2420757223931224
 23
0.9702573599967422
 33
0.0
 40
0.0
 40
0.0
 40
0.0
 40
0.0
 40
0.262719504113099
 40
0.3875431771262982
 40
0.5123739006718201
 40
0.7751428804313897
 40
1.072393561984904
 40
1.072393561984904
 40
1.072393561984904
 40
1.072393561984904
 10
197.6332931797
 20
268.4034331297
 30
0.0
 10
197.5489372198181
 20
268.3799143756396
 30
0.0
 10
197.415456817382
 20
268.3667539016948
 30
0.0
 10
197.2487707994241
 20
268.409746291788
 30
0.0
 10
197.0964110100414
 20
268.4903710439483
 30
0.0
 10
196.9389272159886
 20
268.6653930152646
 30
0.0
 10
196.8707631091896
 20
268.8427394261529
 30
0.0
 10
196.8467773847
 20
268.93887598
 30
0.0
 11
197.6332931797
 21
268.4034331297
 31
0.0
 11
197.3713645507
 21
268.3830632708
 31
0.0
 11
197.2505199016
 21
268.4143285891
 31
0.0
 11
197.1401332621
 21
268.4726166613
 31
0.0
 11
196.9602013755
 21
268.6641161467
 31
0.0
 11
196.8467773847
 21
268.93887598
 31
0.0
  0
SPLINE
  5
2B4
330
216
100
AcDbEntity
  8
0
  6
Continuous
 62
     7
100
AcDbSpline
210
0.0
220
0.0
230
1.0
 70
  1064
 71
     3
 72
     9
 73
     5
 74
     3
 42
0.000000001
 43
0.0000000001
 44
0.0000000001
 12
-0.2110890655362984
 22
0.9774668313610504
 32
0.0
 13
0.2180095581981023
 23
0.9759466340606273
 33
0.0
 40
0.0
 40
0.0
 40
0.0
 40
0.0
 40
0.3320925565614925
 40
0.6838711954946664
 40
0.6838711954946664
 40
0.6838711954946664
 40
0.6838711954946664
 10
196.8382494501
 20
268.9755475048
 30
0.0
 10
196.8148824142879
 20
269.0837506577936
 30
0.0
 10
196.7967935187949
 20
269.3133952559686
 30
0.0
 10
196.8259930839142
 20
269.5409921309662
 30
0.0
 10
196.8515567858
 20
269.6554311905
 30
0.0
 11
196.8382494501
 21
268.9755475048
 31
0.0
 11
196.8084655131
 21
269.3063017689
 31
0.0
 11
196.8515567858
 21
269.6554311905
 31
0.0
  0
SPLINE
  5
2B5
330
216
100
AcDbEntity
  8
0
  6
Continuous
 62
     7
100
AcDbSpline
210
0.0
220
0.0
230
1.0
 70
  1064
 71
     3
 72
    19
 73
    15
 74
    13
 42
0.000000001
 43
0.0000000001
 44
0.0000000001
 12
0.3433849387526928
 22
0.9391947528802582
 32
0.0
 13
0.0576567882692118
 23
-0.9983364637067403
 33
0.0
 40
0.0
 40
0.0
 40
0.0
 40
0.0
 40
0.2888066418620118
 40
0.5509102952330494
 40
0.7760965830356655
 40
0.8736875759275019
 40
0.9616942117359668
 40
1.041717782093843
 40
1.116518200667982
 40
1.189837654651477
 40
1.265738284401495
 40
1.347732562059405
 40
1.438260775067866
 40
1.648707898067156
 40
1.648707898067156
 40
1.648707898067156
 40
1.648707898067156
 10
194.8912847894
 20
270.6749768079
 30
0.0
 10
194.9243420730757
 20
270.7653920354446
 30
0.0
 10
195.0009686086612
 20
270.9334083032022
 30
0.0
 10
195.1478213113494
 20
271.1478927823169
 30
0.0
 10
195.2905607789277
 20
271.2841321395925
 30
0.0
 10
195.4088803064251
 20
271.3541922704069
 30
0.0
 10
195.4924287653958
 20
271.385200017941
 30
0.0
 10
195.5733757407197
 20
271.3963706336946
 30
0.0
 10
195.6498109909185
 20
271.3869552063898
 30
0.0
 10
195.719278913129
 20
271.3568539401334
 30
0.0
 10
195.7793785287775
 20
271.3071518720493
 30
0.0
 10
195.8286727085328
 20
271.2397152215492
 30
0.0
 10
195.8814783390524
 20
271.1227619783779
 30
0.0
 10
195.8979436639958
 20
271.0218593634242
 30
0.0
 10
195.9019882324
 20
270.9518270179
 30
0.0
 11
194.8912847894
 21
270.6749768079
 31
0.0
 11
195.0122723892
 21
270.9372195906
 31
0.0
 11
195.1625366346
 21
271.1519728948
 31
0.0
 11
195.3286103298
 21
271.3040531104
 31
0.0
 11
195.4130011057
 21
271.3530653419
 31
0.0
 11
195.4958066734
 21
271.3828714806
 31
0.0
 11
195.5751865211
 21
271.3930012186001
 31
0.0
 11
195.6493652518999
 21
271.3833773672
 31
0.0
 11
195.7166712408
 21
271.3542973708
 31
0.0
 11
195.7755506626
 21
271.3064004055
 31
0.0
 11
195.8246199968
 21
271.2407097516
 31
0.0
 11
195.8626784785
 21
271.1585701794
 31
0.0
 11
195.9019882324
 21
270.9518270179
 31
0.0
  0
SPLINE
  5
2B6
330
216
100
AcDbEntity
  8
0
  6
Continuous
 62
     7
100
AcDbSpline
210
0.0
220
0.0
230
1.0
 70
  1064
 71
     3
 72
    11
 73
     7
 74
     5
 42
0.000000001
 43
0.0000000001
 44
0.0000000001
 12
-0.9615215207086208
 22
-0.2747296220180512
 32
0.0
 13
-0.4084765878951311
 23
0.91276879719979
 33
0.0
 40
0.0
 40
0.0
 40
0.0
 40
0.0
 40
0.2258464011682129
 40
0.4377007832246495
 40
0.6539222013901168
 40
0.8906388920435258
 40
0.8906388920435258
 40
0.8906388920435258
 40
0.8906388920435258
 10
192.9045312972
 20
270.2364649002
 30
0.0
 10
192.8321459055007
 20
270.2157826680577
 30
0.0
 10
192.6840945790177
 20
270.1959800108597
 30
0.0
 10
192.4673900442527
 20
270.2524803140294
 30
0.0
 10
192.2889786321359
 20
270.3930826889077
 30
0.0
 10
192.2086870161653
 20
270.5242871656651
 30
0.0
 10
192.1764559408
 20
270.596309702
 30
0.0
 11
192.9045312972
 21
270.2364649002
 31
0.0
 11
192.6801607455
 21
270.210687925
 31
0.0
 11
192.4754447112
 21
270.2652188749
 31
0.0
 11
192.3038825361
 21
270.3968172098
 31
0.0
 11
192.1764559408
 21
270.596309702
 31
0.0
  0
SPLINE
  5
2B7
330
216
100
AcDbEntity
  8
0
  6
Continuous
 62
     7
100
AcDbSpline
210
0.0
220
0.0
230
1.0
 70
  1064
 71
     3
 72
    14
 73
    10
 74
     8
 42
0.000000001
 43
0.0000000001
 44
0.0000000001
 12
-0.4084765878740614
 22
0.9127687972092191
 32
0.0
 13
0.9127037428452513
 23
0.408621925251533
 33
0.0
 40
0.0
 40
0.0
 40
0.0
 40
0.0
 40
0.5014098492275424
 40
0.7778996487025342
 40
1.057922662003953
 40
1.329573313851399
 40
1.581068444362796
 40
1.802522402020501
 40
1.988279445308858
 40
1.988279445308858
 40
1.988279445308858
 40
1.988279445308858
 10
192.1764559408
 20
270.596309702
 30
0.0
 10
192.1081845460204
 20
270.7488667903295
 30
0.0
 10
192.0657780576514
 20
271.0145181787396
 30
0.0
 10
192.0948430307703
 20
271.3660730857557
 30
0.0
 10
192.1593543464478
 20
271.6358433274883
 30
0.0
 10
192.259903143627
 20
271.8849732620295
 30
0.0
 10
192.3883911216723
 20
272.0987976560088
 30
0.0
 10
192.5345674498271
 20
272.2642943687845
 30
0.0
 10
192.6478530569769
 20
272.3432918597142
 30
0.0
 10
192.7043667732
 20
272.3685933266
 30
0.0
 11
192.1764559408
 21
270.596309702
 31
0.0
 11
192.080014614
 21
271.0883573698
 31
0.0
 11
192.1016724561
 21
271.3639976192
 31
0.0
 11
192.1667286218
 21
271.6363587458
 31
0.0
 11
192.2691083036
 21
271.8879784537
 31
0.0
 11
192.400175444
 21
272.1026204938
 31
0.0
 11
192.5492676425
 21
272.2663683845
 31
0.0
 11
192.7043667732
 21
272.3685933266
 31
0.0
  0
SPLINE
  5
2B8
330
216
100
AcDbEntity
  8
02___PRT_ALL_AXES
  6
Continuous
 62
     7
100
AcDbSpline
210
0.0
220
0.0
230
1.0
 70
  1064
 71
     3
 72
     9
 73
     5
 74
     3
 42
0.000000001
 43
0.0000000001
 44
0.0000000001
 12
-0.9993676574934815
 22
-0.0355567877625565
 32
0.0
 13
-0.9275501448485993
 23
-0.3736987139278682
 33
0.0
 40
0.0
 40
0.0
 40
0.0
 40
0.0
 40
0.245036603570448
 40
0.9277493827795847
 40
0.9277493827795847
 40
0.9277493827795847
 40
0.9277493827795847
 10
191.8007405129
 20
272.2337254659
 30
0.0
 10
191.7191132940632
 20
272.2308212277309
 30
0.0
 10
191.4107503746187
 20
272.207207657411
 30
0.0
 10
191.1053528247484
 20
272.1336576882242
 30
0.0
 10
190.894269379
 20
272.0486147257
 30
0.0
 11
191.8007405129
 21
272.2337254659
 31
0.0
 11
191.5564309014
 21
272.2148641081
 31
0.0
 11
190.894269379
 21
272.0486147257
 31
0.0
  0
SPLINE
  5
2B9
330
216
100
AcDbEntity
  8
0
  6
Continuous
 62
     7
100
AcDbSpline
210
0.0
220
0.0
230
1.0
 70
  1064
 71
     3
 72
     9
 73
     5
 74
     3
 42
0.000000001
 43
0.0000000001
 44
0.0000000001
 12
-0.6095811456572246
 22
0.792723676232283
 32
0.0
 13
-0.242096196959147
 23
0.9702522514366652
 33
0.0
 40
0.0
 40
0.0
 40
0.0
 40
0.0
 40
0.0865974932251698
 40
0.3672663286087452
 40
0.3672663286087452
 40
0.3672663286087452
 40
0.3672663286087452
 10
200.3818309979
 20
267.2985289574
 30
0.0
 10
200.3642349315229
 20
267.3214115851274
 30
0.0
 10
200.29560800544
 20
267.4230759472999
 30
0.0
 10
200.2511691200171
 20
267.5398303343869
 30
0.0
 10
200.2285195008
 20
267.6306035241999
 30
0.0
 11
200.3818309979
 21
267.2985289574
 31
0.0
 11
200.3332167067
 21
267.3701932897
 31
0.0
 11
200.2285195008
 21
267.6306035241999
 31
0.0
  0
SPLINE
  5
2BA
330
216
100
AcDbEntity
  8
0
  6
Continuous
 62
     7
100
AcDbSpline
210
0.0
220
0.0
230
1.0
 70
  1064
 71
     3
 72
    11
 73
     7
 74
     5
 42
0.000000001
 43
0.0000000001
 44
0.0000000001
 12
-0.2420961970458629
 22
0.9702522514150281
 32
0.0
 13
0.6119581216481578
 23
0.79089016769009
 33
0.0
 40
0.0
 40
0.0
 40
0.0
 40
0.0
 40
0.3542769901681113
 40
0.7321927227161569
 40
1.107440432532087
 40
1.451416367440883
 40
1.451416367440883
 40
1.451416367440883
 40
1.451416367440883
 10
200.2285195008
 20
267.6306035241999
 30
0.0
 10
200.1999297967932
 20
267.7451828733116
 30
0.0
 10
200.1763430400843
 20
267.99128281866
 30
0.0
 10
200.223365562267
 20
268.3598412790887
 30
0.0
 10
200.340388637277
 20
268.7086393683201
 30
0.0
 10
200.4619959822937
 20
268.9180780703529
 30
0.0
 10
200.5321622713
 20
269.0087604653
 30
0.0
 11
200.2285195008
 21
267.6306035241999
 31
0.0
 11
200.1899051925
 21
267.9827698499
 31
0.0
 11
200.2356531918
 21
268.357906387
 31
0.0
 11
200.3559447269
 21
268.7133508838
 31
0.0
 11
200.5321622713
 21
269.0087604653
 31
0.0
  0
SPLINE
  5
2BB
330
216
100
AcDbEntity
  8
0
  6
Continuous
 62
     7
100
AcDbSpline
210
0.0
220
0.0
230
1.0
 70
  1064
 71
     3
 72
     9
 73
     5
 74
     3
 42
0.000000001
 43
0.0000000001
 44
0.0000000001
 12
-0.9620920674281727
 22
-0.2727248683046421
 32
0.0
 13
-0.9012420699336583
 23
0.4333159717592867
 33
0.0
 40
0.0
 40
0.0
 40
0.0
 40
0.0
 40
0.2232405912144277
 40
0.4326810228906957
 40
0.4326810228906957
 40
0.4326810228906957
 40
0.4326810228906957
 10
200.3419474439
 20
267.3578813863
 30
0.0
 10
200.2703547765882
 20
267.3375869660203
 30
0.0
 10
200.1242953820382
 20
267.3179408331851
 30
0.0
 10
199.9803029420239
 20
267.3542736191742
 30
0.0
 10
199.9173840993
 20
267.3845249139
 30
0.0
 11
200.3419474439
 21
267.3578813863
 31
0.0
 11
200.1201871123
 21
267.3322159057
 31
0.0
 11
199.9173840993
 21
267.3845249139
 31
0.0
  0
SPLINE
  5
2BC
330
216
100
AcDbEntity
  8
0
  6
Continuous
 62
     7
100
AcDbSpline
210
0.0
220
0.0
230
1.0
 70
  1064
 71
     3
 72
    11
 73
     7
 74
     5
 42
0.000000001
 43
0.0000000001
 44
0.0000000001
 12
-0.9629104925049526
 22
-0.2698210210933712
 32
0.0
 13
-0.4007430571868714
 23
0.916190483533048
 33
0.0
 40
0.0
 40
0.0
 40
0.0
 40
0.0
 40
0.227756800408624
 40
0.4416349436954438
 40
0.6603966479095086
 40
0.9002194803735592
 40
0.9002194803735592
 40
0.9002194803735592
 40
0.9002194803735592
 10
199.6632824801
 20
267.6188439634
 30
0.0
 10
199.5901793424824
 20
267.5983594392509
 30
0.0
 10
199.4406071961707
 20
267.5793107158668
 30
0.0
 10
199.2222547905882
 20
267.6385136161023
 30
0.0
 10
199.043328073704
 20
267.7826651117433
 30
0.0
 10
198.9633057680549
 20
267.9162327056208
 30
0.0
 10
198.9312699897
 20
267.9894738379
 30
0.0
 11
199.6632824801
 21
267.6188439634
 31
0.0
 11
199.4368511487
 21
267.5943080246
 31
0.0
 11
199.2306956939
 21
267.6512622925
 31
0.0
 11
199.0584888249
 21
267.786175144
 31
0.0
 11
198.9312699897
 21
267.9894738379
 31
0.0
  0
SPLINE
  5
2BD
330
216
100
AcDbEntity
  8
0
  6
Continuous
 62
     7
100
AcDbSpline
210
0.0
220
0.0
230
1.0
 70
  1064
 71
     3
 72
     9
 73
     5
 74
     3
 42
0.000000001
 43
0.0000000001
 44
0.0000000001
 12
-0.4007430571244412
 22
0.916190483560355
 32
0.0
 13
-0.2419194062455344
 23
0.9702963469382993
 33
0.0
 40
0.0
 40
0.0
 40
0.0
 40
0.0
 40
0.0423579511040179
 40
0.1739387027257941
 40
0.1739387027257941
 40
0.1739387027257941
 40
0.1739387027257941
 10
198.9312699897
 20
267.9894738379
 30
0.0
 10
198.925611771427
 20
268.0024098218015
 30
0.0
 10
198.9036017568501
 20
268.0560622351642
 30
0.0
 10
198.8863629654685
 20
268.1116335755246
 30
0.0
 10
198.8757523197
 20
268.1541910164
 30
0.0
 11
198.9312699897
 21
267.9894738379
 31
0.0
 11
198.9151748615
 21
268.0286547372
 31
0.0
 11
198.8757523197
 21
268.1541910164
 31
0.0
  0
SPLINE
  5
2BE
330
216
100
AcDbEntity
  8
0
  6
Continuous
 62
     7
100
AcDbSpline
210
0.0
220
0.0
230
1.0
 70
  1064
 71
     3
 72
    19
 73
    15
 74
    13
 42
0.000000001
 43
0.0000000001
 44
0.0000000001
 12
-0.2179268986915261
 22
0.9759650950862399
 32
0.0
 13
0.3511971316146611
 23
-0.9363015405015815
 33
0.0
 40
0.0
 40
0.0
 40
0.0
 40
0.0
 40
0.3599715466223407
 40
0.7417128391210673
 40
1.117772112853544
 40
1.459085211998468
 40
1.609477302172703
 40
1.743742810900451
 40
1.861817898074583
 40
1.965811822786411
 40
2.060657777007179
 40
2.153867390181002
 40
2.253496324363349
 40
2.365617028517249
 40
2.365617028517249
 40
2.365617028517249
 40
2.365617028517249
 10
198.8690802055
 20
268.1824383925
 30
0.0
 10
198.8429310445757
 20
268.2995449474092
 30
0.0
 10
198.8245878724526
 20
268.5492253675879
 30
0.0
 10
198.8794412604186
 20
268.9201891779339
 30
0.0
 10
199.003928409949
 20
269.2671794089183
 30
0.0
 10
199.1566387003568
 20
269.5163087704931
 30
0.0
 10
199.2995411859198
 20
269.6692678741853
 30
0.0
 10
199.4060160936824
 20
269.7521521860712
 30
0.0
 10
199.5130542609807
 20
269.8058303772334
 30
0.0
 10
199.6177686659452
 20
269.8282856248681
 30
0.0
 10
199.716512632204
 20
269.8171518253245
 30
0.0
 10
199.8033813605486
 20
269.7716792222959
 30
0.0
 10
199.873104528654
 20
269.6954471534678
 30
0.0
 10
199.9047990271022
 20
269.6314582910405
 30
0.0
 10
199.917924517
 20
269.5964653617
 30
0.0
 11
198.8690802055
 21
268.1824383925
 31
0.0
 11
198.8380201615
 21
268.5410674321
 31
0.0
 11
198.8920634788
 21
268.9189638918
 31
0.0
 11
199.0202282121
 21
269.2725093323
 31
0.0
 11
199.202630051
 21
269.5609953819
 31
0.0
 11
199.3060904174
 21
269.6701454317
 31
0.0
 11
199.412868781
 21
269.7515432689
 31
0.0
 11
199.5191694484
 21
269.80294263
 31
0.0
 11
199.6212095169
 21
269.8230065478
 31
0.0
 11
199.7153366977
 21
269.8113519836
 31
0.0
 11
199.7981393526
 21
269.7685530078
 31
0.0
 11
199.8665475877
 21
269.6961220897
 31
0.0
 11
199.917924517
 21
269.5964653617
 31
0.0
  0
SPLINE
  5
2BF
330
216
100
AcDbEntity
  8
0
  6
Continuous
 62
     7
100
AcDbSpline
210
0.0
220
0.0
230
1.0
 70
  1064
 71
     3
 72
     9
 73
     5
 74
     3
 42
0.000000001
 43
0.0000000001
 44
0.0000000001
 12
0.3511971315851221
 22
-0.9363015405126613
 32
0.0
 13
0.0584774924823711
 23
-0.998288727209205
 33
0.0
 40
0.0
 40
0.0
 40
0.0
 40
0.0
 40
0.0504879406629226
 40
0.2181582479419737
 40
0.2181582479419737
 40
0.2181582479419737
 40
0.2181582479419737
 10
199.917924517
 20
269.5964653617
 30
0.0
 10
199.9238349236468
 20
269.5807080494933
 30
0.0
 10
199.9461983463239
 20
269.51143141433
 30
0.0
 10
199.9567120961555
 20
269.4386768622148
 30
0.0
 10
199.9599804091999
 20
269.382882403
 30
0.0
 11
199.917924517
 21
269.5964653617
 31
0.0
 11
199.9335513148
 21
269.548456661
 31
0.0
 11
199.9599804091999
 21
269.382882403
 31
0.0
  0
SPLINE
  5
2C0
330
216
100
AcDbEntity
  8
0
  6
Continuous
 62
     7
100
AcDbSpline
210
0.0
220
0.0
230
1.0
 70
  1064
 71
     3
 72
    12
 73
     8
 74
     6
 42
0.000000001
 43
0.0000000001
 44
0.0000000001
 12
-0.9609840042912644
 22
-0.2766039470006303
 32
0.0
 13
-0.2740101207445422
 23
0.9617268082618688
 33
0.0
 40
0.0
 40
0.0
 40
0.0
 40
0.0
 40
0.2574514843586295
 40
0.3795207975315479
 40
0.5011520425419516
 40
0.7555099508234595
 40
1.041736621297387
 40
1.041736621297387
 40
1.041736621297387
 40
1.041736621297387
 10
198.9923063037
 20
267.8819849551
 30
0.0
 10
198.9098373842501
 20
267.8582475895217
 30
0.0
 10
198.7796133181708
 20
267.8435471661789
 30
0.0
 10
198.615652636254
 20
267.8814960155465
 30
0.0
 10
198.4652693203188
 20
267.9552015865455
 30
0.0
 10
198.306999505426
 20
268.1187177568018
 30
0.0
 10
198.2352804251123
 20
268.2876093311886
 30
0.0
 10
198.2091374236
 20
268.3793666186
 30
0.0
 11
198.9923063037
 21
267.8819849551
 31
0.0
 11
198.7359472976
 21
267.858292619
 31
0.0
 11
198.6170518929
 21
267.8859476359
 31
0.0
 11
198.5078211565
 21
267.9394528318
 31
0.0
 11
198.3273419824
 21
268.1186879099
 31
0.0
 11
198.2091374236
 21
268.3793666186
 31
0.0
  0
SPLINE
  5
2C1
330
216
100
AcDbEntity
  8
0
  6
Continuous
 62
     7
100
AcDbSpline
210
0.0
220
0.0
230
1.0
 70
  1064
 71
     3
 72
    11
 73
     7
 74
     5
 42
0.000000001
 43
0.0000000001
 44
0.0000000001
 12
-0.2419223447612917
 22
0.9702956142873155
 32
0.0
 13
0.7160244216895593
 23
0.6980752305762841
 33
0.0
 40
0.0
 40
0.0
 40
0.0
 40
0.0
 40
0.4005190674729434
 40
0.8270843301927763
 40
1.241090051165451
 40
1.603185097263702
 40
1.603185097263702
 40
1.603185097263702
 40
1.603185097263702
 10
198.1994493052
 20
268.415665924
 30
0.0
 10
198.1671511345584
 20
268.5452065555358
 30
0.0
 10
198.1456086433582
 20
268.8244552997625
 30
0.0
 10
198.2145313548464
 20
269.2356740135425
 30
0.0
 10
198.3656830543529
 20
269.6100847731638
 30
0.0
 10
198.5183863734736
 20
269.8240653944015
 30
0.0
 10
198.6048093388
 20
269.908321922
 30
0.0
 11
198.1994493052
 21
268.415665924
 31
0.0
 11
198.1621098017
 21
268.8144406535
 31
0.0
 11
198.2304134124
 21
269.2355018606
 31
0.0
 11
198.3879043694
 21
269.6183821754
 31
0.0
 11
198.6048093388
 21
269.908321922
 31
0.0
  0
SPLINE
  5
2C2
330
216
100
AcDbEntity
  8
0
  6
Continuous
 62
     7
100
AcDbSpline
210
0.0
220
0.0
230
1.0
 70
  1064
 71
     3
 72
    15
 73
    11
 74
     9
 42
0.000000001
 43
0.0000000001
 44
0.0000000001
 12
0.7160244217583323
 22
0.6980752305057428
 32
0.0
 13
0.1906377026391685
 23
-0.9816604638735636
 33
0.0
 40
0.0
 40
0.0
 40
0.0
 40
0.0
 40
0.1393487090408671
 40
0.2620579047359957
 40
0.3697313629816983
 40
0.4667878098647476
 40
0.5605135664240039
 40
0.6593034391052763
 40
0.7699084485484511
 40
0.8961036947726165
 40
0.8961036947726165
 40
0.8961036947726165
 40
0.8961036947726165
 10
198.6048093388
 20
269.908321922
 30
0.0
 10
198.6380683650713
 20
269.9407472160615
 30
0.0
 10
198.7051694887215
 20
269.9974178898612
 30
0.0
 10
198.8133153695462
 20
270.0583567267518
 30
0.0
 10
198.9197866665649
 20
270.0880006133751
 30
0.0
 10
199.0211693888257
 20
270.0838967421145
 30
0.0
 10
199.1117711842949
 20
270.0445869266477
 30
0.0
 10
199.1856292048346
 20
269.9729319751114
 30
0.0
 10
199.2402748804205
 20
269.8739275697927
 30
0.0
 10
199.2619127226919
 20
269.7973757253823
 30
0.0
 10
199.2699319133
 20
269.7560820974
 30
0.0
 11
198.6048093388
 21
269.908321922
 31
0.0
 11
198.7121305502999
 21
269.9972051053
 31
0.0
 11
198.8198482562
 21
270.0559796112
 31
0.0
 11
198.9240615999
 21
270.0830564021
 31
0.0
 11
199.0209770691
 21
270.0778270894
 31
0.0
 11
199.1070280664
 21
270.0406821933
 31
0.0
 11
199.1789833
 21
269.9729925833
 31
0.0
 11
199.2340445863
 21
269.8770669722
 31
0.0
 11
199.2699319133
 21
269.7560820974
 31
0.0
  0
SPLINE
  5
2C3
330
216
100
AcDbEntity
  8
0
  6
Continuous
 62
     7
100
AcDbSpline
210
0.0
220
0.0
230
1.0
 70
  1064
 71
     3
 72
     9
 73
     5
 74
     3
 42
0.000000001
 43
0.0000000001
 44
0.0000000001
 12
0.1906377028583372
 22
-0.9816604638310012
 32
0.0
 13
0.0603178673420892
 23
-0.9981792198194179
 33
0.0
 40
0.0
 40
0.0
 40
0.0
 40
0.0
 40
0.0267455351902004
 40
0.1107988477431046
 40
0.1107988477431046
 40
0.1107988477431046
 40
0.1107988477431046
 10
199.2699319133
 20
269.7560820974
 30
0.0
 10
199.2716314824301
 20
269.7473304192399
 30
0.0
 10
199.2780130124886
 20
269.7109480152737
 30
0.0
 10
199.2818514580146
 20
269.6741349871491
 30
0.0
 10
199.2835414302
 20
269.6461682305
 30
0.0
 11
199.2699319133
 21
269.7560820974
 31
0.0
 11
199.2745641535
 21
269.729740761
 31
0.0
 11
199.2835414302
 21
269.6461682305
 31
0.0
  0
SPLINE
  5
2C4
330
216
100
AcDbEntity
  8
0
  6
Continuous
 62
     7
100
AcDbSpline
210
0.0
220
0.0
230
1.0
 70
  1064
 71
     3
 72
    12
 73
     8
 74
     6
 42
0.000000001
 43
0.0000000001
 44
0.0000000001
 12
-0.9619275660530252
 22
-0.2733045145388257
 32
0.0
 13
-0.2426733048890593
 23
0.9701080698016184
 33
0.0
 40
0.0
 40
0.0
 40
0.0
 40
0.0
 40
0.2638169762015218
 40
0.3890386072983826
 40
0.5141905214864489
 40
0.7775177244517339
 40
1.075465545437873
 40
1.075465545437873
 40
1.075465545437873
 40
1.075465545437873
 10
198.3133958444
 20
268.1428742895
 30
0.0
 10
198.2288049037997
 20
268.1188401659641
 30
0.0
 10
198.0948819945311
 20
268.1048789357116
 30
0.0
 10
197.9273916856376
 20
268.1472263645248
 30
0.0
 10
197.7743021703897
 20
268.2274072286426
 30
0.0
 10
197.615924042403
 20
268.4024391123196
 30
0.0
 10
197.5474130419677
 20
268.5801418297272
 30
0.0
 10
197.5233117145
 20
268.6764890249
 30
0.0
 11
198.3133958444
 21
268.1428742895
 31
0.0
 11
198.0504823629999
 21
268.1210591977
 31
0.0
 11
197.9291052109
 21
268.1518495183
 31
0.0
 11
197.8181930438
 21
268.2098279006
 31
0.0
 11
197.637336744
 21
268.4012233411
 31
0.0
 11
197.5233117145
 21
268.6764890249
 31
0.0
  0
SPLINE
  5
2C5
330
216
100
AcDbEntity
  8
0
  6
Continuous
 62
     7
100
AcDbSpline
210
0.0
220
0.0
230
1.0
 70
  1064
 71
     3
 72
    20
 73
    16
 74
    14
 42
0.000000001
 43
0.0000000001
 44
0.0000000001
 12
-0.1576170710438987
 22
0.987500308311619
 32
0.0
 13
0.0571988814251929
 23
-0.9983628037761157
 33
0.0
 40
0.0
 40
0.0
 40
0.0
 40
0.0
 40
0.3952829974599006
 40
0.8069518268977855
 40
1.199314075668275
 40
1.377625901698533
 40
1.539180343021391
 40
1.682052212258578
 40
1.806367053980525
 40
1.915273325131149
 40
2.015745642788562
 40
2.11765086896267
 40
2.230317989431577
 40
2.359627344256351
 40
2.507792758015189
 40
2.507792758015189
 40
2.507792758015189
 40
2.507792758015189
 10
197.5019774681
 20
268.7812669508001
 30
0.0
 10
197.4812096853356
 20
268.9113809780874
 30
0.0
 10
197.4782200256763
 20
269.1838932393863
 30
0.0
 10
197.563749332299
 20
269.5770403587403
 30
0.0
 10
197.6999351629578
 20
269.8783271762299
 30
0.0
 10
197.8403053030081
 20
270.0787608173281
 30
0.0
 10
197.9506569186137
 20
270.1967547798219
 30
0.0
 10
198.0652420997282
 20
270.283593413768
 30
0.0
 10
198.1802796330473
 20
270.3365315982297
 30
0.0
 10
198.2923310234876
 20
270.3528619460376
 30
0.0
 10
198.3961238830191
 20
270.329276162048
 30
0.0
 10
198.483411946034
 20
270.266421373225
 30
0.0
 10
198.5491107042546
 20
270.170331260626
 30
0.0
 10
198.5922334628151
 20
270.0464774124802
 30
0.0
 10
198.604549394589
 20
269.9542276316344
 30
0.0
 10
198.6073743599
 20
269.904920019
 30
0.0
 11
197.5019774681
 21
268.7812669508001
 31
0.0
 11
197.4928067353
 21
269.1764435515
 31
0.0
 11
197.5793153761
 21
269.5789202343
 31
0.0
 11
197.7439259304
 21
269.935082416
 31
0.0
 11
197.8469691029
 21
270.0806063381
 31
0.0
 11
197.9582425370999
 21
270.1977304618
 31
0.0
 11
198.0731517796
 21
270.2826317987
 31
0.0
 11
198.1869751007
 21
270.3326161107
 31
0.0
 11
198.2950295789
 21
270.3462104344
 31
0.0
 11
198.3928343827
 21
270.3232124569
 31
0.0
 11
198.4762673093
 21
270.2647007326
 31
0.0
 11
198.5417072132
 21
270.1729865079
 31
0.0
 11
198.5861633086
 21
270.0515593082
 31
0.0
 11
198.6073743599
 21
269.904920019
 31
0.0
  0
SPLINE
  5
2C6
330
216
100
AcDbEntity
  8
0
  6
Continuous
 62
     7
100
AcDbSpline
210
0.0
220
0.0
230
1.0
 70
  1064
 71
     3
 72
    18
 73
    14
 74
    12
 42
0.000000001
 43
0.0000000001
 44
0.0000000001
 12
0.2180095581403179
 22
0.9759466340735354
 32
0.0
 13
0.0580233529146995
 23
-0.9983152260265974
 33
0.0
 40
0.0
 40
0.0
 40
0.0
 40
0.0
 40
0.3301316318728289
 40
0.6395034295097181
 40
0.9110447714642688
 40
1.029327190840654
 40
1.135270344838974
 40
1.314178781536025
 40
1.395264531357724
 40
1.476989207526612
 40
1.564489792866309
 40
1.66157266873916
 40
1.89080234746745
 40
1.89080234746745
 40
1.89080234746745
 40
1.89080234746745
 10
196.8515567858
 20
269.6554311905
 30
0.0
 10
196.8755474028642
 20
269.7628281421425
 30
0.0
 10
196.9403104003406
 20
269.9673225647006
 30
0.0
 10
197.082060278435
 20
270.237564369802
 30
0.0
 10
197.2305494037984
 20
270.4202769020844
 30
0.0
 10
197.3598709845618
 20
270.5244049657813
 30
0.0
 10
197.4768346242299
 20
270.5907278250523
 30
0.0
 10
197.6020277920106
 20
270.6188806950167
 30
0.0
 10
197.7143239472152
 20
270.5905692439415
 30
0.0
 10
197.7858911557414
 20
270.5451459563207
 30
0.0
 10
197.8446673996583
 20
270.4771907602181
 30
0.0
 10
197.9076814607379
 20
270.3533931882686
 30
0.0
 10
197.9265531871175
 20
270.2435951098105
 30
0.0
 10
197.9309867453
 20
270.1673139503
 30
0.0
 11
196.8515567858
 21
269.6554311905
 31
0.0
 11
196.9516701595999
 21
269.9700169606
 31
0.0
 11
197.0973015271
 21
270.2429682638999
 31
0.0
 11
197.2722671839
 21
270.4506259614
 31
0.0
 11
197.3649169184
 21
270.5241566178
 31
0.0
 11
197.4577129566
 21
270.5752726346
 31
0.0
 11
197.6338331587
 21
270.6067353607
 31
0.0
 11
197.7123892591
 21
270.5866396419
 31
0.0
 11
197.7816662401
 21
270.5432850274
 31
0.0
 11
197.8397140579
 21
270.4778113435
 31
0.0
 11
197.8848307297
 21
270.3918487312
 31
0.0
 11
197.9309867453
 21
270.1673139503
 31
0.0
  0
SPLINE
  5
2C7
330
216
100
AcDbEntity
  8
0
  6
Continuous
 62
     7
100
AcDbSpline
210
0.0
220
0.0
230
1.0
 70
  1064
 71
     3
 72
    12
 73
     8
 74
     6
 42
0.000000001
 43
0.0000000001
 44
0.0000000001
 12
-0.960919600182105
 22
-0.2768276033669037
 32
0.0
 13
-0.2668803066558717
 23
0.9637296830124451
 33
0.0
 40
0.0
 40
0.0
 40
0.0
 40
0.0
 40
0.2591330382985161
 40
0.3820052807159857
 40
0.5045056601222679
 40
0.7610173664206337
 40
1.050053386931904
 40
1.050053386931904
 40
1.050053386931904
 40
1.050053386931904
 10
196.9634413408
 20
268.6668887133
 30
0.0
 10
196.8804393356147
 20
268.6429769873182
 30
0.0
 10
196.749279501436
 20
268.628296697762
 30
0.0
 10
196.5843421515944
 20
268.6671045397775
 30
0.0
 10
196.4331809776309
 20
268.7421889360261
 30
0.0
 10
196.2746815714675
 20
268.908333174888
 30
0.0
 10
196.2036014454295
 20
269.0793125429578
 30
0.0
 10
196.1778887715
 20
269.1721634071
 30
0.0
 11
196.9634413408
 21
268.6668887133
 31
0.0
 11
196.7053807748
 21
268.6433371568
 31
0.0
 11
196.5858044252
 21
268.6716052408
 31
0.0
 11
196.4760746767
 21
268.7260637135
 31
0.0
 11
196.2952993474
 21
268.9080487013
 31
0.0
 11
196.1778887715
 21
269.1721634071
 31
0.0
  0
SPLINE
  5
2C8
330
216
100
AcDbEntity
  8
0
  6
Continuous
 62
     7
100
AcDbSpline
210
0.0
220
0.0
230
1.0
 70
  1064
 71
     3
 72
    11
 73
     7
 74
     5
 42
0.000000001
 43
0.0000000001
 44
0.0000000001
 12
-0.2417249109367226
 22
0.9703448188312407
 32
0.0
 13
0.4191103760145328
 23
0.907935291040588
 33
0.0
 40
0.0
 40
0.0
 40
0.0
 40
0.0
 40
0.2640643736421863
 40
0.5446824483672894
 40
0.8316386032185141
 40
1.112822891842785
 40
1.112822891842785
 40
1.112822891842785
 40
1.112822891842785
 10
196.1703712194
 20
269.2007602636
 30
0.0
 10
196.1490942403332
 20
269.2861714292005
 30
0.0
 10
196.1250093831004
 20
269.4675569141213
 30
0.0
 10
196.1378120682638
 20
269.7456422842786
 30
0.0
 10
196.194982306545
 20
270.0238067502401
 30
0.0
 10
196.2606446391551
 20
270.2023646435906
 30
0.0
 10
196.2999270568
 20
270.2874636899
 30
0.0
 11
196.1703712194
 21
269.2007602636
 31
0.0
 11
196.1333729465
 21
269.4622198613
 31
0.0
 11
196.1449239517
 21
269.7426000998
 31
0.0
 11
196.2023593972
 21
270.0237495341
 31
0.0
 11
196.2999270568
 21
270.2874636899
 31
0.0
  0
SPLINE
  5
2C9
330
216
100
AcDbEntity
  8
0
  6
Continuous
 62
     7
100
AcDbSpline
210
0.0
220
0.0
230
1.0
 70
  1064
 71
     3
 72
    17
 73
    13
 74
    11
 42
0.000000001
 43
0.0000000001
 44
0.0000000001
 12
0.419110375997427
 22
0.9079352910484841
 32
0.0
 13
0.0610602002990098
 23
-0.99813408515061
 33
0.0
 40
0.0
 40
0.0
 40
0.0
 40
0.0
 40
0.2601808365407014
 40
0.4925435148204726
 40
0.6904783664790408
 40
0.8540078316856877
 40
0.9263079612803551
 40
0.9953315720789078
 40
1.064336733898145
 40
1.136585134511532
 40
1.299944818635639
 40
1.497683735958259
 40
1.497683735958259
 40
1.497683735958259
 40
1.497683735958259
 10
196.2999270568
 20
270.2874636899
 30
0.0
 10
196.3362752195433
 20
270.3662061444166
 30
0.0
 10
196.416278448036
 20
270.5105290937004
 30
0.0
 10
196.5620037781313
 20
270.6905093129468
 30
0.0
 10
196.7179966766634
 20
270.8152867099587
 30
0.0
 10
196.8564867398779
 20
270.8688790370392
 30
0.0
 10
196.9590599047619
 20
270.871242795663
 30
0.0
 10
197.0280839334399
 20
270.8548843563954
 30
0.0
 10
197.0902346189047
 20
270.8207253677118
 30
0.0
 10
197.1646452122311
 20
270.750195249136
 30
0.0
 10
197.2312529120643
 20
270.6176639824785
 30
0.0
 10
197.2504535093004
 20
270.4975397999468
 30
0.0
 10
197.2544781686
 20
270.4317498155
 30
0.0
 11
196.2999270568
 21
270.2874636899
 31
0.0
 11
196.4274792855
 21
270.5142333895
 31
0.0
 11
196.5757495193
 21
270.6931421708
 31
0.0
 11
196.7331676525
 21
270.8131327406
 31
0.0
 11
196.8875635213
 21
270.8670196749
 31
0.0
 11
196.9598555099
 21
270.8681046282
 31
0.0
 11
197.0269645341
 21
270.85196035
 31
0.0
 11
197.0875471374
 21
270.8189230902
 31
0.0
 11
197.140382012
 21
270.7696452309
 31
0.0
 11
197.2185389583
 21
270.6261953158
 31
0.0
 11
197.2544781686
 21
270.4317498155
 31
0.0
  0
SPLINE
  5
2CA
330
216
100
AcDbEntity
  8
0
  6
Continuous
 62
     7
100
AcDbSpline
210
0.0
220
0.0
230
1.0
 70
  1064
 71
     3
 72
    13
 73
     9
 74
     7
 42
0.000000001
 43
0.0000000001
 44
0.0000000001
 12
-0.9617713382429442
 22
-0.2738537802083001
 32
0.0
 13
-0.2426575751820665
 23
0.9701120044648245
 33
0.0
 40
0.0
 40
0.0
 40
0.0
 40
0.0
 40
0.2639632344566916
 40
0.3892402207415388
 40
0.5144394636998313
 40
0.64340738833356
 40
0.7792710344953778
 40
1.077331517469358
 40
1.077331517469358
 40
1.077331517469358
 40
1.077331517469358
 10
196.284815034
 20
268.9278582469
 30
0.0
 10
196.2001909429165
 20
268.9037624703693
 30
0.0
 10
196.0662093297616
 20
268.8897235834363
 30
0.0
 10
195.8986070386922
 20
268.9319710345813
 30
0.0
 10
195.7855236187595
 20
268.9912458873354
 30
0.0
 10
195.6863363012971
 20
269.0769371520961
 30
0.0
 10
195.5720841770554
 20
269.2270825084655
 30
0.0
 10
195.5184007919187
 20
269.3649673401701
 30
0.0
 10
195.4942919139
 20
269.4613513577
 30
0.0
 11
196.284815034
 21
268.9278582469
 31
0.0
 11
196.0217685028
 21
268.9058784478
 31
0.0
 11
195.9003218502999
 21
268.9366198513
 31
0.0
 11
195.7893428975
 21
268.994572612
 31
0.0
 11
195.6913138886
 21
269.0783761859
 31
0.0
 11
195.6083773944
 21
269.1859887701
 31
0.0
 11
195.4942919139
 21
269.4613513577
 31
0.0
  0
SPLINE
  5
2CB
330
216
100
AcDbEntity
  8
0
  6
Continuous
 62
     7
100
AcDbSpline
210
0.0
220
0.0
230
1.0
 70
  1064
 71
     3
 72
    11
 73
     7
 74
     5
 42
0.000000001
 43
0.0000000001
 44
0.0000000001
 12
-0.2426575751675951
 22
0.9701120044684444
 32
0.0
 13
0.6231501980520559
 23
0.7821021868449697
 33
0.0
 40
0.0
 40
0.0
 40
0.0
 40
0.0
 40
0.359432004511782
 40
0.7428755733487984
 40
1.122784887570919
 40
1.469403783355326
 40
1.469403783355326
 40
1.469403783355326
 40
1.469403783355326
 10
195.4942919139
 20
269.4613513577
 30
0.0
 10
195.4652189476825
 20
269.5775811251557
 30
0.0
 10
195.441698208143
 20
269.8273949849413
 30
0.0
 10
195.4909118319877
 20
270.2009164634277
 30
0.0
 10
195.6116106927591
 20
270.5530647062614
 30
0.0
 10
195.7366004891811
 20
270.7635141045018
 30
0.0
 10
195.8085990337
 20
270.8538779033
 30
0.0
 11
195.4942919139
 21
269.4613513577
 31
0.0
 11
195.4555873142
 21
269.8186933785
 31
0.0
 11
195.5035687785
 21
270.1991230692
 31
0.0
 11
195.6278051254
 21
270.5581445409
 31
0.0
 11
195.8085990337
 21
270.8538779033
 31
0.0
  0
SPLINE
  5
2CC
330
216
100
AcDbEntity
  8
0
  6
Continuous
 62
     7
100
AcDbSpline
210
0.0
220
0.0
230
1.0
 70
  1064
 71
     3
 72
    16
 73
    12
 74
    10
 42
0.000000001
 43
0.0000000001
 44
0.0000000001
 12
0.6231501980560498
 22
0.7821021868417874
 32
0.0
 13
0.0573709720768797
 23
-0.9983529293606315
 33
0.0
 40
0.0
 40
0.0
 40
0.0
 40
0.0
 40
0.1838034029212092
 40
0.2668336479546284
 40
0.3437446275690594
 40
0.479959499634584
 40
0.5986977567795275
 40
0.7121453903350912
 40
0.8349203509219663
 40
0.9775465692539494
 40
1.14428796517078
 40
1.14428796517078
 40
1.14428796517078
 40
1.14428796517078
 10
195.8085990337
 20
270.8538779033
 30
0.0
 10
195.8467780760112
 20
270.9017955844246
 30
0.0
 10
195.907589852733
 20
270.9675611491507
 30
0.0
 10
195.9974321211712
 20
271.0390238706551
 30
0.0
 10
196.0812683699196
 20
271.0913909402847
 30
0.0
 10
196.185938945025
 20
271.1322534477187
 30
0.0
 10
196.3121938726784
 20
271.1342318185056
 30
0.0
 10
196.4231299840397
 20
271.0825003333006
 30
0.0
 10
196.5066905422959
 20
270.9837293957977
 30
0.0
 10
196.5604811020442
 20
270.8482475858779
 30
0.0
 10
196.5751628867769
 20
270.7453239699531
 30
0.0
 10
196.5783515921
 20
270.6898350496
 30
0.0
 11
195.8085990337
 21
270.8538779033
 31
0.0
 11
195.9347928056
 21
270.9875148101
 31
0.0
 11
195.999967589
 21
271.0389567113
 31
0.0
 11
196.0653776054
 21
271.079414449
 31
0.0
 11
196.1934385382
 21
271.1258352295
 31
0.0
 11
196.3121744228
 21
271.1250846177
 31
0.0
 11
196.4152042197
 21
271.0775953925
 31
0.0
 11
196.4968545301
 21
270.9859061469
 31
0.0
 11
196.5524152111
 21
270.8545469109
 31
0.0
 11
196.5783515921
 21
270.6898350496
 31
0.0
  0
SPLINE
  5
2CD
330
216
100
AcDbEntity
  8
0
  6
Continuous
 62
     7
100
AcDbSpline
210
0.0
220
0.0
230
1.0
 70
  1064
 71
     3
 72
    12
 73
     8
 74
     6
 42
0.000000001
 43
0.0000000001
 44
0.0000000001
 12
-0.9632802522083105
 22
-0.2684979621998903
 32
0.0
 13
-0.2422176135149942
 23
0.9702219476506915
 33
0.0
 40
0.0
 40
0.0
 40
0.0
 40
0.0
 40
0.2626730762622029
 40
0.3874756619260797
 40
0.5122844470055066
 40
0.7750010118720052
 40
1.072185328864207
 40
1.072185328864207
 40
1.072185328864207
 40
1.072185328864207
 10
195.6042304591
 20
269.1882812873
 30
0.0
 10
195.5198878633833
 20
269.1647722253996
 30
0.0
 10
195.3864320293679
 20
269.1516166518507
 30
0.0
 10
195.2197746415829
 20
269.1945989241061
 30
0.0
 10
195.0674394201782
 20
269.2751996256961
 30
0.0
 10
194.9099654762227
 20
269.4501632612326
 30
0.0
 10
194.8417935297453
 20
269.6274637342189
 30
0.0
 10
194.8177991044
 20
269.7235753165
 30
0.0
 11
195.6042304591
 21
269.1882812873
 31
0.0
 11
195.3423475807
 21
269.1679219407
 31
0.0
 11
195.2215227711
 21
269.1991797521
 31
0.0
 11
195.1111521811
 21
269.2574512348
 31
0.0
 11
194.9312342108
 21
269.4488918716
 31
0.0
 11
194.8177991044
 21
269.7235753165
 31
0.0
  0
SPLINE
  5
2CE
330
216
100
AcDbEntity
  8
0
  6
Continuous
 62
     7
100
AcDbSpline
210
0.0
220
0.0
230
1.0
 70
  1064
 71
     3
 72
     9
 73
     5
 74
     3
 42
0.000000001
 43
0.0000000001
 44
0.0000000001
 12
-0.2042929213556252
 22
0.9789098029358907
 32
0.0
 13
0.3433849386973267
 23
0.939194752900501
 33
0.0
 40
0.0
 40
0.0
 40
0.0
 40
0.0
 40
0.4482938684169396
 40
0.9185105315872965
 40
0.9185105315872965
 40
0.9185105315872965
 40
0.9185105315872965
 10
194.8074712034
 20
269.7686930335
 30
0.0
 10
194.7769434487318
 20
269.9149727876298
 30
0.0
 10
194.7678595383696
 20
270.2262802424514
 30
0.0
 10
194.8374630160475
 20
270.5277684669747
 30
0.0
 10
194.8912847894
 20
270.6749768079
 30
0.0
 11
194.8074712034
 21
269.7686930335
 31
0.0
 11
194.7868203584
 21
270.2165110044
 31
0.0
 11
194.8912847894
 21
270.6749768079
 31
0.0
  0
SPLINE
  5
2CF
330
216
100
AcDbEntity
  8
0
  6
Continuous
 62
     7
100
AcDbSpline
210
0.0
220
0.0
230
1.0
 70
  1064
 71
     3
 72
    12
 73
     8
 74
     6
 42
0.000000001
 43
0.0000000001
 44
0.0000000001
 12
-0.9609625230469227
 22
-0.2766785667508289
 32
0.0
 13
-0.2597869107626284
 23
0.9656659676080597
 33
0.0
 40
0.0
 40
0.0
 40
0.0
 40
0.0
 40
0.2607152474473851
 40
0.3843533578911
 40
0.5076931881674838
 40
0.7663094861799176
 40
1.058092338468809
 40
1.058092338468809
 40
1.058092338468809
 40
1.058092338468809
 10
194.9342813934
 20
269.4517077539
 30
0.0
 10
194.850768866072
 20
269.4276629802354
 30
0.0
 10
194.7187131229521
 20
269.413064420734
 30
0.0
 10
194.5528719726723
 20
269.452785332111
 30
0.0
 10
194.4010010450989
 20
269.5292851887742
 30
0.0
 10
194.2423622482347
 20
269.6980522277611
 30
0.0
 10
194.1719591198365
 20
269.871079577671
 30
0.0
 10
194.1466919979
 20
269.9650011678
 30
0.0
 11
194.9342813934
 21
269.4517077539
 31
0.0
 11
194.6746090668
 21
269.4284113368
 31
0.0
 11
194.5544008071
 21
269.4573311683
 31
0.0
 11
194.4442212231
 21
269.5127673749
 31
0.0
 11
194.2632404102
 21
269.6975059333
 31
0.0
 11
194.1466919979
 21
269.9650011678
 31
0.0
  0
SPLINE
  5
2D0
330
216
100
AcDbEntity
  8
0
  6
Continuous
 62
     7
100
AcDbSpline
210
0.0
220
0.0
230
1.0
 70
  1064
 71
     3
 72
    11
 73
     7
 74
     5
 42
0.000000001
 43
0.0000000001
 44
0.0000000001
 12
-0.2415037105690495
 22
0.9703998958065593
 32
0.0
 13
0.423840573502973
 23
0.9057368095935327
 33
0.0
 40
0.0
 40
0.0
 40
0.0
 40
0.0
 40
0.2662581008808292
 40
0.549251193833876
 40
0.8384835253606583
 40
1.12153586396083
 40
1.12153586396083
 40
1.12153586396083
 40
1.12153586396083
 10
194.1412851177999
 20
269.9858872722
 30
0.0
 10
194.119851011356
 20
270.0720128833175
 30
0.0
 10
194.0957654812821
 20
270.2549668387367
 30
0.0
 10
194.1092955937263
 20
270.5353255709031
 30
0.0
 10
194.1677993312492
 20
270.8154554025125
 30
0.0
 10
194.2347194255921
 20
270.9950448179628
 30
0.0
 10
194.2747091141
 20
271.080501792
 30
0.0
 11
194.1412851177999
 21
269.9858872722
 31
0.0
 11
194.1042421526
 21
270.2495559943
 31
0.0
 11
194.1165098483
 21
270.5322830611
 31
0.0
 11
194.1753163329
 21
270.8154740549
 31
0.0
 11
194.2747091141
 21
271.080501792
 31
0.0
  0
SPLINE
  5
2D1
330
216
100
AcDbEntity
  8
0
  6
Continuous
 62
     7
100
AcDbSpline
210
0.0
220
0.0
230
1.0
 70
  1064
 71
     3
 72
    17
 73
    13
 74
    11
 42
0.000000001
 43
0.0000000001
 44
0.0000000001
 12
0.4238405735015561
 22
0.9057368095941956
 32
0.0
 13
0.0618781648465818
 23
-0.9980837102744535
 33
0.0
 40
0.0
 40
0.0
 40
0.0
 40
0.0
 40
0.2582667736839992
 40
0.4887211013667995
 40
0.6849702199547885
 40
0.8472200066685623
 40
0.9190585694988204
 40
0.9877260093865485
 40
1.056443152415209
 40
1.128421240535598
 40
1.291130919125178
 40
1.487912347270608
 40
1.487912347270608
 40
1.487912347270608
 40
1.487912347270608
 10
194.2747091141
 20
271.080501792
 30
0.0
 10
194.3111970932582
 20
271.1584756998736
 30
0.0
 10
194.3912992430883
 20
271.3012763513394
 30
0.0
 10
194.5367819545742
 20
271.4790754507141
 30
0.0
 10
194.6922051365204
 20
271.6019610180774
 30
0.0
 10
194.8299610261766
 20
271.6542184425383
 30
0.0
 10
194.9318398576395
 20
271.6558846373615
 30
0.0
 10
195.0003948595997
 20
271.639195586878
 30
0.0
 10
195.0621031275517
 20
271.6048932558928
 30
0.0
 10
195.1359873823749
 20
271.5344192717604
 30
0.0
 10
195.2021653190167
 20
271.4024418529312
 30
0.0
 10
195.2213511226501
 20
271.2828724888388
 30
0.0
 10
195.2254099472
 20
271.2174043762
 30
0.0
 11
194.2747091141
 21
271.080501792
 31
0.0
 11
194.402475931
 21
271.3049508216
 31
0.0
 11
194.5504573554
 21
271.4816163111
 31
0.0
 11
194.7072165656
 21
271.5996852171
 31
0.0
 11
194.8607462731
 21
271.6521601845
 31
0.0
 11
194.9325822466
 21
271.6527701196
 31
0.0
 11
194.9992486784
 21
271.6363139909
 31
0.0
 11
195.059422713
 21
271.6031306923
 31
0.0
 11
195.1119028382
 21
271.5538693319
 31
0.0
 11
195.1895743897
 21
271.4108953147
 31
0.0
 11
195.2254099472
 21
271.2174043762
 31
0.0
  0
SPLINE
  5
2D2
330
216
100
AcDbEntity
  8
0
  6
Continuous
 62
     7
100
AcDbSpline
210
0.0
220
0.0
230
1.0
 70
  1064
 71
     3
 72
    13
 73
     9
 74
     7
 42
0.000000001
 43
0.0000000001
 44
0.0000000001
 12
-0.9616253843212247
 22
-0.2743658510621487
 32
0.0
 13
-0.2426202430118392
 23
0.9701213417304437
 33
0.0
 40
0.0
 40
0.0
 40
0.0
 40
0.0
 40
0.2641044316267833
 40
0.389435448863416
 40
0.5146815079325259
 40
0.6436943030495833
 40
0.7796059461212153
 40
1.07778010297873
 40
1.07778010297873
 40
1.07778010297873
 40
1.07778010297873
 10
194.2562035483
 20
269.7128336062
 30
0.0
 10
194.1715470397787
 20
269.6886798604825
 30
0.0
 10
194.0375051556367
 20
269.6745576736933
 30
0.0
 10
193.8698027654844
 20
269.7167452004675
 30
0.0
 10
193.7566519757599
 20
269.7759992718566
 30
0.0
 10
193.6574051919843
 20
269.8616955538114
 30
0.0
 10
193.5430897451783
 20
270.0118809223907
 30
0.0
 10
193.4893799322321
 20
270.1498176819267
 30
0.0
 10
193.4652655700999
 20
270.2462393863001
 30
0.0
 11
194.2562035483
 21
269.7128336062
 31
0.0
 11
193.9930280885
 21
269.6907015443
 31
0.0
 11
193.8715146567
 21
269.7213992604
 31
0.0
 11
193.7604720613
 21
269.7793312664
 31
0.0
 11
193.6623865784
 21
269.8631378255
 31
0.0
 11
193.5794045731
 21
269.9707759299
 31
0.0
 11
193.4652655700999
 21
270.2462393863001
 31
0.0
  0
SPLINE
  5
2D3
330
216
100
AcDbEntity
  8
0
  6
Continuous
 62
     7
100
AcDbSpline
210
0.0
220
0.0
230
1.0
 70
  1064
 71
     3
 72
    11
 73
     7
 74
     5
 42
0.000000001
 43
0.0000000001
 44
0.0000000001
 12
-0.2426202430424223
 22
0.970121341722795
 32
0.0
 13
0.628203205670883
 23
0.7780493123092047
 33
0.0
 40
0.0
 40
0.0
 40
0.0
 40
0.0
 40
0.361708155072551
 40
0.7475645425251141
 40
1.129470639570222
 40
1.47716024772513
 40
1.47716024772513
 40
1.47716024772513
 40
1.47716024772513
 10
193.4652655700999
 20
270.2462393863001
 30
0.0
 10
193.4360129966019
 20
270.3632063198704
 30
0.0
 10
193.4125726367111
 20
270.6146534691317
 30
0.0
 10
193.4628230528178
 20
270.9903250108744
 30
0.0
 10
193.5851780136659
 20
271.3438704124325
 30
0.0
 10
193.7116832224262
 20
271.554685865926
 30
0.0
 10
193.7844897979
 20
271.6448590861
 30
0.0
 11
193.4652655700999
 21
270.2462393863001
 31
0.0
 11
193.4266037597
 21
270.6058753882
 31
0.0
 11
193.475642573
 21
270.9886028977
 31
0.0
 11
193.601665397
 21
271.3491171343
 31
0.0
 11
193.7844897979
 21
271.6448590861
 31
0.0
  0
SPLINE
  5
2D4
330
216
100
AcDbEntity
  8
0
  6
Continuous
 62
     7
100
AcDbSpline
210
0.0
220
0.0
230
1.0
 70
  1064
 71
     3
 72
    15
 73
    11
 74
     9
 42
0.000000001
 43
0.0000000001
 44
0.0000000001
 12
0.6282032057047795
 22
0.7780493122818364
 32
0.0
 13
0.0575391259813375
 23
-0.9983432520838229
 33
0.0
 40
0.0
 40
0.0
 40
0.0
 40
0.0
 40
0.1819929492782106
 40
0.3400631704783084
 40
0.4749966742930532
 40
0.592858048225782
 40
0.7057657661439097
 40
0.8281010322220168
 40
0.9701552924406533
 40
1.136086627668872
 40
1.136086627668872
 40
1.136086627668872
 40
1.136086627668872
 10
193.7844897979
 20
271.6448590861
 30
0.0
 10
193.8225993159507
 20
271.6920589157754
 30
0.0
 10
193.9005847685965
 20
271.7752408052346
 30
0.0
 10
194.0302682850288
 20
271.8682385679548
 30
0.0
 10
194.1601996815577
 20
271.917714996284
 30
0.0
 10
194.2855618621186
 20
271.9184901170383
 30
0.0
 10
194.3954552416377
 20
271.8661740345839
 30
0.0
 10
194.4782153237504
 20
271.7674936768471
 30
0.0
 10
194.5315494243919
 20
271.6325176798209
 30
0.0
 10
194.5461413142326
 20
271.5300592210115
 30
0.0
 10
194.5493238289
 20
271.4748404114
 30
0.0
 11
193.7844897979
 21
271.6448590861
 31
0.0
 11
193.9103265326
 21
271.7763374105
 31
0.0
 11
194.0402705907
 21
271.8663415026
 31
0.0
 11
194.1675114494
 21
271.9112504586
 31
0.0
 11
194.2853591379
 21
271.9094544128
 31
0.0
 11
194.3875425805
 21
271.8614263291
 31
0.0
 11
194.4684892572
 21
271.7697009081
 31
0.0
 11
194.5235737125
 21
271.6387615495
 31
0.0
 11
194.5493238289
 21
271.4748404114
 31
0.0
  0
SPLINE
  5
2D5
330
216
100
AcDbEntity
  8
0
  6
Continuous
 62
     7
100
AcDbSpline
210
0.0
220
0.0
230
1.0
 70
  1064
 71
     3
 72
    12
 73
     8
 74
     6
 42
0.000000001
 43
0.0000000001
 44
0.0000000001
 12
-0.9630623495941101
 22
-0.2692785004308211
 32
0.0
 13
-0.2419988102329282
 23
0.9702765460660415
 33
0.0
 40
0.0
 40
0.0
 40
0.0
 40
0.0
 40
0.2629257914921339
 40
0.3878292472003904
 40
0.512730035106695
 40
0.7756370818500314
 40
1.073064213632942
 40
1.073064213632942
 40
1.073064213632942
 40
1.073064213632942
 10
193.5758221919
 20
269.9733120574
 30
0.0
 10
193.4914175483922
 20
269.9497119697808
 30
0.0
 10
193.3578472547544
 20
269.9364301409858
 30
0.0
 10
193.191016569534
 20
269.9793498984381
 30
0.0
 10
193.0385306072234
 20
270.0599466463821
 30
0.0
 10
192.8809056687565
 20
270.2350338709867
 30
0.0
 10
192.8127107488408
 20
270.4124880001224
 30
0.0
 10
192.7887184115
 20
270.5086835235
 30
0.0
 11
193.5758221919
 21
269.9733120574
 31
0.0
 11
193.3137033369
 21
269.9527286251
 31
0.0
 11
193.1927622622
 21
269.983939676
 31
0.0
 11
193.0822856728
 21
270.0422074202
 31
0.0
 11
192.9022089717
 21
270.233760277
 31
0.0
 11
192.7887184115
 21
270.5086835235
 31
0.0
  0
SPLINE
  5
2D6
330
216
100
AcDbEntity
  8
0
  6
Continuous
 62
     7
100
AcDbSpline
210
0.0
220
0.0
230
1.0
 70
  1064
 71
     3
 72
    11
 73
     7
 74
     5
 42
0.000000001
 43
0.0000000001
 44
0.0000000001
 12
-0.2419988102167114
 22
0.9702765460700861
 32
0.0
 13
0.7159790419629487
 23
0.6981217740980569
 33
0.0
 40
0.0
 40
0.0
 40
0.0
 40
0.0
 40
0.4004960181976572
 40
0.82702991646593
 40
1.241009233411958
 40
1.603088922345361
 40
1.603088922345361
 40
1.603088922345361
 40
1.603088922345361
 10
192.7887184115
 20
270.5086835235
 30
0.0
 10
192.7564118915332
 20
270.6382141545839
 30
0.0
 10
192.7349091680959
 20
270.9174510406612
 30
0.0
 10
192.8038176501899
 20
271.3286386503195
 30
0.0
 10
192.954956912651
 20
271.703030531814
 30
0.0
 10
193.1076488563677
 20
271.916999637899
 30
0.0
 10
193.1940626793
 20
272.0012582095
 30
0.0
 11
192.7887184115
 21
270.5086835235
 31
0.0
 11
192.7513976065
 21
270.9074368534
 31
0.0
 11
192.819699259
 21
271.3284666037
 31
0.0
 11
192.977175239
 21
271.7113245285
 31
0.0
 11
193.1940626793
 21
272.0012582095
 31
0.0
  0
SPLINE
  5
2D7
330
216
100
AcDbEntity
  8
0
  6
Continuous
 62
     7
100
AcDbSpline
210
0.0
220
0.0
230
1.0
 70
  1064
 71
     3
 72
    15
 73
    11
 74
     9
 42
0.000000001
 43
0.0000000001
 44
0.0000000001
 12
0.7159790420229499
 22
0.6981217740365209
 32
0.0
 13
0.0573761331513952
 23
-0.9983526327628899
 33
0.0
 40
0.0
 40
0.0
 40
0.0
 40
0.0
 40
0.1523756121047217
 40
0.2846942650656776
 40
0.3996199333884798
 40
0.5040593871768921
 40
0.6085781777778445
 40
0.7237098552601463
 40
0.8562986321727295
 40
1.008955536505276
 40
1.008955536505276
 40
1.008955536505276
 40
1.008955536505276
 10
193.1940626793
 20
272.0012582095
 30
0.0
 10
193.2304285942274
 20
272.0367171203808
 30
0.0
 10
193.303806912465
 20
272.0978949657289
 30
0.0
 10
193.4228234880076
 20
272.1604277391398
 30
0.0
 10
193.5396231207462
 20
272.1846246418694
 30
0.0
 10
193.6489954983944
 20
272.1665262868861
 30
0.0
 10
193.7417831707994
 20
272.105749391664
 30
0.0
 10
193.8115601032689
 20
272.0087967841601
 30
0.0
 10
193.8571713949273
 20
271.8820660391799
 30
0.0
 10
193.8700654417435
 20
271.78722134585
 30
0.0
 10
193.8729850627
 20
271.7364195384
 30
0.0
 11
193.1940626793
 21
272.0012582095
 31
0.0
 11
193.3122452271
 21
272.0974414334
 31
0.0
 11
193.4304318135
 21
272.1569406495
 31
0.0
 11
193.5434413977
 21
272.1778390494
 31
0.0
 11
193.6462862684
 21
272.1596585082
 31
0.0
 11
193.7343577597
 21
272.1033771613
 31
0.0
 11
193.8035978296
 21
272.0113928372
 31
0.0
 11
193.8506501397
 21
271.8874337154
 31
0.0
 11
193.8729850627
 21
271.7364195384
 31
0.0
  0
SPLINE
  5
2D8
330
216
100
AcDbEntity
  8
0
  6
Continuous
 62
     7
100
AcDbSpline
210
0.0
220
0.0
230
1.0
 70
  1064
 71
     3
 72
    13
 73
     9
 74
     7
 42
0.000000001
 43
0.0000000001
 44
0.0000000001
 12
0.912703742850206
 22
0.4086219252404658
 32
0.0
 13
0.0434704978870684
 23
-0.9990547111211931
 33
0.0
 40
0.0
 40
0.0
 40
0.0
 40
0.0
 40
0.1726460008967439
 40
0.2503620336144556
 40
0.3284373325437739
 40
0.4120472332564443
 40
0.5050729234749177
 40
0.7259334268947585
 40
0.7259334268947585
 40
0.7259334268947585
 40
0.7259334268947585
 10
192.7043667732
 20
272.3685933266
 30
0.0
 10
192.7568916569355
 20
272.3921089736905
 30
0.0
 10
192.8428195860221
 20
272.4130792329607
 30
0.0
 10
192.9510931784518
 20
272.3875606264889
 30
0.0
 10
193.0200123327459
 20
272.3447031036061
 30
0.0
 10
193.0763074624893
 20
272.2797036149714
 30
0.0
 10
193.1361923733883
 20
272.1604059246819
 30
0.0
 10
193.1529774293509
 20
272.0544449970808
 30
0.0
 10
193.1561777347
 20
271.9808944216
 30
0.0
 11
192.7043667732
 21
272.3685933266
 31
0.0
 11
192.8737875445
 21
272.4018084418
 31
0.0
 11
192.9493549396
 21
272.3836604243
 31
0.0
 11
193.0158981008
 21
272.3428222069
 31
0.0
 11
193.0714418051
 21
272.2803281079
 31
0.0
 11
193.1142541324
 21
272.1977394666
 31
0.0
 11
193.1561777347
 21
271.9808944216
 31
0.0
  0
SPLINE
  5
2D9
330
216
100
AcDbEntity
  8
0
  6
Continuous
 62
     7
100
AcDbSpline
210
0.0
220
0.0
230
1.0
 70
  1064
 71
     3
 72
    20
 73
    16
 74
    14
 42
0.000000001
 43
0.0000000001
 44
0.0000000001
 12
-0.9914054041677545
 22
-0.1308255502070282
 32
0.0
 13
0.995189774224813
 23
-0.0979658781329795
 33
0.0
 40
0.0
 40
0.0
 40
0.0
 40
0.0
 40
0.1387260471370771
 40
0.2725359690142592
 40
0.4070402359155039
 40
0.5477932373429066
 40
0.6988084076480181
 40
0.8618172189438178
 40
1.218702371245443
 40
1.594689003213832
 40
1.777353553196768
 40
1.948598165619625
 40
2.103119965966931
 40
2.236827706603258
 40
2.436590098120181
 40
2.436590098120181
 40
2.436590098120181
 40
2.436590098120181
 10
192.1768871594
 20
270.6020201793
 30
0.0
 10
192.1310425751231
 20
270.5959705421518
 30
0.0
 10
192.0390746740426
 20
270.5944068137636
 30
0.0
 10
191.9060484411224
 20
270.6287699966845
 30
0.0
 10
191.7872527418482
 20
270.699266877787
 30
0.0
 10
191.6875828969105
 20
270.8026347318481
 30
0.0
 10
191.6099510300513
 20
270.9342176572296
 30
0.0
 10
191.5361049520756
 20
271.1465538385761
 30
0.0
 10
191.5117658976619
 20
271.4489454900237
 30
0.0
 10
191.5646187972026
 20
271.7525522280269
 30
0.0
 10
191.6491443819453
 20
271.9813434579854
 30
0.0
 10
191.7278167819957
 20
272.131841384402
 30
0.0
 10
191.8188259928405
 20
272.2566509347974
 30
0.0
 10
191.9343319262912
 20
272.368933141156
 30
0.0
 10
192.0464240294958
 20
272.4221363505677
 30
0.0
 10
192.1126911926
 20
272.4156130512
 30
0.0
 11
192.1768871594
 21
270.6020201793
 31
0.0
 11
192.0381669716
 21
270.6007451691
 31
0.0
 11
191.9087048777999
 21
270.634578015
 31
0.0
 11
191.7927867549
 21
270.70280108
 31
0.0
 11
191.6942678905
 21
270.8033269014
 31
0.0
 11
191.6164018827
 21
270.9327195847
 31
0.0
 11
191.5616817448
 21
271.0862695084
 31
0.0
 11
191.5270391702
 21
271.4414693169
 31
0.0
 11
191.5904751503
 21
271.8120658952
 31
0.0
 11
191.6541372261
 21
271.9832776878
 31
0.0
 11
191.7343054799
 21
272.1345977736
 31
0.0
 11
191.8261482942
 21
272.2588631519
 31
0.0
 11
191.9240282388
 21
272.3499525385
 31
0.0
 11
192.1126911926
 21
272.4156130512
 31
0.0
  0
SPLINE
  5
2DA
330
216
100
AcDbEntity
  8
0
  6
Continuous
 62
     7
100
AcDbSpline
210
0.0
220
0.0
230
1.0
 70
  1064
 71
     3
 72
    11
 73
     7
 74
     5
 42
0.000000001
 43
0.0000000001
 44
0.0000000001
 12
0.9951897742379712
 22
-0.0979658779993109
 32
0.0
 13
0.160309905847332
 23
-0.9870667323373934
 33
0.0
 40
0.0
 40
0.0
 40
0.0
 40
0.0
 40
0.0624167343302557
 40
0.1267391461165953
 40
0.1993949588055354
 40
0.2843628186832355
 40
0.2843628186832355
 40
0.2843628186832355
 40
0.2843628186832355
 10
192.1126911926
 20
272.4156130512
 30
0.0
 10
192.1333966911822
 20
272.4135748144732
 30
0.0
 10
192.1752404178276
 20
272.4012861381954
 30
0.0
 10
192.2271809871552
 20
272.3572224972694
 30
0.0
 10
192.2642622249918
 20
272.2918984175339
 30
0.0
 10
192.2775427426609
 20
272.2405278860344
 30
0.0
 10
192.2820831392
 20
272.2125715701
 30
0.0
 11
192.1126911926
 21
272.4156130512
 31
0.0
 11
192.1724697937
 21
272.3976584536
 31
0.0
 11
192.2221885676
 21
272.3568489427
 31
0.0
 11
192.2594315911
 21
272.2944644549
 31
0.0
 11
192.2820831392
 21
272.2125715701
 31
0.0
  0
SPLINE
  5
2DB
330
216
100
AcDbEntity
  8
0
  6
Continuous
 62
     7
100
AcDbSpline
210
0.0
220
0.0
230
1.0
 70
  1064
 71
     3
 72
     8
 73
     4
 74
     2
 42
0.000000001
 43
0.0000000001
 44
0.0000000001
 12
-0.9952449930296019
 22
0.0974033051262002
 32
0.0
 13
-0.9406406569754247
 23
0.3394041167175814
 33
0.0
 40
0.0
 40
0.0
 40
0.0
 40
0.0
 40
0.0878427029077458
 40
0.0878427029077458
 40
0.0878427029077458
 40
0.0878427029077458
 10
191.5200801949
 20
271.2310841501
 30
0.0
 10
191.490938524819
 20
271.2339362066315
 30
0.0
 10
191.4619038925245
 20
271.2403443970698
 30
0.0
 10
191.4343610866
 20
271.2502824554
 30
0.0
 11
191.5200801949
 21
271.2310841501
 31
0.0
 11
191.4343610866
 21
271.2502824554
 31
0.0
  0
SPLINE
  5
2DC
330
216
100
AcDbEntity
  8
0
  6
Continuous
 62
     7
100
AcDbSpline
210
0.0
220
0.0
230
1.0
 70
  1064
 71
     3
 72
    11
 73
     7
 74
     5
 42
0.000000001
 43
0.0000000001
 44
0.0000000001
 12
-0.9406406569163749
 22
0.3394041168812343
 32
0.0
 13
-0.1730746825774517
 23
0.9849087035104901
 33
0.0
 40
0.0
 40
0.0
 40
0.0
 40
0.0
 40
0.1080901245727506
 40
0.2218791296364885
 40
0.3448594432569687
 40
0.4772157744819969
 40
0.4772157744819969
 40
0.4772157744819969
 40
0.4772157744819969
 10
191.4343610866
 20
271.2502824554
 30
0.0
 10
191.4004697646719
 20
271.2625111998248
 30
0.0
 10
191.3345164220018
 20
271.2990597232804
 30
0.0
 10
191.2546059114918
 20
271.3838353701348
 30
0.0
 10
191.1962234836291
 20
271.493511487298
 30
0.0
 10
191.1736701300379
 20
271.5762983060706
 30
0.0
 10
191.1660342867
 20
271.6197512736
 30
0.0
 11
191.4343610866
 21
271.2502824554
 31
0.0
 11
191.3396610119
 21
271.3023916761
 31
0.0
 11
191.2607581309
 21
271.3843811452
 31
0.0
 11
191.2018429859
 21
271.4923309633
 31
0.0
 11
191.1660342867
 21
271.6197512736
 31
0.0
  0
SPLINE
  5
2DD
330
216
100
AcDbEntity
  8
0
  6
Continuous
 62
     7
100
AcDbSpline
210
0.0
220
0.0
230
1.0
 70
  1064
 71
     3
 72
    10
 73
     6
 74
     4
 42
0.000000001
 43
0.0000000001
 44
0.0000000001
 12
-0.1730746825500258
 22
0.9849087035153095
 32
0.0
 13
0.4189568601058955
 23
0.9080061395002839
 33
0.0
 40
0.0
 40
0.0
 40
0.0
 40
0.0
 40
0.2341292132689628
 40
0.3450788197796563
 40
0.4418284446769853
 40
0.4418284446769853
 40
0.4418284446769853
 40
0.4418284446769853
 10
191.1660342867
 20
271.6197512736
 30
0.0
 10
191.1525270069459
 20
271.6966165735653
 30
0.0
 10
191.1508440317988
 20
271.8139118236045
 30
0.0
 10
191.1791172991273
 20
271.9586655008013
 30
0.0
 10
191.2020474267455
 20
272.0244016472329
 30
0.0
 10
191.2155587331
 20
272.0536847317
 30
0.0
 11
191.1660342867
 21
271.6197512736
 31
0.0
 11
191.1611831929
 21
271.8538302248
 31
0.0
 11
191.1827765308
 21
271.9626582678
 31
0.0
 11
191.2155587331
 21
272.0536847317
 31
0.0
  0
SPLINE
  5
2DE
330
216
100
AcDbEntity
  8
0
  6
Continuous
 62
     7
100
AcDbSpline
210
0.0
220
0.0
230
1.0
 70
  1064
 71
     3
 72
    11
 73
     7
 74
     5
 42
0.000000001
 43
0.0000000001
 44
0.0000000001
 12
-0.9326494012080235
 22
0.3607839996816869
 32
0.0
 13
-0.0628150843728082
 23
0.9980251826358076
 33
0.0
 40
0.0
 40
0.0
 40
0.0
 40
0.0
 40
0.1572208077655073
 40
0.3252166075667997
 40
0.5096916486422205
 40
0.7100283624811416
 40
0.7100283624811416
 40
0.7100283624811416
 40
0.7100283624811416
 10
194.8206358822
 20
269.7256730445
 30
0.0
 10
194.7717585847933
 20
269.744580628453
 30
0.0
 10
194.6775515987762
 20
269.8039041235884
 30
0.0
 10
194.5722192927675
 20
269.9406701027498
 30
0.0
 10
194.503893094776
 20
270.1138212354733
 30
0.0
 10
194.4842594954276
 20
270.2416031714275
 30
0.0
 10
194.4800647729
 20
270.3082501999
 30
0.0
 11
194.8206358822
 21
269.7256730445
 31
0.0
 11
194.6869825238
 21
269.8084689513
 31
0.0
 11
194.5822755757
 21
269.9398426312
 31
0.0
 11
194.5122719804
 21
270.1105193356
 31
0.0
 11
194.4800647729
 21
270.3082501999
 31
0.0
  0
SPLINE
  5
2DF
330
216
100
AcDbEntity
  8
0
  6
Continuous
 62
     7
100
AcDbSpline
210
0.0
220
0.0
230
1.0
 70
  1064
 71
     3
 72
    11
 73
     7
 74
     5
 42
0.000000001
 43
0.0000000001
 44
0.0000000001
 12
-0.9309324091755801
 22
0.3651915244725024
 32
0.0
 13
-0.0628150842740449
 23
0.9980251826420236
 33
0.0
 40
0.0
 40
0.0
 40
0.0
 40
0.0
 40
0.1567941396076297
 40
0.3243802024566217
 40
0.5083628400237441
 40
0.708097012331288
 40
0.708097012331288
 40
0.708097012331288
 40
0.708097012331288
 10
194.1424719766
 20
269.9880036699
 30
0.0
 10
194.0938170612234
 20
270.0070903001905
 30
0.0
 10
194.0001151343327
 20
270.0666304973497
 30
0.0
 10
193.8953986143829
 20
270.2032676267505
 30
0.0
 10
193.8274505829861
 20
270.3760065521641
 30
0.0
 10
193.8079071916886
 20
270.5034235182676
 30
0.0
 10
193.8037250854
 20
270.5698700961999
 30
0.0
 11
194.1424719766
 21
269.9880036699
 31
0.0
 11
194.0095136715
 21
270.0711089725
 31
0.0
 11
193.9053856258
 21
270.2024194388
 31
0.0
 11
193.835771506
 21
270.3727235352
 31
0.0
 11
193.8037250854
 21
270.5698700961999
 31
0.0
  0
SPLINE
  5
2E0
330
216
100
AcDbEntity
  8
0
  6
Continuous
 62
     7
100
AcDbSpline
210
0.0
220
0.0
230
1.0
 70
  1064
 71
     3
 72
     9
 73
     5
 74
     3
 42
0.000000001
 43
0.0000000001
 44
0.0000000001
 12
-0.9326219397370106
 22
0.3608549812891261
 32
0.0
 13
-0.6039812912462125
 23
0.7969984942423407
 33
0.0
 40
0.0
 40
0.0
 40
0.0
 40
0.0
 40
0.1236461475984054
 40
0.2528112487386316
 40
0.2528112487386316
 40
0.2528112487386316
 40
0.2528112487386316
 10
193.4679452302
 20
270.2489173916
 30
0.0
 10
193.4295068601952
 20
270.2637901676927
 30
0.0
 10
193.355138069222
 20
270.3062906655051
 30
0.0
 10
193.2959265960568
 20
270.3677853070608
 30
0.0
 10
193.2699221612
 20
270.4021001041
 30
0.0
 11
193.4679452302
 21
270.2489173916
 31
0.0
 11
193.3603872553
 21
270.3099063402
 31
0.0
 11
193.2699221612
 21
270.4021001041
 31
0.0
  0
SPLINE
  5
2E1
330
216
100
AcDbEntity
  8
0
  6
Continuous
 62
     7
100
AcDbSpline
210
0.0
220
0.0
230
1.0
 70
  1064
 71
     3
 72
     9
 73
     5
 74
     3
 42
0.000000001
 43
0.0000000001
 44
0.0000000001
 12
-0.5667763744674055
 22
0.823871677717825
 32
0.0
 13
-0.0628150843701274
 23
0.9980251826359761
 33
0.0
 40
0.0
 40
0.0
 40
0.0
 40
0.0
 40
0.1002784911988312
 40
0.4311645199322049
 40
0.4311645199322049
 40
0.4311645199322049
 40
0.4311645199322049
 10
193.2549485104999
 20
270.4228387734
 30
0.0
 10
193.236003350607
 20
270.4503776429943
 30
0.0
 10
193.1649259803115
 20
270.5759594175469
 30
0.0
 10
193.1343136091706
 20
270.7214124626472
 30
0.0
 10
193.1273853979
 20
270.8314899924
 30
0.0
 11
193.2549485104999
 21
270.4228387734
 31
0.0
 11
193.2051303941
 21
270.5098671083
 31
0.0
 11
193.1273853979
 21
270.8314899924
 31
0.0
  0
SPLINE
  5
2E2
330
216
100
AcDbEntity
  8
0
  6
Continuous
 62
     7
100
AcDbSpline
210
0.0
220
0.0
230
1.0
 70
  1064
 71
     3
 72
    13
 73
     9
 74
     7
 42
0.000000001
 43
0.0000000001
 44
0.0000000001
 12
-0.0644224740964649
 22
0.9979227148588664
 32
0.0
 13
0.9968326417372836
 23
-0.0795278842109389
 33
0.0
 40
0.0
 40
0.0
 40
0.0
 40
0.0
 40
0.3116417860415925
 40
0.4632909283438813
 40
0.6048606485109918
 40
0.7312950363995143
 40
0.8385301048791907
 40
0.9888790564371568
 40
0.9888790564371568
 40
0.9888790564371568
 40
0.9888790564371568
 10
191.757981217
 20
271.3907199305
 30
0.0
 10
191.7512889720371
 20
271.49438473623
 30
0.0
 10
191.7636026325232
 20
271.6507618137702
 30
0.0
 10
191.8170580787023
 20
271.8455736403328
 30
0.0
 10
191.8711574039876
 20
271.9748258592044
 30
0.0
 10
191.936547876238
 20
272.0829728246853
 30
0.0
 10
192.0185715953794
 20
272.1784410851007
 30
0.0
 10
192.1020844150453
 20
272.2297757442702
 30
0.0
 10
192.1520419959
 20
272.2257900996
 30
0.0
 11
191.757981217
 21
271.3907199305
 31
0.0
 11
191.7808098191
 21
271.7015244635
 31
0.0
 11
191.8211282909999
 21
271.847715719
 31
0.0
 11
191.8764998791
 21
271.9780075948
 31
0.0
 11
191.942584219
 21
272.0857968079
 31
0.0
 11
192.0143013057
 21
272.1655214552
 31
0.0
 11
192.1520419959
 21
272.2257900996
 31
0.0
  0
SPLINE
  5
2E3
330
216
100
AcDbEntity
  8
0
  6
Continuous
 62
     7
100
AcDbSpline
210
0.0
220
0.0
230
1.0
 70
  1064
 71
     3
 72
    11
 73
     7
 74
     5
 42
0.000000001
 43
0.0000000001
 44
0.0000000001
 12
-0.9325916468663624
 22
0.3609332627994907
 32
0.0
 13
-0.0687185083726988
 23
0.9976360892665377
 33
0.0
 40
0.0
 40
0.0
 40
0.0
 40
0.0
 40
0.157863876697619
 40
0.3265908841360077
 40
0.5117656835290049
 40
0.7126561716354716
 40
0.7126561716354716
 40
0.7126561716354716
 40
0.7126561716354716
 10
192.7909801953
 20
270.5107793677
 30
0.0
 10
192.7419060177166
 20
270.5297721423983
 30
0.0
 10
192.6472938762696
 20
270.5892860046798
 30
0.0
 10
192.5412261146801
 20
270.7263302643188
 30
0.0
 10
192.4719571979175
 20
270.8998025757211
 30
0.0
 10
192.4515730693629
 20
271.0278806874915
 30
0.0
 10
192.4469714378
 20
271.0946858878
 30
0.0
 11
192.7909801953
 21
270.5107793677
 31
0.0
 11
192.6567314202
 21
270.593835192
 31
0.0
 11
192.5512637641
 21
270.7255370392
 31
0.0
 11
192.4803192795
 21
270.8965826075
 31
0.0
 11
192.4469714378
 21
271.0946858878
 31
0.0
  0
SPLINE
  5
2E4
330
216
100
AcDbEntity
  8
0
  6
Continuous
 62
     7
100
AcDbSpline
210
0.0
220
0.0
230
1.0
 70
  1064
 71
     3
 72
    11
 73
     7
 74
     5
 42
0.000000001
 43
0.0000000001
 44
0.0000000001
 12
-0.8620202998683577
 22
0.5068737541191757
 32
0.0
 13
-0.0644224741999179
 23
0.9979227148521879
 33
0.0
 40
0.0
 40
0.0
 40
0.0
 40
0.0
 40
0.1409922837208267
 40
0.2922321636529292
 40
0.4561698039982654
 40
0.6313197700512988
 40
0.6313197700512988
 40
0.6313197700512988
 40
0.6313197700512988
 10
192.0344882777
 20
270.8485769835
 30
0.0
 10
191.9939755408026
 20
270.8723987462171
 30
0.0
 10
191.9179621457056
 20
270.9362618405056
 30
0.0
 10
191.8336658245913
 20
271.0648194443503
 30
0.0
 10
191.7783244090174
 20
271.2199316635982
 30
0.0
 10
191.7617424150564
 20
271.33245788729
 30
0.0
 10
191.757981217
 20
271.3907199305
 30
0.0
 11
192.0344882777
 21
270.8485769835
 31
0.0
 11
191.9257513544
 21
270.9383272235
 31
0.0
 11
191.8412321269
 21
271.0637465261001
 31
0.0
 11
191.7846596222
 21
271.2176136819
 31
0.0
 11
191.757981217
 21
271.3907199305
 31
0.0
  0
SPLINE
  5
2E5
330
216
100
AcDbEntity
  8
0
  6
Continuous
 62
     7
100
AcDbSpline
210
0.0
220
0.0
230
1.0
 70
  1064
 71
     3
 72
     9
 73
     5
 74
     3
 42
0.000000001
 43
0.0000000001
 44
0.0000000001
 12
-0.6769473830842844
 22
0.7360314127368066
 32
0.0
 13
-0.1046154068514685
 23
0.9945127533869547
 33
0.0
 40
0.0
 40
0.0
 40
0.0
 40
0.0
 40
0.1735221614148239
 40
0.3612524420865808
 40
0.3612524420865808
 40
0.3612524420865808
 40
0.3612524420865808
 10
191.3301451898
 20
271.4150849689
 30
0.0
 10
191.290990065441
 20
271.4576575561024
 30
0.0
 10
191.2281592884131
 20
271.5639348454632
 30
0.0
 10
191.2011410514303
 20
271.6828711276917
 30
0.0
 10
191.1945945582
 20
271.7451045138
 30
0.0
 11
191.3301451898
 21
271.4150849689
 31
0.0
 11
191.2388931611
 21
271.5626756453
 31
0.0
 11
191.1945945582
 21
271.7451045138
 31
0.0
  0
SPLINE
  5
2E6
330
216
100
AcDbEntity
  8
0
  6
Continuous
 62
     7
100
AcDbSpline
210
0.0
220
0.0
230
1.0
 70
  1064
 71
     3
 72
    16
 73
    12
 74
    10
 42
0.000000001
 43
0.0000000001
 44
0.0000000001
 12
-0.0628150842975896
 22
0.9980251826405417
 32
0.0
 13
0.9325571066024743
 23
-0.3610224964253907
 33
0.0
 40
0.0
 40
0.0
 40
0.0
 40
0.0
 40
0.1908502451486676
 40
0.3834300950006644
 40
0.5700801421351142
 40
0.7430368865629564
 40
0.8955775136317857
 40
1.023253790937763
 40
1.125962939091435
 40
1.170318050989395
 40
1.212228267349828
 40
1.212228267349828
 40
1.212228267349828
 40
1.212228267349828
 10
199.8907822726
 20
268.2152910299
 30
0.0
 10
199.8867861811875
 20
268.2787821468239
 30
0.0
 10
199.889743126219
 20
268.4072094463594
 30
0.0
 10
199.922619439503
 20
268.5950057477219
 30
0.0
 10
199.9801725047541
 20
268.7705327114803
 30
0.0
 10
200.0570767581994
 20
268.9237034985758
 30
0.0
 10
200.1471491746464
 20
269.0461233168063
 30
0.0
 10
200.2433308438902
 20
269.1316229701616
 30
0.0
 10
200.3292599481505
 20
269.1703068394642
 30
0.0
 10
200.3928206306413
 20
269.1739507996629
 30
0.0
 10
200.4213322356646
 20
269.1675409658121
 30
0.0
 10
200.4343601257
 20
269.1624974555
 30
0.0
 11
199.8907822726
 21
268.2152910299
 31
0.0
 11
199.8944755137
 21
268.4061055368
 31
0.0
 11
199.9275145670999
 21
268.5958301254
 31
0.0
 11
199.986049637
 21
268.7730641111
 31
0.0
 11
200.0646088017
 21
268.9271501036
 31
0.0
 11
200.1564437438
 21
269.0489490622
 31
0.0
 11
200.2539597891999
 21
269.1313617595
 31
0.0
 11
200.3492025112
 21
269.1698064343
 31
0.0
 11
200.3935098923
 21
269.1718636002
 31
0.0
 11
200.4343601257
 21
269.1624974555
 31
0.0
  0
SPLINE
  5
2E7
330
216
100
AcDbEntity
  8
0
  6
Continuous
 62
     7
100
AcDbSpline
210
0.0
220
0.0
230
1.0
 70
  1064
 71
     3
 72
     9
 73
     5
 74
     3
 42
0.000000001
 43
0.0000000001
 44
0.0000000001
 12
0.8937953557662201
 22
0.448475040566068
 32
0.0
 13
0.9326829269058224
 23
-0.3606973216678887
 33
0.0
 40
0.0
 40
0.0
 40
0.0
 40
0.0
 40
0.1475029086271383
 40
0.2779612480920634
 40
0.2779612480920634
 40
0.2779612480920634
 40
0.2779612480920634
 10
192.7730313742
 20
271.9951882591
 30
0.0
 10
192.8169771790976
 20
272.0172387167434
 30
0.0
 10
192.9069370750847
 20
272.0477852388681
 30
0.0
 10
193.0030049791028
 20
272.0370633679447
 30
0.0
 10
193.0435637344
 20
272.0213780434
 30
0.0
 11
192.7730313742
 21
271.9951882591
 31
0.0
 11
192.9141734263
 21
272.0380371702
 31
0.0
 11
193.0435637344
 21
272.0213780434
 31
0.0
  0
SPLINE
  5
2E8
330
216
100
AcDbEntity
  8
0
  6
Continuous
 62
     7
100
AcDbSpline
210
0.0
220
0.0
230
1.0
 70
  1064
 71
     3
 72
    11
 73
     7
 74
     5
 42
0.000000001
 43
0.0000000001
 44
0.0000000001
 12
-0.0687185083690191
 22
0.9976360892667914
 32
0.0
 13
0.7909673560414179
 23
0.6118583509905287
 33
0.0
 40
0.0
 40
0.0
 40
0.0
 40
0.0
 40
0.2741009399587231
 40
0.5446405366288046
 40
0.7889154026536021
 40
0.987765133606924
 40
0.987765133606924
 40
0.987765133606924
 40
0.987765133606924
 10
192.4469714378
 20
271.0946858878
 30
0.0
 10
192.4406928352211
 20
271.1858368844016
 30
0.0
 10
192.4502631953255
 20
271.3688777325327
 30
0.0
 10
192.5173951140802
 20
271.6249735046304
 30
0.0
 10
192.6234413080827
 20
271.839485365861
 30
0.0
 10
192.7206034922194
 20
271.9546323029413
 30
0.0
 10
192.7730313742
 20
271.9951882591
 30
0.0
 11
192.4469714378
 21
271.0946858878
 31
0.0
 11
192.4596402146
 21
271.3684938997
 31
0.0
 11
192.5286579444
 21
271.6300817938
 31
0.0
 11
192.6397077618
 21
271.8476551107
 31
0.0
 11
192.7730313742
 21
271.9951882591
 31
0.0
  0
SPLINE
  5
2E9
330
216
100
AcDbEntity
  8
0
  6
Continuous
 62
     7
100
AcDbSpline
210
0.0
220
0.0
230
1.0
 70
  1064
 71
     3
 72
    16
 73
    12
 74
    10
 42
0.000000001
 43
0.0000000001
 44
0.0000000001
 12
-0.0628150843065863
 22
0.9980251826399756
 32
0.0
 13
0.9325880700436098
 23
-0.3609425045797952
 33
0.0
 40
0.0
 40
0.0
 40
0.0
 40
0.0
 40
0.1908458295759849
 40
0.3834108495677542
 40
0.5700506176673234
 40
0.74300936633884
 40
0.895558147530494
 40
1.0232349163627
 40
1.125945650720142
 40
1.170302325783324
 40
1.212214146394134
 40
1.212214146394134
 40
1.212214146394134
 40
1.212214146394134
 10
193.1273853979
 20
270.8314899924
 30
0.0
 10
193.1233893989419
 20
270.8949796403729
 30
0.0
 10
193.126345802836
 20
271.0234004790631
 30
0.0
 10
193.1592188484336
 20
271.211187255152
 30
0.0
 10
193.2167664139951
 20
271.3867077368327
 30
0.0
 10
193.2936662826496
 20
271.5398807243838
 30
0.0
 10
193.3837379894981
 20
271.6623053852057
 30
0.0
 10
193.479918191553
 20
271.7478116765863
 30
0.0
 10
193.5658458236056
 20
271.786500819708
 30
0.0
 10
193.6294075769465
 20
271.7901510608631
 30
0.0
 10
193.6579209994015
 20
271.7837441525342
 30
0.0
 10
193.6709498207
 20
271.7787015667
 30
0.0
 11
193.1273853979
 21
270.8314899924
 31
0.0
 11
193.1310781275
 21
271.0223000928
 31
0.0
 11
193.1641130184999
 21
271.2120103532
 31
0.0
 11
193.2226415181
 21
271.3892356837
 31
0.0
 11
193.3011974032
 21
271.5433255979
 31
0.0
 11
193.3930339
 21
271.6651335964
 31
0.0
 11
193.4905466665
 21
271.7475509348
 31
0.0
 11
193.5857883366
 21
271.7860024527
 31
0.0
 11
193.6300970809
 21
271.7880639573
 31
0.0
 11
193.6709498207
 21
271.7787015667
 31
0.0
  0
SPLINE
  5
2EA
330
216
100
AcDbEntity
  8
0
  6
Continuous
 62
     7
100
AcDbSpline
210
0.0
220
0.0
230
1.0
 70
  1064
 71
     3
 72
    16
 73
    12
 74
    10
 42
0.000000001
 43
0.0000000001
 44
0.0000000001
 12
-0.0628150843515999
 22
0.9980251826371425
 32
0.0
 13
0.9326092018650108
 23
-0.360887900319071
 33
0.0
 40
0.0
 40
0.0
 40
0.0
 40
0.0
 40
0.1908452458525058
 40
0.3834097813700028
 40
0.5700446480559754
 40
0.7430032207210618
 40
0.8955546198223245
 40
1.023232939638919
 40
1.125943033104674
 40
1.170299285152965
 40
1.212210714763926
 40
1.212210714763926
 40
1.212210714763926
 40
1.212210714763926
 10
193.8037250854
 20
270.5698700961999
 30
0.0
 10
193.7997290986612
 20
270.6333595499824
 30
0.0
 10
193.8026856386455
 20
270.7617799991983
 30
0.0
 10
193.8355576647253
 20
270.9495649507907
 30
0.0
 10
193.8931047405644
 20
271.1250835880491
 30
0.0
 10
193.9700031208352
 20
271.2782563996094
 30
0.0
 10
194.0600752031245
 20
271.4006824198433
 30
0.0
 10
194.1562557794794
 20
271.4861902051382
 30
0.0
 10
194.2421830955506
 20
271.5248798306927
 30
0.0
 10
194.3057443723704
 20
271.5285314783093
 30
0.0
 10
194.3342574446271
 20
271.5221247884439
 30
0.0
 10
194.3472864396
 20
271.5170830125
 30
0.0
 11
193.8037250854
 21
270.5698700961999
 31
0.0
 11
193.8074177978
 21
270.7606796131
 31
0.0
 11
193.840452256
 21
270.9503894571
 31
0.0
 11
193.8989789561
 21
271.1276102201
 31
0.0
 11
193.9775338507
 21
271.2817004417
 31
0.0
 11
194.0693713529999
 21
271.4035109607
 31
0.0
 11
194.1668848341999
 21
271.4859298562
 31
0.0
 11
194.2621255591999
 21
271.5243820031
 31
0.0
 11
194.306433844
 21
271.5264442819
 31
0.0
 11
194.3472864396
 21
271.5170830125
 31
0.0
  0
SPLINE
  5
2EB
330
216
100
AcDbEntity
  8
0
  6
Continuous
 62
     7
100
AcDbSpline
210
0.0
220
0.0
230
1.0
 70
  1064
 71
     3
 72
    16
 73
    12
 74
    10
 42
0.000000001
 43
0.0000000001
 44
0.0000000001
 12
-0.0628150842960355
 22
0.9980251826406396
 32
0.0
 13
0.9326331019643571
 23
-0.3608261314266766
 33
0.0
 40
0.0
 40
0.0
 40
0.0
 40
0.0
 40
0.1908440480535935
 40
0.383408709299757
 40
0.570039370965871
 40
0.7429968267224723
 40
0.895550231359493
 40
1.023231159470978
 40
1.125940511878448
 40
1.170296113199094
 40
1.21220699223846
 40
1.21220699223846
 40
1.21220699223846
 40
1.21220699223846
 10
194.4800647729
 20
270.3082501999
 30
0.0
 10
194.4760688112447
 20
270.3717392552049
 30
0.0
 10
194.4790254163752
 20
270.5001593194677
 30
0.0
 10
194.5118965746295
 20
270.6879426442507
 30
0.0
 10
194.5694429843194
 20
270.8634596466695
 30
0.0
 10
194.6463400431568
 20
271.0166318516448
 30
0.0
 10
194.7364120444384
 20
271.1390593595378
 30
0.0
 10
194.832593305247
 20
271.2245685254935
 30
0.0
 10
194.9185204341095
 20
271.2632587765431
 30
0.0
 10
194.9820811070409
 20
271.2669119636329
 30
0.0
 10
195.0105936399918
 20
271.2605053490829
 30
0.0
 10
195.0236227977
 20
271.2554645023
 30
0.0
 11
194.4800647729
 21
270.3082501999
 31
0.0
 11
194.4837574066
 21
270.4990585203
 31
0.0
 11
194.5167915393
 21
270.6887685486
 31
0.0
 11
194.5753166064
 21
270.8659854225
 31
0.0
 11
194.6538701919
 21
271.0200750578
 31
0.0
 11
194.7457081543999
 21
271.1418877415
 31
0.0
 11
194.8432232322
 21
271.2243087886
 31
0.0
 11
194.9384629075
 21
271.262761556
 31
0.0
 11
194.9827705041
 21
271.2648246246
 31
0.0
 11
195.0236227977
 21
271.2554645023
 31
0.0
  0
SPLINE
  5
2EC
330
216
100
AcDbEntity
  8
0
  6
Continuous
 62
     7
100
AcDbSpline
210
0.0
220
0.0
230
1.0
 70
  1064
 71
     3
 72
     9
 73
     5
 74
     3
 42
0.000000001
 43
0.0000000001
 44
0.0000000001
 12
-0.0628150844067308
 22
0.9980251826336724
 32
0.0
 13
0.2969216510331973
 23
0.9549018447713462
 33
0.0
 40
0.0
 40
0.0
 40
0.0
 40
0.0
 40
0.1128999150046777
 40
0.4544953822752327
 40
0.4544953822752327
 40
0.4544953822752327
 40
0.4544953822752327
 10
195.1564044603
 20
270.0466303037
 30
0.0
 10
195.1540405210698
 20
270.0841892897973
 30
0.0
 10
195.1522943703081
 20
270.235809711977
 30
0.0
 10
195.1787134879575
 20
270.3874924961126
 30
0.0
 10
195.212522518
 20
270.4962225434
 30
0.0
 11
195.1564044603
 21
270.0466303037
 31
0.0
 11
195.1549109779
 21
270.1595203401
 31
0.0
 11
195.212522518
 21
270.4962225434
 31
0.0
  0
SPLINE
  5
2ED
330
216
100
AcDbEntity
  8
0
  6
Continuous
 62
     7
100
AcDbSpline
210
0.0
220
0.0
230
1.0
 70
  1064
 71
     3
 72
    13
 73
     9
 74
     7
 42
0.000000001
 43
0.0000000001
 44
0.0000000001
 12
0.2969216509834509
 22
0.9549018447868146
 32
0.0
 13
0.9325371628486093
 23
-0.3610740089043611
 33
0.0
 40
0.0
 40
0.0
 40
0.0
 40
0.0
 40
0.2517670325746786
 40
0.4660269701106805
 40
0.5551538575070479
 40
0.6317097539507185
 40
0.6974924160902365
 40
0.7567788726139521
 40
0.7567788726139521
 40
0.7567788726139521
 40
0.7567788726139521
 10
195.212522518
 20
270.4962225434
 30
0.0
 10
195.2374408789917
 20
270.5763601446873
 30
0.0
 10
195.2979863602294
 20
270.7206222646892
 30
0.0
 10
195.4067679995287
 20
270.8734510206279
 30
0.0
 10
195.5038336943777
 20
270.95584180841
 30
0.0
 10
195.5723558899402
 20
270.9928729762658
 30
0.0
 10
195.6390689113825
 20
271.0076634673354
 30
0.0
 10
195.6815434876793
 20
271.0009747883102
 30
0.0
 10
195.699972429
 20
270.9938391888
 30
0.0
 11
195.212522518
 21
270.4962225434
 31
0.0
 11
195.3118403207
 21
270.7275720901
 31
0.0
 11
195.4402948808
 21
270.8990560451
 31
0.0
 11
195.5089899858
 21
270.9558414711001
 31
0.0
 11
195.5769797131
 21
270.9910295694
 31
0.0
 11
195.6415204834
 21
271.0037515035
 31
0.0
 11
195.699972429
 21
270.9938391888
 31
0.0
  0
SPLINE
  5
2EE
330
216
100
AcDbEntity
  8
0
  6
Continuous
 62
     7
100
AcDbSpline
210
0.0
220
0.0
230
1.0
 70
  1064
 71
     3
 72
    16
 73
    12
 74
    10
 42
0.000000001
 43
0.0000000001
 44
0.0000000001
 12
-0.0628150843186586
 22
0.9980251826392157
 32
0.0
 13
0.9326624816932449
 23
-0.3607501839802686
 33
0.0
 40
0.0
 40
0.0
 40
0.0
 40
0.0
 40
0.1908474301140132
 40
0.3834248739445243
 40
0.5700616608817347
 40
0.7430133249242347
 40
0.8955639177141225
 40
1.023242672813889
 40
1.125943997455037
 40
1.170295181389957
 40
1.21220234003319
 40
1.21220234003319
 40
1.21220234003319
 40
1.21220234003319
 10
195.8327441477999
 20
269.7850104074
 30
0.0
 10
195.8287481153284
 20
269.8485005878319
 30
0.0
 10
195.8317050635119
 20
269.9769260906881
 30
0.0
 10
195.8645789678923
 20
270.1647165382607
 30
0.0
 10
195.9221285208592
 20
270.3402372547186
 30
0.0
 10
195.9990291392525
 20
270.4934067572537
 30
0.0
 10
196.0891007250318
 20
270.6158299179431
 30
0.0
 10
196.1852818236473
 20
270.7013336238044
 30
0.0
 10
196.2712048956714
 20
270.740018092146
 30
0.0
 10
196.3347602910675
 20
270.7436732183377
 30
0.0
 10
196.363269611473
 20
270.7372656805969
 30
0.0
 10
196.376298023
 20
270.7322263422
 30
0.0
 11
195.8327441477999
 21
269.7850104074
 31
0.0
 11
195.8364371377
 21
269.9758221036
 31
0.0
 11
195.8694747731
 21
270.1655444969
 31
0.0
 11
195.9280041489
 21
270.3427663985
 31
0.0
 11
196.0065584607
 21
270.4968491626
 31
0.0
 11
196.098397077
 21
270.6186578319
 31
0.0
 11
196.195913027
 21
270.7010744807
 31
0.0
 11
196.2911461541
 21
270.739522024
 31
0.0
 11
196.3354493122
 21
270.7415854432
 31
0.0
 11
196.376298023
 21
270.7322263422
 31
0.0
  0
SPLINE
  5
2EF
330
216
100
AcDbEntity
  8
0
  6
Continuous
 62
     7
100
AcDbSpline
210
0.0
220
0.0
230
1.0
 70
  1064
 71
     3
 72
    16
 73
    12
 74
    10
 42
0.000000001
 43
0.0000000001
 44
0.0000000001
 12
-0.0628150842993945
 22
0.9980251826404282
 32
0.0
 13
0.9326659253976149
 23
-0.3607412807015726
 33
0.0
 40
0.0
 40
0.0
 40
0.0
 40
0.0
 40
0.1908480768664403
 40
0.3834290417826382
 40
0.5700693513721097
 40
0.743018974494456
 40
0.8955668640089806
 40
1.023244114389499
 40
1.125944961828516
 40
1.170295113868413
 40
1.212200683084672
 40
1.212200683084672
 40
1.212200683084672
 40
1.212200683084672
 10
196.5090838352999
 20
269.5233905112
 30
0.0
 10
196.5050877892877
 20
269.5868809067904
 30
0.0
 10
196.5080448047188
 20
269.7153078081828
 30
0.0
 10
196.5409195278743
 20
269.9031007479951
 30
0.0
 10
196.5984702727313
 20
270.0786228461839
 30
0.0
 10
196.6753716468585
 20
270.2317915849024
 30
0.0
 10
196.7654428430481
 20
270.3542122330968
 30
0.0
 10
196.8616230163302
 20
270.4397150487942
 30
0.0
 10
196.9475454718545
 20
270.4783974494221
 30
0.0
 10
197.0110997952361
 20
270.482053971851
 30
0.0
 10
197.0396081492025
 20
270.4756460903025
 30
0.0
 10
197.0526361147
 20
270.4706070674
 30
0.0
 11
196.5090838352999
 21
269.5233905112
 31
0.0
 11
196.512776891
 21
269.714202853
 31
0.0
 11
196.5458154732
 21
269.9039286555
 31
0.0
 11
196.6043467068999
 21
270.0811536533
 31
0.0
 11
196.6829010691999
 21
270.2352341008
 31
0.0
 11
196.774738813
 21
270.3570400424
 31
0.0
 11
196.8722539503
 21
270.4394553217
 31
0.0
 11
196.9674868782
 21
270.4779020837
 31
0.0
 11
197.0117889828
 21
270.4799659427
 31
0.0
 11
197.0526361147
 21
270.4706070674
 31
0.0
  0
SPLINE
  5
2F0
330
216
100
AcDbEntity
  8
0
  6
Continuous
 62
     7
100
AcDbSpline
210
0.0
220
0.0
230
1.0
 70
  1064
 71
     3
 72
    16
 73
    12
 74
    10
 42
0.000000001
 43
0.0000000001
 44
0.0000000001
 12
-0.0628150843519094
 22
0.998025182637123
 32
0.0
 13
0.932649924962534
 23
-0.3607826457403124
 33
0.0
 40
0.0
 40
0.0
 40
0.0
 40
0.0
 40
0.1908508390168312
 40
0.3834347219643661
 40
0.5700767487788588
 40
0.7430235831960436
 40
0.8955682279644396
 40
1.023245566592449
 40
1.125948063794965
 40
1.170298221977036
 40
1.212203288187128
 40
1.212203288187128
 40
1.212203288187128
 40
1.212203288187128
 10
197.1854235228
 20
269.2617706149
 30
0.0
 10
197.1814274189495
 20
269.3252619293887
 30
0.0
 10
197.1843846443638
 20
269.4536907417274
 30
0.0
 10
197.217260339714
 20
269.6414860547931
 30
0.0
 10
197.2748122808504
 20
269.8170083989248
 30
0.0
 10
197.3517134938845
 20
269.9701756373857
 30
0.0
 10
197.4417843256783
 20
270.0925939868386
 30
0.0
 10
197.5379640332312
 20
270.1780966312843
 30
0.0
 10
197.6238876637038
 20
270.2167782593349
 30
0.0
 10
197.6874423552066
 20
270.2204340092003
 30
0.0
 10
197.7159505595812
 20
270.214025803519
 30
0.0
 10
197.7289781452
 20
270.2089862633
 30
0.0
 11
197.1854235228
 21
269.2617706149
 31
0.0
 11
197.1891168455
 21
269.4525857142
 31
0.0
 11
197.2221565265
 21
269.6423142873
 31
0.0
 11
197.2806892207
 21
269.8195406112
 31
0.0
 11
197.3592430212
 21
269.9736182149
 31
0.0
 11
197.4510793732
 21
270.0954211422
 31
0.0
 11
197.5485947207
 21
270.1778363095
 31
0.0
 11
197.6438295813
 21
270.2162826911
 31
0.0
 11
197.6881317192
 21
270.2183459672
 31
0.0
 11
197.7289781452
 21
270.2089862633
 31
0.0
  0
SPLINE
  5
2F1
330
216
100
AcDbEntity
  8
0
  6
Continuous
 62
     7
100
AcDbSpline
210
0.0
220
0.0
230
1.0
 70
  1064
 71
     3
 72
    16
 73
    12
 74
    10
 42
0.000000001
 43
0.0000000001
 44
0.0000000001
 12
-0.0628150843451815
 22
0.9980251826375463
 32
0.0
 13
0.9327029336652172
 23
-0.360645584379315
 33
0.0
 40
0.0
 40
0.0
 40
0.0
 40
0.0
 40
0.190854763273943
 40
0.3834470035348518
 40
0.5700941530590384
 40
0.7430389384070326
 40
0.8955756888054054
 40
1.023250937832902
 40
1.125954192832113
 40
1.17030769884313
 40
1.212212884698784
 40
1.212212884698784
 40
1.212212884698784
 40
1.212212884698784
 10
197.8617632102
 20
269.0001507187
 30
0.0
 10
197.8577670241824
 20
269.0636433386913
 30
0.0
 10
197.8607249348351
 20
269.1920761981197
 30
0.0
 10
197.8936012397929
 20
269.3798774696552
 30
0.0
 10
197.9511573140024
 20
269.5554023240823
 30
0.0
 10
198.0280594183124
 20
269.7085680658011
 30
0.0
 10
198.1181308250875
 20
269.8309788253452
 30
0.0
 10
198.2143097587138
 20
269.9164838831463
 30
0.0
 10
198.3002354745628
 20
269.9551482936534
 30
0.0
 10
198.3637932426969
 20
269.9588226771269
 30
0.0
 10
198.3922984879388
 20
269.9523965066805
 30
0.0
 10
198.4053268511999
 20
269.9473588666
 30
0.0
 11
197.8617632102
 21
269.0001507187
 31
0.0
 11
197.8654569303
 21
269.1909697353
 31
0.0
 11
197.898498431
 21
269.3807064746
 31
0.0
 11
197.95703507
 21
269.5579368905
 31
0.0
 11
198.0355902300999
 21
269.712011501
 31
0.0
 11
198.1274243773
 21
269.8338062038
 31
0.0
 11
198.2249398037
 21
269.9162180405
 31
0.0
 11
198.3201771174
 21
269.9546603696
 31
0.0
 11
198.364482414
 21
269.9567277807
 31
0.0
 11
198.4053268511999
 21
269.9473588666
 31
0.0
  0
SPLINE
  5
2F2
330
216
100
AcDbEntity
  8
0
  6
Continuous
 62
     7
100
AcDbSpline
210
0.0
220
0.0
230
1.0
 70
  1064
 71
     3
 72
    16
 73
    12
 74
    10
 42
0.000000001
 43
0.0000000001
 44
0.0000000001
 12
-0.0628150842923531
 22
0.9980251826408714
 32
0.0
 13
0.9326014301318167
 23
-0.3609079834474298
 33
0.0
 40
0.0
 40
0.0
 40
0.0
 40
0.0
 40
0.1908520337396308
 40
0.3834381674567265
 40
0.5700861083934619
 40
0.7430346124863895
 40
0.8955725088131931
 40
1.023249316543809
 40
1.125956003362045
 40
1.17030883458773
 40
1.212216195495841
 40
1.212216195495841
 40
1.212216195495841
 40
1.212216195495841
 10
198.5381028977
 20
268.7385308224
 30
0.0
 10
198.5341067688377
 20
268.8020225343435
 30
0.0
 10
198.5370641257847
 20
268.9304524997925
 30
0.0
 10
198.5699406803416
 20
269.1182508779221
 30
0.0
 10
198.6274950072675
 20
269.293775930465
 30
0.0
 10
198.7043967910066
 20
269.446943123405
 30
0.0
 10
198.7944678119473
 20
269.569359339743
 30
0.0
 10
198.8906472067442
 20
269.6548596675063
 30
0.0
 10
198.976573957842
 20
269.693543177394
 30
0.0
 10
199.040131910312
 20
269.6971919750304
 30
0.0
 10
199.068641848528
 20
269.690783328539
 30
0.0
 10
199.0816694701
 20
269.6857417615
 30
0.0
 11
198.5381028977
 21
268.7385308224
 31
0.0
 11
198.5417963623
 21
268.9293471139
 31
0.0
 11
198.5748368538
 21
269.1190778305
 31
0.0
 11
198.6333724569
 21
269.296309422
 31
0.0
 11
198.7119279406
 21
269.4503880417
 31
0.0
 11
198.8037612847
 21
269.5721847852
 31
0.0
 11
198.9012768414
 21
269.6545988825
 31
0.0
 11
198.996516422
 21
269.693044764
 31
0.0
 11
199.040821398
 21
269.6951045551
 31
0.0
 11
199.0816694701
 21
269.6857417615
 31
0.0
  0
SPLINE
  5
2F3
330
216
100
AcDbEntity
  8
0
  6
Continuous
 62
     7
100
AcDbSpline
210
0.0
220
0.0
230
1.0
 70
  1064
 71
     3
 72
    16
 73
    12
 74
    10
 42
0.000000001
 43
0.0000000001
 44
0.0000000001
 12
-0.0628150843107074
 22
0.9980251826397161
 32
0.0
 13
0.9325663875027133
 23
-0.3609985220193279
 33
0.0
 40
0.0
 40
0.0
 40
0.0
 40
0.0
 40
0.1908516380330667
 40
0.3834363237782664
 40
0.5700867224614895
 40
0.7430403179586901
 40
0.8955794962615719
 40
1.023255985989289
 40
1.125963822879118
 40
1.170317861726402
 40
1.212226805607935
 40
1.212226805607935
 40
1.212226805607935
 40
1.212226805607935
 10
199.2144425852
 20
268.4769109262
 30
0.0
 10
199.210446464622
 20
268.5404025065017
 30
0.0
 10
199.2134036894754
 20
268.6688318745496
 30
0.0
 10
199.2462805034037
 20
268.8566303776582
 30
0.0
 10
199.3038350301906
 20
269.0321575674862
 30
0.0
 10
199.3807389706194
 20
269.1853269437546
 30
0.0
 10
199.4708114110807
 20
269.3077448522827
 30
0.0
 10
199.5669927046133
 20
269.3932438217653
 30
0.0
 10
199.6529213057422
 20
269.431926538745
 30
0.0
 10
199.7164807937373
 20
269.4355708936599
 30
0.0
 10
199.7449914961667
 20
269.4291609524669
 30
0.0
 10
199.7580191203
 20
269.4241179302
 30
0.0
 11
199.2144425852
 21
268.4769109262
 31
0.0
 11
199.2181360043
 21
268.6677268228
 31
0.0
 11
199.2511762577
 21
268.8574561111
 31
0.0
 11
199.3097124519
 21
269.0346900957
 31
0.0
 11
199.3882707956
 21
269.1887729722
 31
0.0
 11
199.4801055289
 21
269.3105702738
 31
0.0
 11
199.5776220816999
 21
269.3929826998
 31
0.0
 11
199.6728637834
 21
269.4314263991
 31
0.0
 11
199.7171700878
 21
269.4334836187
 31
0.0
 11
199.7580191203
 21
269.4241179302
 31
0.0
  0
SPLINE
  5
2F4
330
216
100
AcDbEntity
  8
0
  6
Continuous
 62
     7
100
AcDbSpline
210
0.0
220
0.0
230
1.0
 70
  1064
 71
     3
 72
     9
 73
     5
 74
     3
 42
0.000000001
 43
0.0000000001
 44
0.0000000001
 12
-0.93259288458395
 22
0.360930064726378
 32
0.0
 13
-0.7511136553359743
 23
0.6601729142943018
 33
0.0
 40
0.0
 40
0.0
 40
0.0
 40
0.0
 40
0.0377062249647175
 40
0.1521268327370744
 40
0.1521268327370744
 40
0.1521268327370744
 40
0.1521268327370744
 10
200.2312795057
 20
267.6327411467
 30
0.0
 10
200.2195579866644
 20
267.637277583439
 30
0.0
 10
200.1731064701364
 20
267.6577083686418
 30
0.0
 10
200.1304937005832
 20
267.6866401921039
 30
0.0
 10
200.1018460736
 20
267.7118193208
 30
0.0
 11
200.2312795057
 21
267.6327411467
 31
0.0
 11
200.1967668319
 21
267.6479278102
 31
0.0
 11
200.1018460736
 21
267.7118193208
 31
0.0
  0
SPLINE
  5
2F5
330
216
100
AcDbEntity
  8
0
  6
Continuous
 62
     7
100
AcDbSpline
210
0.0
220
0.0
230
1.0
 70
  1064
 71
     3
 72
    11
 73
     7
 74
     5
 42
0.000000001
 43
0.0000000001
 44
0.0000000001
 12
0.7909673559165204
 22
0.6118583511519874
 32
0.0
 13
0.9408359826602211
 23
-0.3388622931690341
 33
0.0
 40
0.0
 40
0.0
 40
0.0
 40
0.0
 40
0.0633957415725559
 40
0.11913716905476
 40
0.1685334710246272
 40
0.2141741295037975
 40
0.2141741295037975
 40
0.2141741295037975
 40
0.2141741295037975
 10
192.7730313742
 20
271.9951882591
 30
0.0
 10
192.7897460282293
 20
272.0081179970696
 30
0.0
 10
192.8230361647331
 20
272.0301861627479
 30
0.0
 10
192.8754035710169
 20
272.0517314959532
 30
0.0
 10
192.9258019470652
 20
272.0588279577365
 30
0.0
 10
192.9576696946768
 20
272.053246827298
 30
0.0
 10
192.9719831526
 20
272.0480915279
 30
0.0
 11
192.7730313742
 21
271.9951882591
 31
0.0
 11
192.8262307756
 21
272.0296678725
 31
0.0
 11
192.8780705468
 21
272.0501555483
 31
0.0
 11
192.9270846281
 21
272.056288613
 31
0.0
 11
192.9719831526
 21
272.0480915279
 31
0.0
  0
SPLINE
  5
2F6
330
216
100
AcDbEntity
  8
0
  6
Continuous
 62
     7
100
AcDbSpline
210
0.0
220
0.0
230
1.0
 70
  1064
 71
     3
 72
    11
 73
     7
 74
     5
 42
0.000000001
 43
0.0000000001
 44
0.0000000001
 12
-0.932599436374752
 22
0.3609131353573804
 32
0.0
 13
-0.0628150843326201
 23
0.9980251826383369
 33
0.0
 40
0.0
 40
0.0
 40
0.0
 40
0.0
 40
0.1571944305573759
 40
0.3251833933627672
 40
0.5096608530533395
 40
0.7099887052696234
 40
0.7099887052696234
 40
0.7099887052696234
 40
0.7099887052696234
 10
199.5549766781
 20
267.8943482781
 30
0.0
 10
199.506110198987
 20
267.9132594563644
 30
0.0
 10
199.4119165289897
 20
267.9725795274126
 30
0.0
 10
199.3065937431479
 20
268.1093400587508
 30
0.0
 10
199.2382695049374
 20
268.2824868812052
 30
0.0
 10
199.218637122177
 20
268.4102668457681
 30
0.0
 10
199.2144425852
 20
268.4769109262
 30
0.0
 11
199.5549766781
 21
267.8943482781
 31
0.0
 11
199.4213511261
 21
267.9771389832
 31
0.0
 11
199.3166509291
 21
268.1085093009
 31
0.0
 11
199.2466474161
 21
268.2791886532
 31
0.0
 11
199.2144425852
 21
268.4769109262
 31
0.0
  0
SPLINE
  5
2F7
330
216
100
AcDbEntity
  8
0
  6
Continuous
 62
     7
100
AcDbSpline
210
0.0
220
0.0
230
1.0
 70
  1064
 71
     3
 72
    11
 73
     7
 74
     5
 42
0.000000001
 43
0.0000000001
 44
0.0000000001
 12
-0.9326113327822822
 22
0.36088239353847
 32
0.0
 13
-0.0628150843999973
 23
0.9980251826340962
 33
0.0
 40
0.0
 40
0.0
 40
0.0
 40
0.0
 40
0.1571953796615665
 40
0.3251875549888213
 40
0.5096678740713779
 40
0.7099984872553766
 40
0.7099984872553766
 40
0.7099984872553766
 40
0.7099984872553766
 10
198.8786462105
 20
268.1559645439
 30
0.0
 10
198.8297788129889
 20
268.1748742255218
 30
0.0
 10
198.7355829062773
 20
268.2341937983228
 30
0.0
 10
198.6302564710635
 20
268.3709545537851
 30
0.0
 10
198.5619304078259
 20
268.5441040366376
 30
0.0
 10
198.5422974924917
 20
268.6718858234633
 30
0.0
 10
198.5381028977
 20
268.7385308224
 30
0.0
 11
198.8786462105
 21
268.1559645439
 31
0.0
 11
198.7450181018999
 21
268.2387529246
 31
0.0
 11
198.6403140341
 21
268.3701242653
 31
0.0
 11
198.5703084939
 21
268.5408058767
 31
0.0
 11
198.5381028977
 21
268.7385308224
 31
0.0
  0
SPLINE
  5
2F8
330
216
100
AcDbEntity
  8
0
  6
Continuous
 62
     7
100
AcDbSpline
210
0.0
220
0.0
230
1.0
 70
  1064
 71
     3
 72
    11
 73
     7
 74
     5
 42
0.000000001
 43
0.0000000001
 44
0.0000000001
 12
-0.9326353662745178
 22
0.3608202787732367
 32
0.0
 13
-0.0628150843071243
 23
0.9980251826399417
 33
0.0
 40
0.0
 40
0.0
 40
0.0
 40
0.0
 40
0.1572027650745783
 40
0.3252015702959347
 40
0.5096862526536846
 40
0.7100198749011215
 40
0.7100198749011215
 40
0.7100198749011215
 40
0.7100198749011215
 10
198.2023266656
 20
268.4175765727
 30
0.0
 10
198.1534557128051
 20
268.4364838878727
 30
0.0
 10
198.0592532337638
 20
268.4958031398648
 30
0.0
 10
197.9539202329712
 20
268.6325668573151
 30
0.0
 10
197.8855914498693
 20
268.8057205253807
 30
0.0
 10
197.8659578679903
 20
268.9335047187225
 30
0.0
 10
197.8617632102
 20
269.0001507187
 30
0.0
 11
198.2023266656
 21
268.4175765727
 31
0.0
 11
198.0686887893
 21
268.5003632103
 31
0.0
 11
197.9639780261
 21
268.6317376927
 31
0.0
 11
197.8939696691
 21
268.8024228648
 31
0.0
 11
197.8617632102
 21
269.0001507187
 31
0.0
  0
SPLINE
  5
2F9
330
216
100
AcDbEntity
  8
0
  6
Continuous
 62
     7
100
AcDbSpline
210
0.0
220
0.0
230
1.0
 70
  1064
 71
     3
 72
    11
 73
     7
 74
     5
 42
0.000000001
 43
0.0000000001
 44
0.0000000001
 12
-0.9326512577630838
 22
0.3607792003330262
 32
0.0
 13
-0.0628150843179656
 23
0.9980251826392594
 33
0.0
 40
0.0
 40
0.0
 40
0.0
 40
0.0
 40
0.1572126752345514
 40
0.3252161645900049
 40
0.5096981849671738
 40
0.710032570778322
 40
0.710032570778322
 40
0.710032570778322
 40
0.710032570778322
 10
197.5259988089
 20
268.6791918454
 30
0.0
 10
197.4771239424687
 20
268.6980981998178
 30
0.0
 10
197.3829157381018
 20
268.757419006039
 30
0.0
 10
197.2775809357173
 20
268.8941864235518
 30
0.0
 10
197.2092514172019
 20
269.0673406966551
 30
0.0
 10
197.1896181965788
 20
269.195124360904
 30
0.0
 10
197.1854235228
 20
269.2617706149
 30
0.0
 11
197.5259988089
 21
268.6791918454
 31
0.0
 11
197.3923507908
 21
268.7619809299
 31
0.0
 11
197.2876373609
 21
268.8933592768
 31
0.0
 11
197.2176300408
 21
269.064041997
 31
0.0
 11
197.1854235228
 21
269.2617706149
 31
0.0
  0
SPLINE
  5
2FA
330
216
100
AcDbEntity
  8
0
  6
Continuous
 62
     7
100
AcDbSpline
210
0.0
220
0.0
230
1.0
 70
  1064
 71
     3
 72
    10
 73
     6
 74
     4
 42
0.000000001
 43
0.0000000001
 44
0.0000000001
 12
-0.7511136554010358
 22
0.6601729142202777
 32
0.0
 13
-0.0628150844106589
 23
0.9980251826334251
 33
0.0
 40
0.0
 40
0.0
 40
0.0
 40
0.0
 40
0.2591576566852796
 40
0.40393232284831
 40
0.5573024811599521
 40
0.5573024811599521
 40
0.5573024811599521
 40
0.5573024811599521
 10
200.1018460736
 20
267.7118193208
 30
0.0
 10
200.0369604553206
 20
267.7688489426188
 30
0.0
 10
199.9607963091393
 20
267.887165912362
 30
0.0
 10
199.9072325802597
 20
268.0651957269495
 30
0.0
 10
199.8939935924134
 20
268.1642686031469
 30
0.0
 10
199.8907822726
 20
268.2152910299
 30
0.0
 11
200.1018460736
 21
267.7118193208
 31
0.0
 11
199.9545995265
 21
267.9250824104
 31
0.0
 11
199.9116938036
 21
268.0633531698
 31
0.0
 11
199.8907822726
 21
268.2152910299
 31
0.0
  0
SPLINE
  5
2FB
330
216
100
AcDbEntity
  8
0
  6
Continuous
 62
     7
100
AcDbSpline
210
0.0
220
0.0
230
1.0
 70
  1064
 71
     3
 72
    11
 73
     7
 74
     5
 42
0.000000001
 43
0.0000000001
 44
0.0000000001
 12
-0.9326572003747029
 22
0.3607638376961048
 32
0.0
 13
-0.0628150843519686
 23
0.9980251826371194
 33
0.0
 40
0.0
 40
0.0
 40
0.0
 40
0.0
 40
0.1572158482240349
 40
0.3252197515537025
 40
0.5096987148341066
 40
0.7100338837638724
 40
0.7100338837638724
 40
0.7100338837638724
 40
0.7100338837638724
 10
196.8496602675
 20
268.9408112842
 30
0.0
 10
196.8007841032136
 20
268.9597172151173
 30
0.0
 10
196.7065750359102
 20
269.0190395918795
 30
0.0
 10
196.6012407922257
 20
269.1558073752132
 30
0.0
 10
196.532911490857
 20
269.3289610528888
 30
0.0
 10
196.5132785254783
 20
269.4567439966801
 30
0.0
 10
196.5090838352999
 20
269.5233905112
 30
0.0
 11
196.8496602675
 21
268.9408112842
 31
0.0
 11
196.7160095271
 21
269.0236019994
 31
0.0
 11
196.6112964543
 21
269.1549811603
 31
0.0
 11
196.5412904487
 21
269.3256611154
 31
0.0
 11
196.5090838352999
 21
269.5233905112
 31
0.0
  0
SPLINE
  5
2FC
330
216
100
AcDbEntity
  8
0
  6
Continuous
 62
     7
100
AcDbSpline
210
0.0
220
0.0
230
1.0
 70
  1064
 71
     3
 72
    11
 73
     7
 74
     5
 42
0.000000001
 43
0.0000000001
 44
0.0000000001
 12
-0.9326621114168156
 22
0.3607511412698887
 32
0.0
 13
-0.0628150842580234
 23
0.9980251826430322
 33
0.0
 40
0.0
 40
0.0
 40
0.0
 40
0.0
 40
0.1572183846567244
 40
0.3252216684832717
 40
0.5096986138475163
 40
0.710034720500267
 40
0.710034720500267
 40
0.710034720500267
 40
0.710034720500267
 10
196.1733213071
 20
269.2024309067
 30
0.0
 10
196.1244440969041
 20
269.2213364772645
 30
0.0
 10
196.0302347784895
 20
269.2806601663217
 30
0.0
 10
195.9249006743924
 20
269.4174277224221
 30
0.0
 10
195.8565718509841
 20
269.5905810317289
 30
0.0
 10
195.8369388576064
 20
269.7183635809226
 30
0.0
 10
195.8327441477999
 20
269.7850104074
 30
0.0
 11
196.1733213071
 21
269.2024309067
 31
0.0
 11
196.0396684584
 21
269.285223035
 31
0.0
 11
195.9349560645
 21
269.4166019448
 31
0.0
 11
195.8649509821
 21
269.5872800975
 31
0.0
 11
195.8327441477999
 21
269.7850104074
 31
0.0
  0
SPLINE
  5
2FD
330
216
100
AcDbEntity
  8
0
  6
Continuous
 62
     7
100
AcDbSpline
210
0.0
220
0.0
230
1.0
 70
  1064
 71
     3
 72
     9
 73
     5
 74
     3
 42
0.000000001
 43
0.0000000001
 44
0.0000000001
 12
-0.1046154067662847
 22
0.9945127533959153
 32
0.0
 13
0.2970540800240751
 23
0.9548606566096703
 33
0.0
 40
0.0
 40
0.0
 40
0.0
 40
0.0
 40
0.1641429653014985
 40
0.3083488235551458
 40
0.3083488235551458
 40
0.3083488235551458
 40
0.3083488235551458
 10
191.1945945582
 20
271.7451045138
 30
0.0
 10
191.1888705971724
 20
271.7995186045909
 30
0.0
 10
191.1889826836481
 20
271.9030812614527
 30
0.0
 10
191.2083499919808
 20
272.0047737177003
 30
0.0
 10
191.2226289715
 20
272.0506725512
 30
0.0
 11
191.1945945582
 21
271.7451045138
 31
0.0
 11
191.1944463596
 21
271.9092474122
 31
0.0
 11
191.2226289715
 21
272.0506725512
 31
0.0
  0
SPLINE
  5
2FE
330
216
100
AcDbEntity
  8
0
  6
Continuous
 62
     7
100
AcDbSpline
210
0.0
220
0.0
230
1.0
 70
  1064
 71
     3
 72
    11
 73
     7
 74
     5
 42
0.000000001
 43
0.0000000001
 44
0.0000000001
 12
-0.9326577403410125
 22
0.36076244175634
 32
0.0
 13
-0.0628150842780561
 23
0.9980251826417712
 33
0.0
 40
0.0
 40
0.0
 40
0.0
 40
0.0
 40
0.1572195349203171
 40
0.3252204698447183
 40
0.5096954371239023
 40
0.7100315666604647
 40
0.7100315666604647
 40
0.7100315666604647
 40
0.7100315666604647
 10
195.4969786203
 20
269.464051962
 30
0.0
 10
195.4481012815745
 20
269.4829582631032
 30
0.0
 10
195.3538928539137
 20
269.5422824499555
 30
0.0
 10
195.2485598359574
 20
269.6790494168184
 30
0.0
 10
195.1802322336575
 20
269.8522016254506
 30
0.0
 10
195.1605991705869
 20
269.9799834696098
 30
0.0
 10
195.1564044603
 20
270.0466303037
 30
0.0
 11
195.4969786203
 21
269.464051962
 31
0.0
 11
195.3633255548
 21
269.5468459246
 31
0.0
 11
195.2586152168
 21
269.6782234693
 31
0.0
 11
195.1886113381
 21
269.8488999777
 31
0.0
 11
195.1564044603
 21
270.0466303037
 31
0.0
  0
SPLINE
  5
2FF
330
216
100
AcDbEntity
  8
0
  6
Continuous
 62
     7
100
AcDbSpline
210
0.0
220
0.0
230
1.0
 70
  1064
 71
     3
 72
     9
 73
     5
 74
     3
 42
0.000000001
 43
0.0000000001
 44
0.0000000001
 12
-0.9488563275658369
 22
-0.3157082033116549
 32
0.0
 13
-0.9326558180144132
 23
0.3607674113939141
 33
0.0
 40
0.0
 40
0.0
 40
0.0
 40
0.0
 40
0.1858396363002814
 40
0.37180386017971
 40
0.37180386017971
 40
0.37180386017971
 40
0.37180386017971
 10
229.7568959812
 20
250.0514230077
 30
0.0
 10
229.6981176095946
 20
250.0318659751398
 30
0.0
 10
229.5729359697549
 20
250.0124502143851
 30
0.0
 10
229.4485339202479
 20
250.0370634419797
 30
0.0
 10
229.3907203818
 20
250.0594267192
 30
0.0
 11
229.7568959812
 21
250.0514230077
 31
0.0
 11
229.5731726838
 21
250.0234565919
 31
0.0
 11
229.3907203818
 21
250.0594267192
 31
0.0
  0
SPLINE
  5
300
330
216
100
AcDbEntity
  8
0
  6
Continuous
 62
     7
100
AcDbSpline
210
0.0
220
0.0
230
1.0
 70
  1064
 71
     3
 72
     9
 73
     5
 74
     3
 42
0.000000001
 43
0.0000000001
 44
0.0000000001
 12
0.9488563275193605
 22
0.315708203451339
 32
0.0
 13
0.9325114366272867
 23
-0.3611404443693813
 33
0.0
 40
0.0
 40
0.0
 40
0.0
 40
0.0
 40
0.0886463243756818
 40
0.1703108370733385
 40
0.1703108370733385
 40
0.1703108370733385
 40
0.1703108370733385
 10
208.6658471459
 20
275.5045587641
 30
0.0
 10
208.6938846878317
 20
275.5138875547037
 30
0.0
 10
208.7506873772386
 20
275.5248211021475
 30
0.0
 10
208.808181044981
 20
275.514933251535
 30
0.0
 10
208.833565409
 20
275.5051024654
 30
0.0
 11
208.6658471459
 21
275.5045587641
 31
0.0
 11
208.7532031745
 21
275.5196284387
 31
0.0
 11
208.833565409
 21
275.5051024654
 31
0.0
  0
SPLINE
  5
301
330
216
100
AcDbEntity
  8
0
  6
Continuous
 62
     7
100
AcDbSpline
210
0.0
220
0.0
230
1.0
 70
  1064
 71
     3
 72
    11
 73
     7
 74
     5
 42
0.000000001
 43
0.0000000001
 44
0.0000000001
 12
0.0870253769817175
 22
0.996206095023108
 32
0.0
 13
0.9488563274883572
 23
0.3157082035445187
 33
0.0
 40
0.0
 40
0.0
 40
0.0
 40
0.0
 40
0.2291042970028197
 40
0.4618316171503018
 40
0.6758505895210742
 40
0.8555843270887974
 40
0.8555843270887974
 40
0.8555843270887974
 40
0.8555843270887974
 10
200.826004998
 20
272.3532813933
 30
0.0
 10
200.8326509606049
 20
272.4293597589901
 30
0.0
 10
200.8667988746061
 20
272.5812792011291
 30
0.0
 10
200.9647594737877
 20
272.7862663334174
 30
0.0
 10
201.0975233523556
 20
272.9499531084741
 30
0.0
 10
201.2108154835819
 20
273.0240834958987
 30
0.0
 10
201.2676626483
 20
273.0429979677
 30
0.0
 11
200.826004998
 21
272.3532813933
 31
0.0
 11
200.8746008386
 21
272.57717249
 31
0.0
 11
200.9755911074
 21
272.786845977
 31
0.0
 11
201.1136071183
 21
272.9504176777
 31
0.0
 11
201.2676626483
 21
273.0429979677
 31
0.0
  0
SPLINE
  5
302
330
216
100
AcDbEntity
  8
0
  6
Continuous
 62
     7
100
AcDbSpline
210
0.0
220
0.0
230
1.0
 70
  1064
 71
     3
 72
    11
 73
     7
 74
     5
 42
0.000000001
 43
0.0000000001
 44
0.0000000001
 12
0.9326558179779024
 22
-0.360767411488302
 32
0.0
 13
-0.0870253769359599
 23
-0.9962060950271053
 33
0.0
 40
0.0
 40
0.0
 40
0.0
 40
0.0
 40
0.1810432603791716
 40
0.3620070388580735
 40
0.5428578163676152
 40
0.7238908858772002
 40
0.7238908858772002
 40
0.7238908858772002
 40
0.7238908858772002
 10
238.141527022
 20
264.168275853
 30
0.0
 10
238.1978107053661
 20
264.1465043501952
 30
0.0
 10
238.3037564829118
 20
264.0831873886219
 30
0.0
 10
238.4214693001162
 20
263.9414558998388
 30
0.0
 10
238.4872051127859
 20
263.7695994485698
 30
0.0
 10
238.4938917722706
 20
263.6470688133489
 30
0.0
 10
238.4886402819
 20
263.5869533976
 30
0.0
 11
238.141527022
 21
264.168275853
 31
0.0
 11
238.2969146092
 21
264.0753707408
 31
0.0
 11
238.4128279342
 21
263.9364031539
 31
0.0
 11
238.4779085262
 21
263.7676680945
 31
0.0
 11
238.4886402819
 21
263.5869533976
 31
0.0
  0
SPLINE
  5
303
330
216
100
AcDbEntity
  8
0
  6
Continuous
 62
     7
100
AcDbSpline
210
0.0
220
0.0
230
1.0
 70
  1064
 71
     3
 72
     9
 73
     5
 74
     3
 42
0.000000001
 43
0.0000000001
 44
0.0000000001
 12
-0.2790295527594642
 22
-0.9602825150375556
 32
0.0
 13
-0.9488563274422128
 23
-0.3157082036832051
 33
0.0
 40
0.0
 40
0.0
 40
0.0
 40
0.0
 40
0.2962882753036217
 40
0.5905314543140124
 40
0.5905314543140124
 40
0.5905314543140124
 40
0.5905314543140124
 10
237.5453130223
 20
252.9332746175
 30
0.0
 10
237.5177552939847
 20
252.8384344674384
 30
0.0
 10
237.4200658159797
 20
252.6587968353645
 30
0.0
 10
237.2481453130703
 20
252.5439487993638
 30
0.0
 10
237.155080479
 20
252.5129838042
 30
0.0
 11
237.5453130223
 21
252.9332746175
 31
0.0
 11
237.4010409879
 21
252.6744845053
 31
0.0
 11
237.155080479
 21
252.5129838042
 31
0.0
  0
SPLINE
  5
304
330
216
100
AcDbEntity
  8
0
  6
Continuous
 62
     7
100
AcDbSpline
210
0.0
220
0.0
230
1.0
 70
  1064
 71
     3
 72
     9
 73
     5
 74
     3
 42
0.000000001
 43
0.0000000001
 44
0.0000000001
 12
0.9326558179563708
 22
-0.3607674115439654
 32
0.0
 13
-0.0870253770101081
 23
-0.9962060950206282
 33
0.0
 40
0.0
 40
0.0
 40
0.0
 40
0.0
 40
0.1743725189599063
 40
0.3647432656527898
 40
0.3647432656527898
 40
0.3647432656527898
 40
0.3647432656527898
 10
227.0813703009
 20
258.7539073375999
 30
0.0
 10
227.1355801489999
 20
258.7329380301635
 30
0.0
 10
227.2267737657144
 20
258.6366702796983
 30
0.0
 10
227.2544174255008
 20
258.5115287138564
 30
0.0
 10
227.2488950635
 20
258.4483125478
 30
0.0
 11
227.0813703009
 21
258.7539073375999
 31
0.0
 11
227.2082495142
 21
258.6342936234999
 31
0.0
 11
227.2488950635
 21
258.4483125478
 31
0.0
  0
SPLINE
  5
305
330
216
100
AcDbEntity
  8
0
  6
Continuous
 62
     7
100
AcDbSpline
210
0.0
220
0.0
230
1.0
 70
  1064
 71
     3
 72
     9
 73
     5
 74
     3
 42
0.000000001
 43
0.0000000001
 44
0.0000000001
 12
-0.0870253769993951
 22
-0.9962060950215638
 32
0.0
 13
-0.9486788151335792
 23
-0.3162412144499012
 33
0.0
 40
0.0
 40
0.0
 40
0.0
 40
0.0
 40
0.1109323465240763
 40
0.2059238755922753
 40
0.2059238755922753
 40
0.2059238755922753
 40
0.2059238755922753
 10
226.9518234212
 20
255.0476426409
 30
0.0
 10
226.9486054447741
 20
255.0108054809859
 30
0.0
 10
226.9298484439385
 20
254.9414847922561
 30
0.0
 10
226.8729956820814
 20
254.8931394981717
 30
0.0
 10
226.842956865
 20
254.883126086
 30
0.0
 11
226.9518234212
 21
255.0476426409
 31
0.0
 11
226.9173409097
 21
254.9422057313
 31
0.0
 11
226.842956865
 21
254.883126086
 31
0.0
  0
SPLINE
  5
306
330
216
100
AcDbEntity
  8
0
  6
Continuous
 62
     7
100
AcDbSpline
210
0.0
220
0.0
230
1.0
 70
  1064
 71
     3
 72
     9
 73
     5
 74
     3
 42
0.000000001
 43
0.0000000001
 44
0.0000000001
 12
0.9486788152056174
 22
0.3162412142337969
 32
0.0
 13
0.9326558179710488
 23
-0.3607674115060201
 33
0.0
 40
0.0
 40
0.0
 40
0.0
 40
0.0
 40
0.0244197286997803
 40
0.100623510656569
 40
0.100623510656569
 40
0.100623510656569
 40
0.100623510656569
 10
224.239084172
 20
259.8191875131
 30
0.0
 10
224.2468063317635
 20
259.8217616879851
 30
0.0
 10
224.2796138893257
 20
259.829459927843
 30
0.0
 10
224.3147464903689
 20
259.8240853082545
 30
0.0
 10
224.3384371239
 20
259.8149213612
 30
0.0
 11
224.239084172
 21
259.8191875131
 31
0.0
 11
224.2628670134
 21
259.8247282355
 31
0.0
 11
224.3384371239
 21
259.8149213612
 31
0.0
  0
SPLINE
  5
307
330
216
100
AcDbEntity
  8
0
  6
Continuous
 62
     7
100
AcDbSpline
210
0.0
220
0.0
230
1.0
 70
  1064
 71
     3
 72
    11
 73
     7
 74
     5
 42
0.000000001
 43
0.0000000001
 44
0.0000000001
 12
-0.9325114365749918
 22
0.3611404445044133
 32
0.0
 13
0.0870253770089779
 23
0.9962060950207268
 33
0.0
 40
0.0
 40
0.0
 40
0.0
 40
0.0
 40
0.1005417006698152
 40
0.2134370305159136
 40
0.3446249455145829
 40
0.4934921109396312
 40
0.4934921109396312
 40
0.4934921109396312
 40
0.4934921109396312
 10
200.0825757471
 20
261.3963244481
 30
0.0
 10
200.0513236518576
 20
261.4084276729237
 30
0.0
 10
199.9909504331504
 20
261.4513779743179
 30
0.0
 10
199.9318838541386
 20
261.5526756682934
 30
0.0
 10
199.9020426917276
 20
261.6816468390715
 30
0.0
 10
199.9019853421349
 20
261.7757459116517
 30
0.0
 10
199.9063037492
 20
261.8251800375
 30
0.0
 11
200.0825757471
 21
261.3963244481
 31
0.0
 11
199.9997240711
 21
261.4532826201
 31
0.0
 11
199.9400033571
 21
261.5490886315
 31
0.0
 11
199.9080395248
 21
261.6763229919
 31
0.0
 11
199.9063037492
 21
261.8251800375
 31
0.0
  0
SPLINE
  5
308
330
216
100
AcDbEntity
  8
0
  6
Continuous
 62
     7
100
AcDbSpline
210
0.0
220
0.0
230
1.0
 70
  1064
 71
     3
 72
    11
 73
     7
 74
     5
 42
0.000000001
 43
0.0000000001
 44
0.0000000001
 12
-0.0870253766441047
 22
-0.9962060950526009
 32
0.0
 13
0.9488563275924787
 23
0.3157082032315831
 33
0.0
 40
0.0
 40
0.0
 40
0.0
 40
0.0
 40
0.0340458527680306
 40
0.0620456939110388
 40
0.0855349246830557
 40
0.1100004799800414
 40
0.1100004799800414
 40
0.1100004799800414
 40
0.1100004799800414
 10
229.9174544403
 20
250.4518920994
 30
0.0
 10
229.9164668225799
 20
250.4405865373871
 30
0.0
 10
229.9171310168696
 20
250.4196409499555
 30
0.0
 10
229.9277866151724
 20
250.3921285784487
 30
0.0
 10
229.9498529924735
 20
250.3762487274153
 30
0.0
 10
229.9670480514161
 20
250.3779321258654
 30
0.0
 10
229.9747861504
 20
250.3805067847
 30
0.0
 11
229.9174544403
 21
250.4518920994
 31
0.0
 11
229.9193230461
 21
250.4178975645
 31
0.0
 11
229.9308752598
 21
250.3923919286
 31
0.0
 11
229.9503522725
 21
250.3792621937
 31
0.0
 11
229.9747861504
 21
250.3805067847
 31
0.0
  0
SPLINE
  5
309
330
216
100
AcDbEntity
  8
0
  6
Continuous
 62
     7
100
AcDbSpline
210
0.0
220
0.0
230
1.0
 70
  1064
 71
     3
 72
     9
 73
     5
 74
     3
 42
0.000000001
 43
0.0000000001
 44
0.0000000001
 12
-0.9488563274552383
 22
-0.3157082036440572
 32
0.0
 13
-0.0870253771026589
 23
-0.996206095012543
 33
0.0
 40
0.0
 40
0.0
 40
0.0
 40
0.0
 40
0.0647473232607447
 40
0.1411879466439454
 40
0.1411879466439454
 40
0.1411879466439454
 40
0.1411879466439454
 10
230.9107652975
 20
261.0949462175
 30
0.0
 10
230.8902866617128
 20
261.0881324637942
 30
0.0
 10
230.8550597749583
 20
261.0509284087672
 30
0.0
 10
230.839373113792
 20
261.005376993407
 30
0.0
 10
230.8371556891
 20
260.9799934551
 30
0.0
 11
230.9107652975
 21
261.0949462175
 31
0.0
 11
230.86208669
 21
261.052254192
 31
0.0
 11
230.8371556891
 21
260.9799934551
 31
0.0
  0
SPLINE
  5
30A
330
216
100
AcDbEntity
  8
0
  6
Continuous
 62
     7
100
AcDbSpline
210
0.0
220
0.0
230
1.0
 70
  1064
 71
     3
 72
    11
 73
     7
 74
     5
 42
0.000000001
 43
0.0000000001
 44
0.0000000001
 12
0.0870253766441047
 22
0.9962060950526009
 32
0.0
 13
-0.9488563275924787
 23
-0.3157082032315831
 33
0.0
 40
0.0
 40
0.0
 40
0.0
 40
0.0
 40
0.0340458526681937
 40
0.0620456938112019
 40
0.0855349245832189
 40
0.1100004799749747
 40
0.1100004799749747
 40
0.1100004799749747
 40
0.1100004799749747
 10
238.3662815052
 20
263.4851216993
 30
0.0
 10
238.3672691229172
 20
263.4964272612798
 30
0.0
 10
238.3666049286184
 20
263.5173728486707
 30
0.0
 10
238.3559493303272
 20
263.5448852201677
 30
0.0
 10
238.3338829529999
 20
263.560765071153
 30
0.0
 10
238.3166878940138
 20
263.5590816728446
 30
0.0
 10
238.308949795
 20
263.556507014
 30
0.0
 11
238.3662815052
 21
263.4851216993
 31
0.0
 11
238.3644128994
 21
263.5191162341
 31
0.0
 11
238.3528606857
 21
263.54462187
 31
0.0
 11
238.333383673
 21
263.5577516049
 31
0.0
 11
238.308949795
 21
263.556507014
 31
0.0
  0
SPLINE
  5
30B
330
216
100
AcDbEntity
  8
0
  6
Continuous
 62
     7
100
AcDbSpline
210
0.0
220
0.0
230
1.0
 70
  1064
 71
     3
 72
     9
 73
     5
 74
     3
 42
0.000000001
 43
0.0000000001
 44
0.0000000001
 12
0.0870253769993951
 22
0.9962060950215638
 32
0.0
 13
0.9486788151335792
 23
0.3162412144499012
 33
0.0
 40
0.0
 40
0.0
 40
0.0
 40
0.0
 40
0.1109323465551744
 40
0.2059238755611688
 40
0.2059238755611688
 40
0.2059238755611688
 40
0.2059238755611688
 10
224.1302176157
 20
259.6546709583
 30
0.0
 10
224.1334355921268
 20
259.6915081182245
 30
0.0
 10
224.1521925930557
 20
259.7608288069397
 30
0.0
 10
224.2090453549383
 20
259.8091741009349
 30
0.0
 10
224.239084172
 20
259.8191875131
 30
0.0
 11
224.1302176157
 21
259.6546709583
 31
0.0
 11
224.1647001273
 21
259.7601078679
 31
0.0
 11
224.239084172
 21
259.8191875131
 31
0.0
  0
SPLINE
  5
30C
330
216
100
AcDbEntity
  8
0
  6
Continuous
 62
     7
100
AcDbSpline
210
0.0
220
0.0
230
1.0
 70
  1064
 71
     3
 72
    11
 73
     7
 74
     5
 42
0.000000001
 43
0.0000000001
 44
0.0000000001
 12
-0.0870253773886989
 22
-0.9962060949875555
 32
0.0
 13
0.9326797599567379
 23
-0.3607055105859093
 33
0.0
 40
0.0
 40
0.0
 40
0.0
 40
0.0
 40
0.1489018744322723
 40
0.2801150154955053
 40
0.3930278677537083
 40
0.4935882955938
 40
0.4935882955938
 40
0.4935882955938
 40
0.4935882955938
 10
229.2143568731
 20
250.4883178669
 30
0.0
 10
229.2100374591612
 20
250.4388722152785
 30
0.0
 10
229.2100966666938
 20
250.3447526035876
 30
0.0
 10
229.2399549794593
 20
250.2157577268955
 30
0.0
 10
229.2990541722885
 20
250.1144520773604
 30
0.0
 10
229.3594568712336
 20
250.0715177435563
 30
0.0
 10
229.3907204298
 20
250.0594268434
 30
0.0
 11
229.2143568731
 21
250.4883178669
 31
0.0
 11
229.2160968781
 21
250.3394261593
 31
0.0
 11
229.2480794969
 21
250.2121705092
 31
0.0
 11
229.3078308844
 21
250.1163629735
 31
0.0
 11
229.3907204298
 21
250.0594268434
 31
0.0
  0
SPLINE
  5
30D
330
216
100
AcDbEntity
  8
0
  6
Continuous
 62
     7
100
AcDbSpline
210
0.0
220
0.0
230
1.0
 70
  1064
 71
     3
 72
     9
 73
     5
 74
     3
 42
0.000000001
 43
0.0000000001
 44
0.0000000001
 12
-0.9488563277298908
 22
-0.3157082028185933
 32
0.0
 13
-0.680366236083963
 23
-0.7328722840965821
 33
0.0
 40
0.0
 40
0.0
 40
0.0
 40
0.0
 40
0.0560711170490629
 40
0.2482054143986847
 40
0.2482054143986847
 40
0.2482054143986847
 40
0.2482054143986847
 10
230.5757157722
 20
261.7061357971
 30
0.0
 10
230.5579812941284
 20
261.7002350932355
 30
0.0
 10
230.4816906091293
 20
261.6674329506153
 30
0.0
 10
230.4163352158368
 20
261.612827553084
 30
0.0
 10
230.3727613196
 20
261.5658909193
 30
0.0
 11
230.5757157722
 21
261.7061357971
 31
0.0
 11
230.5240702989
 21
261.6843019872
 31
0.0
 11
230.3727613196
 21
261.5658909193
 31
0.0
  0
SPLINE
  5
30E
330
216
100
AcDbEntity
  8
0
  6
Continuous
 62
     7
100
AcDbSpline
210
0.0
220
0.0
230
1.0
 70
  1064
 71
     3
 72
     9
 73
     5
 74
     3
 42
0.000000001
 43
0.0000000001
 44
0.0000000001
 12
-0.6803662361935198
 22
-0.7328722839948743
 32
0.0
 13
-0.0870253732500903
 23
-0.996206095349091
 33
0.0
 40
0.0
 40
0.0
 40
0.0
 40
0.0
 40
0.2997769134589857
 40
0.6066247800046419
 40
0.6066247800046419
 40
0.6066247800046419
 40
0.6066247800046419
 10
230.3727613196
 20
261.5658909193
 30
0.0
 10
230.3047752894974
 20
261.4926581888814
 30
0.0
 10
230.1964496144127
 20
261.3170263984367
 30
0.0
 10
230.1429593052723
 20
261.1183137942659
 30
0.0
 10
230.1340581219
 20
261.0164192226
 30
0.0
 11
230.3727613196
 21
261.5658909193
 31
0.0
 11
230.2111034
 21
261.3134371317
 31
0.0
 11
230.1340581219
 21
261.0164192226
 31
0.0
  0
SPLINE
  5
30F
330
216
100
AcDbEntity
  8
0
  6
Continuous
 62
     7
100
AcDbSpline
210
0.0
220
0.0
230
1.0
 70
  1064
 71
     3
 72
     9
 73
     5
 74
     3
 42
0.000000001
 43
0.0000000001
 44
0.0000000001
 12
0.9488563274552383
 22
0.3157082036440572
 32
0.0
 13
0.0870253771026589
 23
0.996206095012543
 33
0.0
 40
0.0
 40
0.0
 40
0.0
 40
0.0
 40
0.0647473232607447
 40
0.1411879466438824
 40
0.1411879466438824
 40
0.1411879466438824
 40
0.1411879466438824
 10
237.372970648
 20
252.8420675811
 30
0.0
 10
237.3934492837872
 20
252.8488813348058
 30
0.0
 10
237.4286761705417
 20
252.8860853898327
 30
0.0
 10
237.444362831708
 20
252.931636805193
 30
0.0
 10
237.4465802564
 20
252.9570203435
 30
0.0
 11
237.372970648
 21
252.8420675811
 31
0.0
 11
237.4216492555
 21
252.8847596066
 31
0.0
 11
237.4465802564
 21
252.9570203435
 31
0.0
  0
SPLINE
  5
310
330
216
100
AcDbEntity
  8
0
  6
Continuous
 62
     7
100
AcDbSpline
210
0.0
220
0.0
230
1.0
 70
  1064
 71
     3
 72
     9
 73
     5
 74
     3
 42
0.000000001
 43
0.0000000001
 44
0.0000000001
 12
-0.9486788152056174
 22
-0.3162412142337969
 32
0.0
 13
-0.9326558179710488
 23
0.3607674115060201
 33
0.0
 40
0.0
 40
0.0
 40
0.0
 40
0.0
 40
0.0244197286770936
 40
0.1006235106210146
 40
0.1006235106210146
 40
0.1006235106210146
 40
0.1006235106210146
 10
226.842956865
 20
254.883126086
 30
0.0
 10
226.8352347052436
 20
254.8805519111173
 30
0.0
 10
226.8024271476384
 20
254.8728536715216
 30
0.0
 10
226.7672945466272
 20
254.878228290847
 30
0.0
 10
226.7436039131
 20
254.8873922379
 30
0.0
 11
226.842956865
 21
254.883126086
 31
0.0
 11
226.8191740236
 21
254.8775853637
 31
0.0
 11
226.7436039131
 21
254.8873922379
 31
0.0
  0
SPLINE
  5
311
330
216
100
AcDbEntity
  8
0
  6
Continuous
 62
     7
100
AcDbSpline
210
0.0
220
0.0
230
1.0
 70
  1064
 71
     3
 72
     9
 73
     5
 74
     3
 42
0.000000001
 43
0.0000000001
 44
0.0000000001
 12
-0.9326797602201246
 22
0.360705509904868
 32
0.0
 13
-0.9488563252179218
 23
-0.3157082103682787
 33
0.0
 40
0.0
 40
0.0
 40
0.0
 40
0.0
 40
0.0816186731927469
 40
0.1702142992230445
 40
0.1702142992230445
 40
0.1702142992230445
 40
0.1702142992230445
 10
238.1415269739
 20
264.1682757289
 30
0.0
 10
238.1161522790524
 20
264.1780891639438
 30
0.0
 10
238.0586899396756
 20
264.1879511737731
 30
0.0
 10
238.0019217765152
 20
264.1770200490135
 30
0.0
 10
237.9739002698
 20
264.1676965935
 30
0.0
 11
238.1415269739
 21
264.1682757289
 31
0.0
 11
238.0612048854
 21
264.1827660675
 31
0.0
 11
237.9739002698
 21
264.1676965935
 31
0.0
  0
SPLINE
  5
312
330
216
100
AcDbEntity
  8
0
  6
Continuous
 62
     7
100
AcDbSpline
210
0.0
220
0.0
230
1.0
 70
  1064
 71
     3
 72
    10
 73
     6
 74
     4
 42
0.000000001
 43
0.0000000001
 44
0.0000000001
 12
-0.0870253769187458
 22
-0.9962060950286092
 32
0.0
 13
-0.948877816651999
 23
-0.3156436108425699
 33
0.0
 40
0.0
 40
0.0
 40
0.0
 40
0.0
 40
0.2219526115721786
 40
0.3208926292584577
 40
0.4146992725528497
 40
0.4146992725528497
 40
0.4146992725528497
 40
0.4146992725528497
 10
229.9747861504
 20
250.3805067847
 30
0.0
 10
229.9683476471733
 20
250.3068032698815
 30
0.0
 10
229.9372529002119
 20
250.1980640257523
 30
0.0
 10
229.8442251821924
 20
250.093133493871
 30
0.0
 10
229.7865668179255
 20
250.0612913606368
 30
0.0
 10
229.7568964703
 20
250.0514215381
 30
0.0
 11
229.9747861504
 21
250.3805067847
 31
0.0
 11
229.9057707938
 21
250.1695569273
 31
0.0
 11
229.8392739685
 21
250.0962950728
 31
0.0
 11
229.7568964703
 21
250.0514215381
 31
0.0
  0
SPLINE
  5
313
330
216
100
AcDbEntity
  8
0
  6
Continuous
 62
     7
100
AcDbSpline
210
0.0
220
0.0
230
1.0
 70
  1064
 71
     3
 72
    11
 73
     7
 74
     5
 42
0.000000001
 43
0.0000000001
 44
0.0000000001
 12
-0.9488563274968033
 22
-0.3157082035191345
 32
0.0
 13
-0.9326558179720459
 23
0.3607674115034418
 33
0.0
 40
0.0
 40
0.0
 40
0.0
 40
0.0
 40
0.1569098206129601
 40
0.3445839455387426
 40
0.5388538510917329
 40
0.7140973054367459
 40
0.7140973054367459
 40
0.7140973054367459
 40
0.7140973054367459
 10
229.9174544403
 20
250.4518920994
 30
0.0
 10
229.867826148255
 20
250.4353795268733
 30
0.0
 10
229.7535231914689
 20
250.4157836712032
 30
0.0
 10
229.5735216119863
 20
250.4133303169712
 30
0.0
 10
229.3886118492398
 20
250.4355264495851
 30
0.0
 10
229.2688374821854
 20
250.467243825131
 30
0.0
 10
229.2143568731
 20
250.4883178676
 30
0.0
 11
229.9174544403
 21
250.4518920994
 31
0.0
 11
229.7635614642
 21
250.4212711309
 31
0.0
 11
229.5759261671
 21
250.4174537432
 31
0.0
 11
229.3830863674
 21
250.440982616
 31
0.0
 11
229.2143568731
 21
250.4883178676
 31
0.0
  0
SPLINE
  5
314
330
216
100
AcDbEntity
  8
0
  6
Continuous
 62
     7
100
AcDbSpline
210
0.0
220
0.0
230
1.0
 70
  1064
 71
     3
 72
    11
 73
     7
 74
     5
 42
0.000000001
 43
0.0000000001
 44
0.0000000001
 12
-0.9488563274828457
 22
-0.3157082035610842
 32
0.0
 13
-0.9326558180009383
 23
0.3607674114287496
 33
0.0
 40
0.0
 40
0.0
 40
0.0
 40
0.0
 40
0.1569098243003545
 40
0.3445839466226172
 40
0.5388538483672616
 40
0.7140973052308875
 40
0.7140973052308875
 40
0.7140973052308875
 40
0.7140973052308875
 10
230.8371556891
 20
260.9799934551
 30
0.0
 10
230.7875273958895
 20
260.963480882183
 30
0.0
 10
230.673224438629
 20
260.943885027025
 30
0.0
 10
230.4932228600561
 20
260.9414316723704
 30
0.0
 10
230.3083130988115
 20
260.9636278058652
 30
0.0
 10
230.1885387317701
 20
260.9953451798325
 30
0.0
 10
230.1340581219
 20
261.0164192226
 30
0.0
 11
230.8371556891
 21
260.9799934551
 31
0.0
 11
230.6832627093
 21
260.9493724863
 31
0.0
 11
230.4956274148
 21
260.9455550988
 31
0.0
 11
230.3027876189
 21
260.9690839713
 31
0.0
 11
230.1340581219
 21
261.0164192226
 31
0.0
  0
SPLINE
  5
315
330
216
100
AcDbEntity
  8
0
  6
Continuous
 62
     7
100
AcDbSpline
210
0.0
220
0.0
230
1.0
 70
  1064
 71
     3
 72
    10
 73
     6
 74
     4
 42
0.000000001
 43
0.0000000001
 44
0.0000000001
 12
0.0870253769722138
 22
0.9962060950239385
 32
0.0
 13
-0.9326558179848737
 23
0.36076741147028
 33
0.0
 40
0.0
 40
0.0
 40
0.0
 40
0.0
 40
0.1898049323435252
 40
0.3847512750093301
 40
0.7334963136026426
 40
0.7334963136026426
 40
0.7334963136026426
 40
0.7334963136026426
 10
230.9107652975
 20
261.0949462175
 30
0.0
 10
230.9162712460961
 20
261.1579744943221
 30
0.0
 10
230.9058447237959
 20
261.2884859710563
 30
0.0
 10
230.821343686232
 20
261.5181918805266
 30
0.0
 10
230.6841354691125
 20
261.6641971822545
 30
0.0
 10
230.5757157727
 20
261.7061357972001
 30
0.0
 11
230.9107652975
 21
261.0949462175
 31
0.0
 11
230.8977345254
 21
261.2843033175
 31
0.0
 11
230.829474199
 21
261.4669083677
 31
0.0
 11
230.5757157727
 21
261.7061357972001
 31
0.0
  0
SPLINE
  5
316
330
216
100
AcDbEntity
  8
0
  6
Continuous
 62
     7
100
AcDbSpline
210
0.0
220
0.0
230
1.0
 70
  1064
 71
     3
 72
    10
 73
     6
 74
     4
 42
0.000000001
 43
0.0000000001
 44
0.0000000001
 12
0.0870253770602369
 22
0.996206095016249
 32
0.0
 13
-0.9326558179641057
 23
0.3607674115239689
 33
0.0
 40
0.0
 40
0.0
 40
0.0
 40
0.0
 40
0.1898049364887774
 40
0.3847512761343738
 40
0.7334963139814528
 40
0.7334963139814528
 40
0.7334963139814528
 40
0.7334963139814528
 10
238.308949795
 20
263.556507014
 30
0.0
 10
238.3144557437219
 20
263.6195352921981
 30
0.0
 10
238.304029220944
 20
263.7500467693397
 30
0.0
 10
238.219528183082
 20
263.9797526788661
 30
0.0
 10
238.0823199659781
 20
264.125757978638
 30
0.0
 10
237.9739002698
 20
264.1676965935
 30
0.0
 11
238.308949795
 21
263.556507014
 31
0.0
 11
238.2959190221
 21
263.7458641181
 31
0.0
 11
238.2276586963
 21
263.9284691653
 31
0.0
 11
237.9739002698
 21
264.1676965935
 31
0.0
  0
SPLINE
  5
317
330
216
100
AcDbEntity
  8
0
  6
Continuous
 62
     7
100
AcDbSpline
210
0.0
220
0.0
230
1.0
 70
  1064
 71
     3
 72
     9
 73
     5
 74
     3
 42
0.000000001
 43
0.0000000001
 44
0.0000000001
 12
0.9488563275307335
 22
0.3157082034171579
 32
0.0
 13
0.0858454724586953
 23
0.996308463709078
 33
0.0
 40
0.0
 40
0.0
 40
0.0
 40
0.0
 40
0.0543600297975739
 40
0.1628912545094758
 40
0.1628912545094758
 40
0.1628912545094758
 40
0.1628912545094758
 10
238.3662815052
 20
263.4851216993
 30
0.0
 10
238.3834747912794
 20
263.4908423350817
 30
0.0
 10
238.4322893794128
 20
263.5094732377577
 30
0.0
 10
238.4855241916127
 20
263.5509107736809
 30
0.0
 10
238.4886298297
 20
263.5869542996
 30
0.0
 11
238.3662815052
 21
263.4851216993
 31
0.0
 11
238.4165478516
 21
263.5058172848
 31
0.0
 11
238.4886298297
 21
263.5869542996
 31
0.0
  0
SPLINE
  5
318
330
216
100
AcDbEntity
  8
0
  6
Continuous
 62
     7
100
AcDbSpline
210
0.0
220
0.0
230
1.0
 70
  1064
 71
     3
 72
     9
 73
     5
 74
     3
 42
0.000000001
 43
0.0000000001
 44
0.0000000001
 12
0.9488563275775813
 22
0.3157082032763578
 32
0.0
 13
0.2670930949433175
 23
0.963670731439738
 33
0.0
 40
0.0
 40
0.0
 40
0.0
 40
0.0
 40
0.091267901846755
 40
0.154412923330147
 40
0.154412923330147
 40
0.154412923330147
 40
0.154412923330147
 10
237.4465802564
 20
252.9570203435
 30
0.0
 10
237.475446965124
 20
252.9666250186029
 30
0.0
 10
237.5232754147894
 20
252.9861366087163
 30
0.0
 10
237.5612326147939
 20
253.0270872396201
 30
0.0
 10
237.5668544812
 20
253.0473709093
 30
0.0
 11
237.4465802564
 21
252.9570203435
 31
0.0
 11
237.528537718
 21
252.9971800795
 31
0.0
 11
237.5668544812
 21
253.0473709093
 31
0.0
  0
SPLINE
  5
319
330
216
100
AcDbEntity
  8
0
  6
Continuous
 62
     7
100
AcDbSpline
210
0.0
220
0.0
230
1.0
 70
  1064
 71
     3
 72
    10
 73
     6
 74
     4
 42
0.000000001
 43
0.0000000001
 44
0.0000000001
 12
-0.0870253769396513
 22
-0.9962060950267829
 32
0.0
 13
-0.9488778175667215
 23
-0.3156436080927596
 33
0.0
 40
0.0
 40
0.0
 40
0.0
 40
0.0
 40
0.221952607214268
 40
0.3208926269191517
 40
0.4146992723918522
 40
0.4146992723918522
 40
0.4146992723918522
 40
0.4146992723918522
 10
237.372970648
 20
252.8420675811
 30
0.0
 10
237.3665321448982
 20
252.7683640677287
 30
0.0
 10
237.3354373988648
 20
252.6596248242942
 30
0.0
 10
237.2424096813415
 20
252.554694292209
 30
0.0
 10
237.1847513163431
 20
252.5228521571801
 30
0.0
 10
237.155080968
 20
252.5129823345
 30
0.0
 11
237.372970648
 21
252.8420675811
 31
0.0
 11
237.3039552938
 21
252.6311177275
 31
0.0
 11
237.2374584677
 21
252.557855871
 31
0.0
 11
237.155080968
 21
252.5129823345
 31
0.0
  0
SPLINE
  5
31A
330
216
100
AcDbEntity
  8
0
  6
Continuous
 62
     7
100
AcDbSpline
210
0.0
220
0.0
230
1.0
 70
  1064
 71
     3
 72
     8
 73
     4
 74
     2
 42
0.000000001
 43
0.0000000001
 44
0.0000000001
 12
0.9989337184641955
 22
0.046167370677735
 32
0.0
 13
0.9323587564250214
 23
-0.3615344372498804
 33
0.0
 40
0.0
 40
0.0
 40
0.0
 40
0.0
 40
0.2061874320317264
 40
0.2061874320317264
 40
0.2061874320317264
 40
0.2061874320317264
 10
261.9734191401
 20
234.8895893596
 30
0.0
 10
262.0420749994933
 20
234.8927624034679
 30
0.0
 10
262.1128432636601
 20
234.8812825297025
 30
0.0
 10
262.1769234829
 20
234.8564345773
 30
0.0
 11
261.9734191401
 21
234.8895893596
 31
0.0
 11
262.1769234829
 21
234.8564345773
 31
0.0
  0
SPLINE
  5
31B
330
216
100
AcDbEntity
  8
0
  6
Continuous
 62
     7
100
AcDbSpline
210
0.0
220
0.0
230
1.0
 70
  1064
 71
     3
 72
     8
 73
     4
 74
     2
 42
0.000000001
 43
0.0000000001
 44
0.0000000001
 12
0.6655526681964653
 22
0.7463508865517384
 32
0.0
 13
0.3209760300220715
 23
0.9470873181239786
 33
0.0
 40
0.0
 40
0.0
 40
0.0
 40
0.0
 40
0.1995160218794717
 40
0.1995160218794717
 40
0.1995160218794717
 40
0.1995160218794717
 10
265.4505750203
 20
231.1529243035
 30
0.0
 10
265.4948378272032
 20
231.202560623437
 30
0.0
 10
265.5296401993904
 20
231.2623447645051
 30
0.0
 10
265.5509868196
 20
231.3253311292
 30
0.0
 11
265.4505750203
 21
231.1529243035
 31
0.0
 11
265.5509868196
 21
231.3253311292
 31
0.0
  0
SPLINE
  5
31C
330
216
100
AcDbEntity
  8
0
  6
Continuous
 62
     7
100
AcDbSpline
210
0.0
220
0.0
230
1.0
 70
  1064
 71
     3
 72
     8
 73
     4
 74
     2
 42
0.000000001
 43
0.0000000001
 44
0.0000000001
 12
0.3209760298334326
 22
0.9470873181879101
 32
0.0
 13
-0.376586739475341
 23
0.9263813618868484
 33
0.0
 40
0.0
 40
0.0
 40
0.0
 40
0.0
 40
0.3488539030737026
 40
0.3488539030737026
 40
0.3488539030737026
 40
0.3488539030737026
 10
265.5509868196
 20
231.3253311292
 30
0.0
 10
265.5883113998668
 20
231.4354628317005
 30
0.0
 10
265.5843712534039
 20
231.566305854557
 30
0.0
 10
265.5405800021
 20
231.6740297725
 30
0.0
 11
265.5509868196
 21
231.3253311292
 31
0.0
 11
265.5405800021
 21
231.6740297725
 31
0.0
  0
SPLINE
  5
31D
330
216
100
AcDbEntity
  8
0
  6
Continuous
 62
     7
100
AcDbSpline
210
0.0
220
0.0
230
1.0
 70
  1064
 71
     3
 72
    19
 73
    15
 74
    13
 42
0.000000001
 43
0.0000000001
 44
0.0000000001
 12
-0.6655926631260856
 22
-0.7463152194567153
 32
0.0
 13
-0.9338706351308903
 23
0.3576110133094722
 33
0.0
 40
0.0
 40
0.0
 40
0.0
 40
0.0
 40
17.86858149565829
 40
26.3543668749548
 40
30.47708848576418
 40
34.51711870140133
 40
38.45478161123902
 40
42.25727575483562
 40
45.90284107692611
 40
49.38676740580963
 40
52.71915247060197
 40
55.91937635080575
 40
59.01805889097937
 40
62.05792564936732
 40
62.05792564936732
 40
62.05792564936732
 40
62.05792564936732
 10
264.1143058617
 20
233.8579797497
 30
0.0
 10
260.1499069470397
 20
229.4127816429292
 30
0.0
 10
253.9585769444995
 20
223.1424710645208
 30
0.0
 10
246.1332294409982
 20
216.6521031017259
 30
0.0
 10
241.6674989643968
 20
213.3552850703199
 30
0.0
 10
238.3311025132756
 20
211.0867245851579
 30
0.0
 10
234.9825573128595
 20
209.0320269003173
 30
0.0
 10
231.6245003101939
 20
207.25660583761
 30
0.0
 10
228.2674226517521
 20
205.8248509830644
 30
0.0
 10
224.9230298874724
 20
204.8095434230151
 30
0.0
 10
221.6256028954262
 20
204.231085830297
 30
0.0
 10
218.4067266790953
 20
204.1046303823915
 30
0.0
 10
215.3007506986867
 20
204.4461770701977
 30
0.0
 10
213.3190018025897
 20
205.0028523618357
 30
0.0
 10
212.3727210358
 20
205.3652156391
 30
0.0
 11
264.1143058617
 21
233.8579797497
 31
0.0
 11
251.4897731823
 21
221.2125307939
 31
0.0
 11
244.9474329747
 21
215.8082419312
 31
0.0
 11
241.6297217987
 21
213.3608706817
 31
0.0
 11
238.285432547
 21
211.094249067
 31
0.0
 11
234.9227339497
 21
209.0454817949
 31
0.0
 11
231.5546259336
 21
207.2805993331
 31
0.0
 11
228.1943224673
 21
205.8669136778
 31
0.0
 11
224.8576265784
 21
204.8648142765
 31
0.0
 11
221.5735759541
 21
204.2993041377
 31
0.0
 11
218.3754260262
 21
204.1841089898
 31
0.0
 11
215.2964440977
 21
204.5329696622
 31
0.0
 11
212.3727210358
 21
205.3652156391
 31
0.0
  0
SPLINE
  5
31E
330
216
100
AcDbEntity
  8
0
  6
Continuous
 62
     7
100
AcDbSpline
210
0.0
220
0.0
230
1.0
 70
  1064
 71
     3
 72
    16
 73
    12
 74
    10
 42
0.000000001
 43
0.0000000001
 44
0.0000000001
 12
-0.6655926627225558
 22
-0.7463152198165989
 32
0.0
 13
-0.9741370899247707
 23
0.2259578058684836
 33
0.0
 40
0.0
 40
0.0
 40
0.0
 40
0.0
 40
8.642141103062758
 40
17.02641394412037
 40
25.13284891422302
 40
32.94780433395366
 40
40.41357893355761
 40
47.35117536858552
 40
50.6069303447409
 40
53.73092547616377
 40
59.65641122323378
 40
59.65641122323378
 40
59.65641122323378
 40
59.65641122323378
 10
261.8598402993
 20
234.7300461407
 30
0.0
 10
259.9424583964961
 20
232.5801256616939
 30
0.0
 10
256.0587628789937
 20
228.4373059203161
 30
0.0
 10
249.9959457193266
 20
222.6491535943948
 30
0.0
 10
243.7980309534248
 20
217.4221233370873
 30
0.0
 10
237.4995865404074
 20
212.8170826469755
 30
0.0
 10
231.1918255936485
 20
208.9178373827343
 30
0.0
 10
225.7749589095741
 20
206.5225032904029
 30
0.0
 10
221.4614503323474
 20
205.4273300527572
 30
0.0
 10
217.3896114290959
 20
204.8942285371215
 30
0.0
 10
214.3243257188805
 20
205.0955363488957
 30
0.0
 10
212.4002472382
 20
205.5418396016
 30
0.0
 11
261.8598402993
 21
234.7300461407
 31
0.0
 11
255.9423375523
 21
228.4316523705
 31
0.0
 11
249.8702329223
 21
222.6501667106
 31
0.0
 11
243.6646273377
 21
217.4343496842
 31
0.0
 11
237.3472470904
 21
212.8338893786
 31
0.0
 11
230.9534635664
 21
208.9793696134
 31
0.0
 11
224.56456515
 21
206.2752576852
 31
0.0
 11
221.4071402261
 21
205.4811491821
 31
0.0
 11
218.3081972891
 21
205.0863096522
 31
0.0
 11
212.4002472382
 21
205.5418396016
 31
0.0
  0
SPLINE
  5
31F
330
216
100
AcDbEntity
  8
0
  6
Continuous
 62
     7
100
AcDbSpline
210
0.0
220
0.0
230
1.0
 70
  1064
 71
     3
 72
     9
 73
     5
 74
     3
 42
0.000000001
 43
0.0000000001
 44
0.0000000001
 12
0.9326558180517144
 22
-0.3607674112974829
 32
0.0
 13
-0.0870253770567248
 23
-0.9962060950165557
 33
0.0
 40
0.0
 40
0.0
 40
0.0
 40
0.0
 40
0.3487477702393008
 40
0.729496628948226
 40
0.729496628948226
 40
0.729496628948226
 40
0.729496628948226
 10
216.7190889887
 20
255.4140082596
 30
0.0
 10
216.8275095343487
 20
255.3720693161783
 30
0.0
 10
217.0099241699651
 20
255.1795517671828
 30
0.0
 10
217.0651834516644
 20
254.9292534580055
 30
0.0
 10
217.054138514
 20
254.8028186801
 30
0.0
 11
216.7190889887
 21
255.4140082596
 31
0.0
 11
216.9728610956
 21
255.1747913601
 31
0.0
 11
217.054138514
 21
254.8028186801
 31
0.0
  0
SPLINE
  5
320
330
216
100
AcDbEntity
  8
0
  6
Continuous
 62
     7
100
AcDbSpline
210
0.0
220
0.0
230
1.0
 70
  1064
 71
     3
 72
     9
 73
     5
 74
     3
 42
0.000000001
 43
0.0000000001
 44
0.0000000001
 12
0.3731131085851303
 22
-0.9277858633337439
 32
0.0
 13
-0.6650441438034573
 23
-0.7468040484576437
 33
0.0
 40
0.0
 40
0.0
 40
0.0
 40
0.0
 40
0.0608537057078381
 40
0.1918956432866935
 40
0.1918956432866935
 40
0.1918956432866935
 40
0.1918956432866935
 10
265.4531438479001
 20
231.3403562508
 30
0.0
 10
265.4607122863353
 20
231.3215365148376
 30
0.0
 10
265.4809991983537
 20
231.2625315154822
 30
0.0
 10
265.4796203786265
 20
231.1855505665672
 30
0.0
 10
265.4505708209
 20
231.1529296834
 30
0.0
 11
265.4531438479001
 21
231.3403562508
 31
0.0
 11
265.4714002074
 21
231.2823055933
 31
0.0
 11
265.4505708209
 21
231.1529296834
 31
0.0
  0
SPLINE
  5
321
330
216
100
AcDbEntity
  8
0
  6
Continuous
 62
     7
100
AcDbSpline
210
0.0
220
0.0
230
1.0
 70
  1064
 71
     3
 72
     9
 73
     5
 74
     3
 42
0.000000001
 43
0.0000000001
 44
0.0000000001
 12
-0.9327988995761639
 22
0.3603972987544408
 32
0.0
 13
-0.6655924491250165
 23
-0.7463154103110578
 33
0.0
 40
0.0
 40
0.0
 40
0.0
 40
0.0
 40
0.1555333544811115
 40
0.3569501436955027
 40
0.3569501436955027
 40
0.3569501436955027
 40
0.3569501436955027
 10
264.4313585642
 20
233.9843730772
 30
0.0
 10
264.3829981168975
 20
234.0030576774737
 30
0.0
 10
264.2517927202703
 20
233.9890651037744
 30
0.0
 10
264.1589929691761
 20
233.9080865033954
 30
0.0
 10
264.1143058045
 20
233.8579796855
 30
0.0
 11
264.4313585642
 21
233.9843730772
 31
0.0
 11
264.2759499231
 21
233.9781458284
 31
0.0
 11
264.1143058045
 21
233.8579796855
 31
0.0
  0
SPLINE
  5
322
330
216
100
AcDbEntity
  8
0
  6
Continuous
 62
     7
100
AcDbSpline
210
0.0
220
0.0
230
1.0
 70
  1064
 71
     3
 72
     9
 73
     5
 74
     3
 42
0.000000001
 43
0.0000000001
 44
0.0000000001
 12
-0.087025377074972
 22
-0.9962060950149618
 32
0.0
 13
-0.9487189779628586
 23
-0.3161207061442021
 33
0.0
 40
0.0
 40
0.0
 40
0.0
 40
0.0
 40
0.2219875258933506
 40
0.4119979643782147
 40
0.4119979643782147
 40
0.4119979643782147
 40
0.4119979643782147
 10
216.8099700408
 20
252.0077475237
 30
0.0
 10
216.803530524751
 20
251.9340324149292
 30
0.0
 10
216.7659884570099
 20
251.7953141030439
 30
0.0
 10
216.6521659888339
 20
251.6986939911962
 30
0.0
 10
216.5920771525
 20
251.6786719132
 30
0.0
 11
216.8099700408
 21
252.0077475237
 31
0.0
 11
216.7409294234
 21
251.7967691959
 31
0.0
 11
216.5920771525
 21
251.6786719132
 31
0.0
  0
SPLINE
  5
323
330
216
100
AcDbEntity
  8
0
  6
Continuous
 62
     7
100
AcDbSpline
210
0.0
220
0.0
230
1.0
 70
  1064
 71
     3
 72
     9
 73
     5
 74
     3
 42
0.000000001
 43
0.0000000001
 44
0.0000000001
 12
0.9326557959293628
 22
-0.3607674684881756
 32
0.0
 13
0.3730383373976763
 23
-0.9278159293909419
 33
0.0
 40
0.0
 40
0.0
 40
0.0
 40
0.0
 40
0.3666126357852461
 40
0.7170020686463908
 40
0.7170020686463908
 40
0.7170020686463908
 40
0.7170020686463908
 10
264.1143049249
 20
233.857981873
 30
0.0
 10
264.228279391442
 20
233.813894568824
 30
0.0
 10
264.4263184015446
 20
233.6713486546195
 30
0.0
 10
264.5831493498746
 20
233.481079893233
 30
0.0
 10
264.6267189137
 20
233.3727142608
 30
0.0
 11
264.1143049249
 21
233.857981873
 31
0.0
 11
264.4200258335
 21
233.6556466295
 31
0.0
 11
264.6267189137
 21
233.3727142608
 31
0.0
  0
SPLINE
  5
324
330
216
100
AcDbEntity
  8
0
  6
Continuous
 62
     7
100
AcDbSpline
210
0.0
220
0.0
230
1.0
 70
  1064
 71
     3
 72
     9
 73
     5
 74
     3
 42
0.000000001
 43
0.0000000001
 44
0.0000000001
 12
0.9487316705229348
 22
0.3160826115855815
 32
0.0
 13
0.9326558178233025
 23
-0.3607674118879735
 33
0.0
 40
0.0
 40
0.0
 40
0.0
 40
0.0
 40
0.1480317792141835
 40
0.2009194168788635
 40
0.2009194168788635
 40
0.2009194168788635
 40
0.2009194168788635
 10
214.2660872361
 20
256.2946527169
 30
0.0
 10
214.3129013818281
 20
256.3102494740239
 30
0.0
 10
214.3841467976946
 20
256.3120710825709
 30
0.0
 10
214.448181376147
 20
256.2924346257871
 30
0.0
 10
214.4646233638
 20
256.2860745804
 30
0.0
 11
214.2660872361
 21
256.2946527169
 31
0.0
 11
214.4139703425
 21
256.3012855518
 31
0.0
 11
214.4646233638
 21
256.2860745804
 31
0.0
  0
SPLINE
  5
325
330
216
100
AcDbEntity
  8
0
  6
Continuous
 62
     7
100
AcDbSpline
210
0.0
220
0.0
230
1.0
 70
  1064
 71
     3
 72
     9
 73
     5
 74
     3
 42
0.000000001
 43
0.0000000001
 44
0.0000000001
 12
0.376445270791316
 22
-0.9264388582625691
 32
0.0
 13
-0.6636613154582783
 23
-0.7480331933572117
 33
0.0
 40
0.0
 40
0.0
 40
0.0
 40
0.0
 40
0.1643305778591878
 40
0.3587035828703619
 40
0.3587035828703619
 40
0.3587035828703619
 40
0.3587035828703619
 10
264.7141579876
 20
233.7063310352
 30
0.0
 10
264.7347784772271
 20
233.6555836242235
 30
0.0
 10
264.736359351153
 20
233.5262678963233
 30
0.0
 10
264.6697181451984
 20
233.4211800999803
 30
0.0
 10
264.6267188638
 20
233.3727142801
 30
0.0
 11
264.7141579876
 21
233.7063310352
 31
0.0
 11
264.721908687
 21
233.5421833411
 31
0.0
 11
264.6267188638
 21
233.3727142801
 31
0.0
  0
SPLINE
  5
326
330
216
100
AcDbEntity
  8
0
  6
Continuous
 62
     7
100
AcDbSpline
210
0.0
220
0.0
230
1.0
 70
  1064
 71
     3
 72
    20
 73
    16
 74
    14
 42
0.000000001
 43
0.0000000001
 44
0.0000000001
 12
-0.6655923746300026
 22
-0.7463154767485359
 32
0.0
 13
-0.8566148593754542
 23
0.5159563767385487
 33
0.0
 40
0.0
 40
0.0
 40
0.0
 40
0.0
 40
9.675692292469708
 40
19.03519688344983
 40
28.03857404640807
 40
32.39759064315898
 40
36.65030297535226
 40
40.77275141794273
 40
44.73207364220478
 40
48.50520574592589
 40
52.0946584808791
 40
55.52587329839699
 40
58.83570523254024
 40
62.07246987416351
 40
65.30037654223747
 40
65.30037654223747
 40
65.30037654223747
 40
65.30037654223747
 10
264.6267188638
 20
233.37271428
 30
0.0
 10
262.4800298607553
 20
230.9656746446244
 30
0.0
 10
258.1240958314169
 20
226.3460158339452
 30
0.0
 10
251.2954006791749
 20
219.9554501594043
 30
0.0
 10
245.4052105664125
 20
215.1812162634254
 30
0.0
 10
240.6280194721116
 20
211.7647673247438
 30
0.0
 10
237.0684902915847
 20
209.4491181253815
 30
0.0
 10
233.4962855880113
 20
207.4074404217093
 30
0.0
 10
229.9169394465554
 20
205.7200542423113
 30
0.0
 10
226.3459745572619
 20
204.4732175842608
 30
0.0
 10
222.8182194438939
 20
203.7152432600872
 30
0.0
 10
219.3721637066433
 20
203.4601586224188
 30
0.0
 10
216.0421312765184
 20
203.7242582021395
 30
0.0
 10
212.8683851679614
 20
204.5316981774498
 30
0.0
 10
210.9039770831497
 20
205.4578251576634
 30
0.0
 10
209.9822861443
 20
206.0129781673
 30
0.0
 11
264.6267188638
 21
233.37271428
 31
0.0
 11
257.9793906453
 21
226.3419213735
 31
0.0
 11
251.1338501551
 21
219.9592180602
 31
0.0
 11
244.1286472756
 21
214.3034304974
 31
0.0
 11
240.5808168812
 21
211.7708576587
 31
0.0
 11
237.0102991141
 21
209.4606704249
 31
0.0
 11
233.4231389485
 21
207.42920221
 31
0.0
 11
229.833407874
 21
205.7588539564
 31
0.0
 11
226.2659430004
 21
204.5301472185
 31
0.0
 11
222.7541164562
 21
203.7876882904
 31
0.0
 11
219.3313879875
 21
203.5465141759
 31
0.0
 11
216.0328852615
 21
203.8201328866
 31
0.0
 11
212.8992631964
 21
204.6307240896
 31
0.0
 11
209.9822861443
 21
206.0129781673
 31
0.0
  0
SPLINE
  5
327
330
216
100
AcDbEntity
  8
0
  6
Continuous
 62
     7
100
AcDbSpline
210
0.0
220
0.0
230
1.0
 70
  1064
 71
     3
 72
    19
 73
    15
 74
    13
 42
0.000000001
 43
0.0000000001
 44
0.0000000001
 12
-0.8566148593756818
 22
0.5159563767381707
 32
0.0
 13
0.6660294668396364
 23
0.7459254314616909
 33
0.0
 40
0.0
 40
0.0
 40
0.0
 40
0.0
 40
4.235132650694814
 40
8.776156522327486
 40
13.77435339346136
 40
19.38383189659339
 40
22.46566995493777
 40
25.72525614075379
 40
29.1190233060802
 40
32.57853751594093
 40
36.04596289229493
 40
39.47379009901563
 40
42.81777029234139
 40
46.03094350502051
 40
46.03094350502051
 40
46.03094350502051
 40
46.03094350502051
 10
209.9822861443
 20
206.0129781673
 30
0.0
 10
208.7729936242959
 20
206.741359399786
 30
0.0
 10
206.4603886379941
 20
208.5974030510838
 30
0.0
 10
203.7081574972003
 20
212.3253509712024
 30
0.0
 10
201.6702514828824
 20
216.9882992592059
 30
0.0
 10
200.7990436321439
 20
221.5108715043218
 30
0.0
 10
200.7182263287881
 20
225.5012624145377
 30
0.0
 10
201.0420245562277
 20
228.7385157638277
 30
0.0
 10
201.7674341130607
 20
232.0370519554205
 30
0.0
 10
202.8285109270698
 20
235.3144767141057
 30
0.0
 10
204.176659815891
 20
238.4964308606844
 30
0.0
 10
205.7703387189112
 20
241.5193404107606
 30
0.0
 10
207.5756676226065
 20
244.3205350574005
 30
0.0
 10
208.9358044881986
 20
246.0378193957904
 30
0.0
 10
209.6491605021
 20
246.8367486008
 30
0.0
 11
209.9822861443
 21
206.0129781673
 31
0.0
 11
206.6711847998
 21
208.6536137831
 31
0.0
 11
203.9406234254
 21
212.2819649766
 31
0.0
 11
201.9194284042
 21
216.8532604876
 31
0.0
 11
200.8441060282
 21
222.3587060522
 31
0.0
 11
200.779371943
 21
225.439864165
 31
0.0
 11
201.0989964952
 21
228.6837418212
 31
0.0
 11
201.8149497294
 21
232.0011303331
 31
0.0
 11
202.8750137184
 21
235.2942296191
 31
0.0
 11
204.2261889238
 21
238.4875608429
 31
0.0
 11
205.8270451683
 21
241.5186099424
 31
0.0
 11
207.6447203359
 21
244.3254338625
 31
0.0
 11
209.6491605021
 21
246.8367486008
 31
0.0
  0
SPLINE
  5
328
330
216
100
AcDbEntity
  8
0
  6
Continuous
 62
     7
100
AcDbSpline
210
0.0
220
0.0
230
1.0
 70
  1064
 71
     3
 72
     8
 73
     4
 74
     2
 42
0.000000001
 43
0.0000000001
 44
0.0000000001
 12
-0.9327905440906627
 22
0.3604189241078296
 32
0.0
 13
-0.999894876630675
 23
-0.014499506464968
 33
0.0
 40
0.0
 40
0.0
 40
0.0
 40
0.0
 40
0.0701637950989033
 40
0.0701637950989033
 40
0.0701637950989033
 40
0.0701637950989033
 10
262.1768967282
 20
234.8564379455
 30
0.0
 10
262.1550806866647
 20
234.8648673986803
 30
0.0
 10
262.1311648466815
 20
234.8688497320669
 30
0.0
 10
262.1077793736
 20
234.8685106186
 30
0.0
 11
262.1768967282
 21
234.8564379455
 31
0.0
 11
262.1077793736
 21
234.8685106186
 31
0.0
  0
SPLINE
  5
329
330
216
100
AcDbEntity
  8
0
  6
Continuous
 62
     7
100
AcDbSpline
210
0.0
220
0.0
230
1.0
 70
  1064
 71
     3
 72
     9
 73
     5
 74
     3
 42
0.000000001
 43
0.0000000001
 44
0.0000000001
 12
-0.999894876638227
 22
-0.0144995059441698
 32
0.0
 13
-0.665592666776088
 23
-0.7463152162015026
 33
0.0
 40
0.0
 40
0.0
 40
0.0
 40
0.0
 40
0.06231253841494
 40
0.288839441600174
 40
0.288839441600174
 40
0.288839441600174
 40
0.288839441600174
 10
262.1077793736
 20
234.8685106186
 30
0.0
 10
262.0870107109629
 20
234.8682094515929
 30
0.0
 10
261.9908303949085
 20
234.8516019550123
 30
0.0
 10
261.9100985144959
 20
234.7863996322754
 30
0.0
 10
261.8598402993
 20
234.7300461407
 30
0.0
 11
262.1077793736
 21
234.8685106186
 31
0.0
 11
262.0462309381
 21
234.8587821793
 31
0.0
 11
261.8598402993
 21
234.7300461407
 31
0.0
  0
SPLINE
  5
32A
330
216
100
AcDbEntity
  8
0
  6
Continuous
 62
     7
100
AcDbSpline
210
0.0
220
0.0
230
1.0
 70
  1064
 71
     3
 72
    10
 73
     6
 74
     4
 42
0.000000001
 43
0.0000000001
 44
0.0000000001
 12
0.6650940464600374
 22
0.7467596061407003
 32
0.0
 13
0.9326558140488142
 23
-0.3607674216457799
 33
0.0
 40
0.0
 40
0.0
 40
0.0
 40
0.0
 40
0.0471034342267743
 40
0.1337933867298728
 40
0.2487289634804137
 40
0.2487289634804137
 40
0.2487289634804137
 40
0.2487289634804137
 10
261.6233572561
 20
234.7229146983
 30
0.0
 10
261.6337999939907
 20
234.7346396789637
 30
0.0
 10
261.6729482365421
 20
234.7598648302945
 30
0.0
 10
261.7592049383317
 20
234.762747671423
 30
0.0
 10
261.8241085083342
 20
234.7438678436599
 30
0.0
 10
261.8598402863
 20
234.7300461731
 30
0.0
 11
261.6233572561
 21
234.7229146983
 31
0.0
 11
261.6622637434
 21
234.7494668877
 31
0.0
 11
261.7484819801
 21
234.7584981404
 31
0.0
 11
261.8598402863
 21
234.7300461731
 31
0.0
  0
SPLINE
  5
32B
330
216
100
AcDbEntity
  8
0
  6
Continuous
 62
     7
100
AcDbSpline
210
0.0
220
0.0
230
1.0
 70
  1064
 71
     3
 72
     9
 73
     5
 74
     3
 42
0.000000001
 43
0.0000000001
 44
0.0000000001
 12
0.3766578903441495
 22
-0.9263524348980222
 32
0.0
 13
-0.6636613079264104
 23
-0.7480332000395479
 33
0.0
 40
0.0
 40
0.0
 40
0.0
 40
0.0
 40
0.1643528962755277
 40
0.3587545655480453
 40
0.3587545655480453
 40
0.3587545655480453
 40
0.3587545655480453
 10
265.5405627611
 20
231.6740227321
 30
0.0
 10
265.5611976994944
 20
231.6232731635508
 30
0.0
 10
265.5627997240658
 20
231.49393512281
 30
0.0
 10
265.4961494699309
 20
231.3888292183864
 30
0.0
 10
265.4531438479001
 20
231.3403562508
 30
0.0
 11
265.5405627611
 21
231.6740227321
 31
0.0
 11
265.5483411221
 21
231.509854003
 31
0.0
 11
265.4531438479001
 21
231.3403562508
 31
0.0
  0
SPLINE
  5
32C
330
216
100
AcDbEntity
  8
0
  6
Continuous
 62
     7
100
AcDbSpline
210
0.0
220
0.0
230
1.0
 70
  1064
 71
     3
 72
    21
 73
    17
 74
    15
 42
0.000000001
 43
0.0000000001
 44
0.0000000001
 12
-0.8756144641747578
 22
0.4830106728923825
 32
0.0
 13
0.9488563274902945
 23
0.3157082035386967
 33
0.0
 40
0.0
 40
0.0
 40
0.0
 40
0.0
 40
2.679508548164635
 40
5.467942191566194
 40
8.423477288826784
 40
11.60361646822218
 40
18.72688759237531
 40
27.11673193160291
 40
31.85489604084557
 40
36.74186884785897
 40
41.66187738754355
 40
46.51636566888924
 40
51.20928959619894
 40
55.62027578405157
 40
59.64956504838002
 40
63.26902083824264
 40
63.26902083824264
 40
63.26902083824264
 40
63.26902083824264
 10
208.7239845506
 20
202.6581125789
 30
0.0
 10
207.9419124033824
 20
203.0895229878566
 30
0.0
 10
206.4118211824088
 20
204.095667382887
 30
0.0
 10
204.3269900373272
 20
205.9926018626902
 30
0.0
 10
202.4520489780913
 20
208.3166845747459
 30
0.0
 10
200.1908621791276
 20
212.1287769079909
 30
0.0
 10
198.1850777908655
 20
218.1167485763914
 30
0.0
 10
197.8783442130948
 20
224.9565641537555
 30
0.0
 10
198.8561046633117
 20
230.8968036000535
 30
0.0
 10
200.2400738267747
 20
235.5554976713011
 30
0.0
 10
202.1330736277041
 20
240.0705980631256
 30
0.0
 10
204.456562422109
 20
244.3068166247178
 30
0.0
 10
207.1373558648252
 20
248.1229932938032
 30
0.0
 10
210.1113019073064
 20
251.3568052578655
 30
0.0
 10
213.2729621662082
 20
253.8672830417051
 30
0.0
 10
215.5743078126058
 20
255.0331109645316
 30
0.0
 10
216.7190889887
 20
255.4140082596
 30
0.0
 11
208.7239845506
 21
202.6581125789
 31
0.0
 11
206.484749109
 21
204.1297071891
 31
0.0
 11
204.4189802402
 21
206.0026623846
 31
0.0
 11
202.5555555007
 21
208.2967495563
 31
0.0
 11
200.925399374
 21
211.027294594
 31
0.0
 11
198.6224008308
 21
217.7680059228
 31
0.0
 11
198.1952558258
 21
226.1469697717
 31
0.0
 11
198.9433673083
 21
230.8257012596
 31
0.0
 11
200.3196415322
 21
235.5148773575
 31
0.0
 11
202.2195118986
 21
240.0532665675
 31
0.0
 11
204.5601496125
 21
244.3062033841
 31
0.0
 11
207.2746950065
 21
248.1343593751
 31
0.0
 11
210.2800823484
 21
251.3630504527
 31
0.0
 11
213.4625769542
 21
253.8342647412
 31
0.0
 11
216.7190889887
 21
255.4140082596
 31
0.0
  0
LINE
  5
32D
330
216
100
AcDbEntity
  8
0
  6
Continuous
 62
     7
100
AcDbLine
 10
265.4531438479001
 20
231.3403562508
 30
0.0
 11
265.3592897857
 21
231.2351922929
 31
0.0
  0
SPLINE
  5
32E
330
216
100
AcDbEntity
  8
0
  6
Continuous
 62
     7
100
AcDbSpline
210
0.0
220
0.0
230
1.0
 70
  1064
 71
     3
 72
    31
 73
    27
 74
    25
 42
0.000000001
 43
0.0000000001
 44
0.0000000001
 12
-0.6661447198708924
 22
-0.7458225071611412
 32
0.0
 13
0.6478323610111105
 23
0.7617829297291784
 33
0.0
 40
0.0
 40
0.0
 40
0.0
 40
0.0
 40
8.410564414175372
 40
16.5926937800088
 40
24.52146126708907
 40
32.1739637135707
 40
35.89036319148084
 40
39.51847570822071
 40
43.03943703252019
 40
46.43663406313822
 40
52.81895295793432
 40
58.73624061211241
 40
64.3673792883053
 40
67.16796154757604
 40
70.01478696010963
 40
72.95983187477972
 40
76.05144696584159
 40
79.3285690045543
 40
82.82894780716985
 40
90.635916922012
 40
94.99538186309152
 40
99.58890128012614
 40
104.2934489132536
 40
108.9983106055813
 40
113.6114147234849
 40
118.0433093333839
 40
118.0433093333839
 40
118.0433093333839
 40
118.0433093333839
 10
265.3592897857
 20
231.2351922929
 30
0.0
 10
263.4917387604877
 20
229.1442628802265
 30
0.0
 10
259.7090953527474
 20
225.105420699566
 30
0.0
 10
253.8137734245012
 20
219.4378143841249
 30
0.0
 10
247.7921379466959
 20
214.2841085339866
 30
0.0
 10
242.6402202984998
 20
210.423339280043
 30
0.0
 10
238.4836668794234
 20
207.6441092143904
 30
0.0
 10
235.3860637190618
 20
205.7644684731413
 30
0.0
 10
232.2783912274338
 20
204.1153065062959
 30
0.0
 10
228.2222838230321
 20
202.3181815084606
 30
0.0
 10
223.1622265542469
 20
200.8442641314535
 30
0.0
 10
217.1417065690283
 20
200.4726468573364
 30
0.0
 10
212.3849231248872
 20
201.4558120289629
 30
0.0
 10
208.9709976843547
 20
203.0659697252137
 30
0.0
 10
206.6059469601596
 20
204.7054947294197
 30
0.0
 10
204.4761569304015
 20
206.7817835784337
 30
0.0
 10
202.6168822421319
 20
209.2828140569147
 30
0.0
 10
201.0507361345333
 20
212.1884948325109
 30
0.0
 10
199.3492424173967
 20
216.7557686315436
 30
0.0
 10
198.6013013578689
 20
222.0067126370736
 30
0.0
 10
198.9585917128451
 20
227.5956386851909
 30
0.0
 10
199.8805619970717
 20
232.0681134472107
 30
0.0
 10
201.3488881687384
 20
236.5077968639242
 30
0.0
 10
203.2723317956651
 20
240.7771149124252
 30
0.0
 10
205.5765044592531
 20
244.7479483022001
 30
0.0
 10
207.3742256544389
 20
247.1794999897067
 30
0.0
 10
208.3312672374
 20
248.3048805431
 30
0.0
 11
265.3592897857
 21
231.2351922929
 31
0.0
 11
259.6039663793
 21
225.1021794727
 31
0.0
 11
253.6989044505
 21
219.4384806304
 31
0.0
 11
247.6673763446
 21
214.2920233468
 31
0.0
 11
241.5369183233
 21
209.711818314
 31
0.0
 11
238.4442883187
 21
207.6509290074
 31
0.0
 11
235.3378708284
 21
205.7765302211
 31
0.0
 11
232.2234834559
 21
204.1340443182
 31
0.0
 11
229.1120879924
 21
202.7701653153
 31
0.0
 11
222.9679300892
 21
201.0429368604
 31
0.0
 11
217.0585411437
 21
200.7372974109
 31
0.0
 11
211.5549395468
 21
201.9289736476
 31
0.0
 11
209.0231107449
 21
203.1260968279
 31
0.0
 11
206.6826563377
 21
204.7468028769
 31
0.0
 11
204.5689412587
 21
206.7975339939
 31
0.0
 11
202.7153480975
 21
209.2718573891
 31
0.0
 11
201.152760278
 21
212.1524559663
 31
0.0
 11
199.9263561691
 21
215.4309593937
 31
0.0
 11
198.7826705603
 21
223.1537017815
 31
0.0
 11
199.0516481814
 21
227.5048608928
 31
0.0
 11
199.9578313802
 21
232.0081100137
 31
0.0
 11
201.4248540673
 21
236.4780778959
 31
0.0
 11
203.3571590566999
 21
240.7678239224
 31
0.0
 11
205.6802189174
 21
244.753312912
 31
0.0
 11
208.3312672374
 21
248.3048805431
 31
0.0
  0
SPLINE
  5
32F
330
216
100
AcDbEntity
  8
0
  6
Continuous
 62
     7
100
AcDbSpline
210
0.0
220
0.0
230
1.0
 70
  1064
 71
     3
 72
     9
 73
     5
 74
     3
 42
0.000000001
 43
0.0000000001
 44
0.0000000001
 12
-0.7443335587041654
 22
0.6678080213555337
 32
0.0
 13
-0.6460658971606183
 23
0.7632816364396864
 33
0.0
 40
0.0
 40
0.0
 40
0.0
 40
0.0
 40
0.6284201814291581
 40
2.560408399439632
 40
2.560408399439632
 40
2.560408399439632
 40
2.560408399439632
 10
203.2367595289
 20
205.8301193066
 30
0.0
 10
203.0808414522318
 20
205.9700073192467
 30
0.0
 10
202.4555500858841
 20
206.5510043855305
 30
0.0
 10
201.8711928926576
 20
207.1758737465916
 30
0.0
 10
201.4551289922
 20
207.6674241228
 30
0.0
 11
203.2367595289
 21
205.8301193066
 31
0.0
 11
202.7763674361
 21
206.2578470767
 31
0.0
 11
201.4551289922
 21
207.6674241228
 31
0.0
  0
SPLINE
  5
330
330
216
100
AcDbEntity
  8
0
  6
Continuous
 62
     7
100
AcDbSpline
210
0.0
220
0.0
230
1.0
 70
  1064
 71
     3
 72
    20
 73
    16
 74
    14
 42
0.000000001
 43
0.0000000001
 44
0.0000000001
 12
-0.5871148526057459
 22
0.809503644123813
 32
0.0
 13
0.9443359023159638
 23
0.3289828317664835
 33
0.0
 40
0.0
 40
0.0
 40
0.0
 40
0.0
 40
5.269365422689826
 40
11.24419410310701
 40
18.07945904666167
 40
21.87957188265963
 40
25.83428346823569
 40
29.84619777034394
 40
33.86580403199249
 40
37.83828430077146
 40
41.71333752810475
 40
45.42670937354174
 40
48.91232243238024
 40
52.13225013269489
 40
55.07801770262684
 40
55.07801770262684
 40
55.07801770262684
 40
55.07801770262684
 10
200.5206614806
 20
208.8602813393
 30
0.0
 10
199.4894205794439
 20
210.2821381765958
 30
0.0
 10
197.6622154166203
 20
213.598332185852
 30
0.0
 10
195.974553637188
 20
219.4315914091033
 30
0.0
 10
195.6731796961289
 20
225.0148747595959
 30
0.0
 10
196.2414495158146
 20
229.8536385195109
 30
0.0
 10
197.1324448229645
 20
233.6811614207245
 30
0.0
 10
198.4056825422945
 20
237.4737522138806
 30
0.0
 10
200.0083481269461
 20
241.1455678504276
 30
0.0
 10
201.8981205978109
 20
244.6263085858603
 30
0.0
 10
204.0364924330611
 20
247.8391641173465
 30
0.0
 10
206.3864541053131
 20
250.6951991711038
 30
0.0
 10
208.8993740387735
 20
253.1064032981892
 30
0.0
 10
211.5135367429876
 20
255.0001559135024
 30
0.0
 10
213.375927592645
 20
255.9080620584059
 30
0.0
 10
214.3031922847
 20
256.2310977107
 30
0.0
 11
200.5206614806
 21
208.8602813393
 31
0.0
 11
197.9476252505
 21
213.45872635
 31
0.0
 11
196.2644450076
 21
219.1915687541
 31
0.0
 11
195.8689174659
 21
226.0153803585
 31
0.0
 11
196.3039049343
 21
229.7905152526
 31
0.0
 11
197.1879965311
 21
233.6451391997
 31
0.0
 11
198.4595474599
 21
237.4502166763
 31
0.0
 11
200.0666635682
 21
241.134563608
 31
0.0
 11
201.965358903
 21
244.6239124744
 31
0.0
 11
204.120298333
 21
247.8445139039
 31
0.0
 11
206.4903017761
 21
250.7032223784
 31
0.0
 11
209.0172169278
 21
253.1040968466
 31
0.0
 11
211.6402536043
 21
254.9716120377
 31
0.0
 11
214.3031922847
 21
256.2310977107
 31
0.0
  0
SPLINE
  5
331
330
216
100
AcDbEntity
  8
0
  6
Continuous
 62
     7
100
AcDbSpline
210
0.0
220
0.0
230
1.0
 70
  1064
 71
     3
 72
     9
 73
     5
 74
     3
 42
0.000000001
 43
0.0000000001
 44
0.0000000001
 12
0.6660294668398203
 22
0.7459254314615268
 32
0.0
 13
0.938635675398504
 23
0.3449102330595516
 33
0.0
 40
0.0
 40
0.0
 40
0.0
 40
0.0
 40
4.570505213702046
 40
8.587990162661627
 40
8.587990162661627
 40
8.587990162661627
 40
8.587990162661627
 10
209.6491605021
 20
246.8367486008
 30
0.0
 10
210.6638575523235
 20
247.973167291976
 30
0.0
 10
212.7484314374055
 20
249.9581328500604
 30
0.0
 10
215.25197719931
 20
251.4404546401137
 30
0.0
 10
216.5089620988
 20
251.9023451968
 30
0.0
 11
209.6491605021
 21
246.8367486008
 31
0.0
 11
213.001333825
 21
249.9435881399
 31
0.0
 11
216.5089620988
 21
251.9023451968
 31
0.0
  0
SPLINE
  5
332
330
216
100
AcDbEntity
  8
0
  6
Continuous
 62
     7
100
AcDbSpline
210
0.0
220
0.0
230
1.0
 70
  1064
 71
     3
 72
    11
 73
     7
 74
     5
 42
0.000000001
 43
0.0000000001
 44
0.0000000001
 12
0.6478323610112805
 22
0.761782929729034
 32
0.0
 13
0.9488438495008022
 23
0.3157457034774961
 33
0.0
 40
0.0
 40
0.0
 40
0.0
 40
0.0
 40
3.028834146023417
 40
5.885379322544713
 40
8.546241483060935
 40
10.99728110705176
 40
10.99728110705176
 40
10.99728110705176
 40
10.99728110705176
 10
208.3312672374
 20
248.3048805431
 30
0.0
 10
208.98532616271
 20
249.0739852595737
 30
0.0
 10
210.3275604751672
 20
250.5100569656909
 30
0.0
 10
212.4916961440572
 20
252.3726024595821
 30
0.0
 10
214.7162614508063
 20
253.8384264205539
 30
0.0
 10
216.2789205566312
 20
254.5448502699906
 30
0.0
 10
217.054138514
 20
254.8028186801
 30
0.0
 11
208.3312672374
 21
248.3048805431
 31
0.0
 11
210.4060776759
 21
250.5114611395
 31
0.0
 11
212.5796193129
 21
252.364989423
 31
0.0
 11
214.8115673048
 21
253.8136424521
 31
0.0
 11
217.054138514
 21
254.8028186801
 31
0.0
  0
ENDSEC
  0
SECTION
  2
OBJECTS
  0
DICTIONARY
  5
C
330
0
100
AcDbDictionary
281
     1
  3
ACAD_CIP_PREVIOUS_PRODUCT_INFO
350
3ED
  3
ACAD_COLOR
350
361
  3
ACAD_DETAILVIEWSTYLE
350
3E7
  3
ACAD_GROUP
350
D
  3
ACAD_LAYOUT
350
1A
  3
ACAD_MATERIAL
350
337
  3
ACAD_MLEADERSTYLE
350
386
  3
ACAD_MLINESTYLE
350
17
  3
ACAD_PLOTSETTINGS
350
19
  3
ACAD_PLOTSTYLENAME
350
E
  3
ACAD_SCALELIST
350
364
  3
ACAD_SECTIONVIEWSTYLE
350
3E5
  3
ACAD_TABLESTYLE
350
362
  3
ACAD_VISUALSTYLE
350
350
  3
ACDB_RECOMPOSE_DATA
350
3FD
  3
AcDbVariableDictionary
350
38C
  3
lxx_dict
350
398
  0
DICTIONARY
  5
3D3
330
2
100
AcDbDictionary
280
     1
281
     1
  3
ACAD_LAYERSTATES
360
3D4
  0
DICTIONARY
  5
39A
330
10
100
AcDbDictionary
280
     1
281
     1
  3
ADSK_XREC_LAYER_RECONCILED
360
39B
  0
DICTIONARY
  5
39C
330
1FA
100
AcDbDictionary
280
     1
281
     1
  3
ADSK_XREC_LAYER_RECONCILED
360
39D
  0
DICTIONARY
  5
39E
330
1FB
100
AcDbDictionary
280
     1
281
     1
  3
ADSK_XREC_LAYER_RECONCILED
360
39F
  0
DICTIONARY
  5
3A0
330
1FC
100
AcDbDictionary
280
     1
281
     1
  3
ADSK_XREC_LAYER_RECONCILED
360
3A1
  0
DICTIONARY
  5
3A2
330
1FD
100
AcDbDictionary
280
     1
281
     1
  3
ADSK_XREC_LAYER_RECONCILED
360
3A3
  0
DICTIONARY
  5
3A4
330
1FE
100
AcDbDictionary
280
     1
281
     1
  3
ADSK_XREC_LAYER_RECONCILED
360
3A5
  0
DICTIONARY
  5
3A6
330
1FF
100
AcDbDictionary
280
     1
281
     1
  3
ADSK_XREC_LAYER_RECONCILED
360
3A7
  0
DICTIONARY
  5
3A8
330
200
100
AcDbDictionary
280
     1
281
     1
  3
ADSK_XREC_LAYER_RECONCILED
360
3A9
  0
DICTIONARY
  5
3AA
330
201
100
AcDbDictionary
280
     1
281
     1
  3
ADSK_XREC_LAYER_RECONCILED
360
3AB
  0
DICTIONARY
  5
3AC
330
202
100
AcDbDictionary
280
     1
281
     1
  3
ADSK_XREC_LAYER_RECONCILED
360
3AD
  0
DICTIONARY
  5
3AE
330
203
100
AcDbDictionary
280
     1
281
     1
  3
ADSK_XREC_LAYER_RECONCILED
360
3AF
  0
DICTIONARY
  5
3B0
330
204
100
AcDbDictionary
280
     1
281
     1
  3
ADSK_XREC_LAYER_RECONCILED
360
3B1
  0
DICTIONARY
  5
3B2
330
205
100
AcDbDictionary
280
     1
281
     1
  3
ADSK_XREC_LAYER_RECONCILED
360
3B3
  0
DICTIONARY
  5
3B4
330
206
100
AcDbDictionary
280
     1
281
     1
  3
ADSK_XREC_LAYER_RECONCILED
360
3B5
  0
DICTIONARY
  5
3B6
330
207
100
AcDbDictionary
280
     1
281
     1
  3
ADSK_XREC_LAYER_RECONCILED
360
3B7
  0
DICTIONARY
  5
3B8
330
208
100
AcDbDictionary
280
     1
281
     1
  3
ADSK_XREC_LAYER_RECONCILED
360
3B9
  0
DICTIONARY
  5
3BA
330
209
100
AcDbDictionary
280
     1
281
     1
  3
ADSK_XREC_LAYER_RECONCILED
360
3BB
  0
DICTIONARY
  5
3BC
330
20A
100
AcDbDictionary
280
     1
281
     1
  3
ADSK_XREC_LAYER_RECONCILED
360
3BD
  0
DICTIONARY
  5
3BE
330
20B
100
AcDbDictionary
280
     1
281
     1
  3
ADSK_XREC_LAYER_RECONCILED
360
3BF
  0
DICTIONARY
  5
3C0
330
20C
100
AcDbDictionary
280
     1
281
     1
  3
ADSK_XREC_LAYER_RECONCILED
360
3C1
  0
DICTIONARY
  5
3C2
330
20D
100
AcDbDictionary
280
     1
281
     1
  3
ADSK_XREC_LAYER_RECONCILED
360
3C3
  0
DICTIONARY
  5
3C4
330
20E
100
AcDbDictionary
280
     1
281
     1
  3
ADSK_XREC_LAYER_RECONCILED
360
3C5
  0
DICTIONARY
  5
3C6
330
20F
100
AcDbDictionary
280
     1
281
     1
  3
ADSK_XREC_LAYER_RECONCILED
360
3C7
  0
DICTIONARY
  5
3C8
330
210
100
AcDbDictionary
280
     1
281
     1
  3
ADSK_XREC_LAYER_RECONCILED
360
3C9
  0
DICTIONARY
  5
3CA
330
211
100
AcDbDictionary
280
     1
281
     1
  3
ADSK_XREC_LAYER_RECONCILED
360
3CB
  0
DICTIONARY
  5
3CC
330
212
100
AcDbDictionary
280
     1
281
     1
  3
ADSK_XREC_LAYER_RECONCILED
360
3CD
  0
DICTIONARY
  5
3CE
330
213
100
AcDbDictionary
280
     1
281
     1
  3
ADSK_XREC_LAYER_RECONCILED
360
3CF
  0
XRECORD
  5
3ED
102
{ACAD_REACTORS
330
C
102
}
330
C
100
AcDbXrecord
280
     1
300
ACD
300
2017
300
ACD_F_S
  0
DICTIONARY
  5
361
102
{ACAD_REACTORS
330
C
102
}
330
C
100
AcDbDictionary
281
     1
  0
DICTIONARY
  5
3E7
102
{ACAD_REACTORS
330
C
102
}
330
C
100
AcDbDictionary
281
     1
  3
Metric50
350
3E8
  0
DICTIONARY
  5
D
102
{ACAD_REACTORS
330
C
102
}
330
C
100
AcDbDictionary
281
     1
  0
DICTIONARY
  5
1A
102
{ACAD_REACTORS
330
C
102
}
330
C
100
AcDbDictionary
281
     1
  3
Layout1
350
334
  3
Model
350
333
  0
DICTIONARY
  5
337
102
{ACAD_REACTORS
330
C
102
}
330
C
100
AcDbDictionary
281
     1
  3
ByBlock
350
340
  3
ByLayer
350
338
  3
Global
350
348
  0
DICTIONARY
  5
386
102
{ACAD_REACTORS
330
C
102
}
330
C
100
AcDbDictionary
281
     1
  3
Standard
350
387
  0
DICTIONARY
  5
17
102
{ACAD_REACTORS
330
C
102
}
330
C
100
AcDbDictionary
281
     1
  3
Standard
350
18
  0
DICTIONARY
  5
19
102
{ACAD_REACTORS
330
C
102
}
330
C
100
AcDbDictionary
281
     1
  0
ACDBDICTIONARYWDFLT
  5
E
102
{ACAD_REACTORS
330
C
102
}
330
C
100
AcDbDictionary
281
     1
  3
Normal
350
F
100
AcDbDictionaryWithDefault
340
F
  0
DICTIONARY
  5
364
102
{ACAD_REACTORS
330
C
102
}
330
C
100
AcDbDictionary
281
     1
  3
A0
350
365
  3
A1
350
366
  3
A2
350
367
  3
A3
350
368
  3
A4
350
369
  3
A5
350
36A
  3
A6
350
36B
  3
A7
350
36C
  3
A8
350
36D
  3
A9
350
36E
  3
B0
350
36F
  3
B1
350
370
  3
B2
350
371
  3
B3
350
372
  3
B4
350
373
  3
B5
350
374
  3
B6
350
375
  3
B7
350
376
  3
B8
350
377
  3
B9
350
378
  3
C0
350
379
  3
C1
350
37A
  3
C2
350
37B
  3
C3
350
37C
  3
C4
350
37D
  3
C5
350
37E
  3
C6
350
37F
  3
C7
350
380
  3
C8
350
381
  3
C9
350
382
  3
D0
350
383
  3
D1
350
384
  3
D2
350
385
  0
DICTIONARY
  5
3E5
102
{ACAD_REACTORS
330
C
102
}
330
C
100
AcDbDictionary
281
     1
  3
Metric50
350
3E6
  0
DICTIONARY
  5
362
102
{ACAD_REACTORS
330
C
102
}
330
C
100
AcDbDictionary
281
     1
  3
Standard
350
363
  0
DICTIONARY
  5
350
102
{ACAD_REACTORS
330
C
102
}
330
C
100
AcDbDictionary
281
     1
  3
2dWireframe
350
356
  3
3D Hidden
350
358
  3
3dWireframe
350
357
  3
Basic
350
355
  3
Brighten
350
35C
  3
ColorChange
350
360
  3
Conceptual
350
359
  3
Dim
350
35B
  3
EdgeColorOff
350
393
  3
Facepattern
350
35F
  3
Flat
350
351
  3
FlatWithEdges
350
352
  3
Gouraud
350
353
  3
GouraudWithEdges
350
354
  3
Hidden
350
3DF
  3
JitterOff
350
391
  3
Linepattern
350
35E
  3
OverhangOff
350
392
  3
Realistic
350
35A
  3
Shaded
350
3E4
  3
Shaded with edges
350
3E3
  3
Shades of Gray
350
3E0
  3
Sketchy
350
3E1
  3
Thicken
350
35D
  3
Wireframe
350
3DE
  3
X-Ray
350
3E2
  0
XRECORD
  5
3FD
102
{ACAD_REACTORS
330
C
102
}
330
C
100
AcDbXrecord
280
     1
 90
        1
330
363
330
3E6
330
3E8
  0
DICTIONARY
  5
38C
102
{ACAD_REACTORS
330
C
102
}
330
C
100
AcDbDictionary
281
     1
  3
CANNOSCALE
350
38F
  3
CMLEADERSTYLE
350
38E
  3
CTABLESTYLE
350
38D
  3
CVIEWDETAILSTYLE
350
3F6
  3
CVIEWSECTIONSTYLE
350
3F7
  3
LAYEREVAL
350
3DB
  3
LAYERNOTIFY
350
3DC
  0
DICTIONARY
  5
398
102
{ACAD_REACTORS
330
C
102
}
330
C
100
AcDbDictionary
281
     1
  3
lxx_dimth
350
399
  0
DICTIONARY
  5
3D4
102
{ACAD_REACTORS
330
3D3
102
}
330
3D3
100
AcDbDictionary
281
     1
  0
XRECORD
  5
39B
102
{ACAD_REACTORS
330
39A
102
}
330
39A
100
AcDbXrecord
280
     1
290
     1
  0
XRECORD
  5
39D
102
{ACAD_REACTORS
330
39C
102
}
330
39C
100
AcDbXrecord
280
     1
290
     1
  0
XRECORD
  5
39F
102
{ACAD_REACTORS
330
39E
102
}
330
39E
100
AcDbXrecord
280
     1
290
     1
  0
XRECORD
  5
3A1
102
{ACAD_REACTORS
330
3A0
102
}
330
3A0
100
AcDbXrecord
280
     1
290
     1
  0
XRECORD
  5
3A3
102
{ACAD_REACTORS
330
3A2
102
}
330
3A2
100
AcDbXrecord
280
     1
290
     1
  0
XRECORD
  5
3A5
102
{ACAD_REACTORS
330
3A4
102
}
330
3A4
100
AcDbXrecord
280
     1
290
     1
  0
XRECORD
  5
3A7
102
{ACAD_REACTORS
330
3A6
102
}
330
3A6
100
AcDbXrecord
280
     1
290
     1
  0
XRECORD
  5
3A9
102
{ACAD_REACTORS
330
3A8
102
}
330
3A8
100
AcDbXrecord
280
     1
290
     1
  0
XRECORD
  5
3AB
102
{ACAD_REACTORS
330
3AA
102
}
330
3AA
100
AcDbXrecord
280
     1
290
     1
  0
XRECORD
  5
3AD
102
{ACAD_REACTORS
330
3AC
102
}
330
3AC
100
AcDbXrecord
280
     1
290
     1
  0
XRECORD
  5
3AF
102
{ACAD_REACTORS
330
3AE
102
}
330
3AE
100
AcDbXrecord
280
     1
290
     1
  0
XRECORD
  5
3B1
102
{ACAD_REACTORS
330
3B0
102
}
330
3B0
100
AcDbXrecord
280
     1
290
     1
  0
XRECORD
  5
3B3
102
{ACAD_REACTORS
330
3B2
102
}
330
3B2
100
AcDbXrecord
280
     1
290
     1
  0
XRECORD
  5
3B5
102
{ACAD_REACTORS
330
3B4
102
}
330
3B4
100
AcDbXrecord
280
     1
290
     1
  0
XRECORD
  5
3B7
102
{ACAD_REACTORS
330
3B6
102
}
330
3B6
100
AcDbXrecord
280
     1
290
     1
  0
XRECORD
  5
3B9
102
{ACAD_REACTORS
330
3B8
102
}
330
3B8
100
AcDbXrecord
280
     1
290
     1
  0
XRECORD
  5
3BB
102
{ACAD_REACTORS
330
3BA
102
}
330
3BA
100
AcDbXrecord
280
     1
290
     1
  0
XRECORD
  5
3BD
102
{ACAD_REACTORS
330
3BC
102
}
330
3BC
100
AcDbXrecord
280
     1
290
     1
  0
XRECORD
  5
3BF
102
{ACAD_REACTORS
330
3BE
102
}
330
3BE
100
AcDbXrecord
280
     1
290
     1
  0
XRECORD
  5
3C1
102
{ACAD_REACTORS
330
3C0
102
}
330
3C0
100
AcDbXrecord
280
     1
290
     1
  0
XRECORD
  5
3C3
102
{ACAD_REACTORS
330
3C2
102
}
330
3C2
100
AcDbXrecord
280
     1
290
     1
  0
XRECORD
  5
3C5
102
{ACAD_REACTORS
330
3C4
102
}
330
3C4
100
AcDbXrecord
280
     1
290
     1
  0
XRECORD
  5
3C7
102
{ACAD_REACTORS
330
3C6
102
}
330
3C6
100
AcDbXrecord
280
     1
290
     1
  0
XRECORD
  5
3C9
102
{ACAD_REACTORS
330
3C8
102
}
330
3C8
100
AcDbXrecord
280
     1
290
     1
  0
XRECORD
  5
3CB
102
{ACAD_REACTORS
330
3CA
102
}
330
3CA
100
AcDbXrecord
280
     1
290
     1
  0
XRECORD
  5
3CD
102
{ACAD_REACTORS
330
3CC
102
}
330
3CC
100
AcDbXrecord
280
     1
290
     1
  0
XRECORD
  5
3CF
102
{ACAD_REACTORS
330
3CE
102
}
330
3CE
100
AcDbXrecord
280
     1
290
     1
  0
ACDBDETAILVIEWSTYLE
  5
3E8
102
{ACAD_XDICTIONARY
360
3FB
102
}
102
{ACAD_REACTORS
330
3E7
102
}
330
3E7
100
AcDbModelDocViewStyle
 70
     0
  3
Metric50
290
     0
100
AcDbDetailViewStyle
 70
     0
 71
     0
 90
        3
 71
     1
340
11
 62
   256
 40
5.0
340
0
 62
   256
 40
5.0
300

 40
0.0
280
     1
 71
     2
340
16
 90
       25
 62
   256
 71
     3
340
11
 62
   256
 40
5.0
 90
        0
 40
15.0
 90
        1
300
%<\AcVar ViewDetailId>% (%<\AcVar ViewScale \f "%sn">%)
 71
     4
340
16
 90
       25
 62
   256
340
16
 90
       25
 62
   256
280
     0
  0
LAYOUT
  5
334
102
{ACAD_REACTORS
330
1A
102
}
330
1A
100
AcDbPlotSettings
  1

  2
none_device
  4
ANSI_C_(22.00_x_17.00_Inches)
  6

 40
0.0
 41
0.0
 42
0.0
 43
0.0
 44
558.8
 45
431.8
 46
0.0
 47
0.0
 48
0.0
 49
0.0
140
0.0
141
0.0
142
1.0
143
1.0
 70
     0
 72
     1
 73
     0
 74
     0
  7

 75
     0
147
1.0
 76
     0
 77
     2
 78
   300
148
0.0
149
0.0
100
AcDbLayout
  1
Layout1
 70
     1
 71
     1
 10
0.0
 20
0.0
 11
12.0
 21
9.0
 12
0.0
 22
0.0
 32
0.0
 14
1.000000000000000E+20
 24
1.000000000000000E+20
 34
1.000000000000000E+20
 15
-1.000000000000000E+20
 25
-1.000000000000000E+20
 35
-1.000000000000000E+20
146
0.0
 13
0.0
 23
0.0
 33
0.0
 16
1.0
 26
0.0
 36
0.0
 17
0.0
 27
1.0
 37
0.0
 76
     0
330
217
  0
LAYOUT
  5
333
102
{ACAD_XDICTIONARY
360
3D9
102
}
102
{ACAD_REACTORS
330
1A
102
}
330
1A
100
AcDbPlotSettings
  1

  2
none_device
  4
ANSI_C_(22.00_x_17.00_Inches)
  6

 40
0.0
 41
0.0
 42
0.0
 43
0.0
 44
558.8
 45
431.8
 46
0.0
 47
0.0
 48
0.0
 49
0.0
140
0.0
141
0.0
142
1.0
143
1.0
 70
  1024
 72
     1
 73
     0
 74
     0
  7

 75
     0
147
1.0
 76
     0
 77
     2
 78
   300
148
0.0
149
0.0
100
AcDbLayout
  1
Model
 70
     0
 71
     0
 10
0.0
 20
0.0
 11
558.8
 21
431.8
 12
0.0
 22
0.0
 32
0.0
 14
0.0
 24
0.0
 34
0.0
 15
0.0
 25
0.0
 35
0.0
146
0.0
 13
0.0
 23
0.0
 33
0.0
 16
1.0
 26
0.0
 36
0.0
 17
0.0
 27
1.0
 37
0.0
 76
     0
330
216
331
1F4
  0
MATERIAL
  5
340
102
{ACAD_XDICTIONARY
360
341
102
}
102
{ACAD_REACTORS
330
337
102
}
330
337
100
AcDbMaterial
  1
ByBlock
 72
     0
 43
0.0008202099737533
 43
0.0
 43
0.0
 43
0.0
 43
0.0
 43
0.0008202099737533
 43
0.0
 43
0.0
 43
0.0
 43
0.0
 43
1.0
 43
0.0
 43
0.0
 43
0.0
 43
0.0
 43
1.0
 77
     0
 47
0.0008202099737533
 47
0.0
 47
0.0
 47
0.0
 47
0.0
 47
0.0008202099737533
 47
0.0
 47
0.0
 47
0.0
 47
0.0
 47
1.0
 47
0.0
 47
0.0
 47
0.0
 47
0.0
 47
1.0
171
     0
 49
0.0008202099737533
 49
0.0
 49
0.0
 49
0.0
 49
0.0
 49
0.0008202099737533
 49
0.0
 49
0.0
 49
0.0
 49
0.0
 49
1.0
 49
0.0
 49
0.0
 49
0.0
 49
0.0
 49
1.0
175
     0
142
0.0008202099737533
142
0.0
142
0.0
142
0.0
142
0.0
142
0.0008202099737533
142
0.0
142
0.0
142
0.0
142
0.0
142
1.0
142
0.0
142
0.0
142
0.0
142
0.0
142
1.0
179
     0
144
0.0008202099737533
144
0.0
144
0.0
144
0.0
144
0.0
144
0.0008202099737533
144
0.0
144
0.0
144
0.0
144
0.0
144
1.0
144
0.0
144
0.0
144
0.0
144
0.0
144
1.0
147
0.0008202099737533
147
0.0
147
0.0
147
0.0
147
0.0
147
0.0008202099737533
147
0.0
147
0.0
147
0.0
147
0.0
147
1.0
147
0.0
147
0.0
147
0.0
147
0.0
147
1.0
  0
MATERIAL
  5
338
102
{ACAD_XDICTIONARY
360
339
102
}
102
{ACAD_REACTORS
330
337
102
}
330
337
100
AcDbMaterial
  1
ByLayer
 72
     0
 43
0.0008202099737533
 43
0.0
 43
0.0
 43
0.0
 43
0.0
 43
0.0008202099737533
 43
0.0
 43
0.0
 43
0.0
 43
0.0
 43
1.0
 43
0.0
 43
0.0
 43
0.0
 43
0.0
 43
1.0
 77
     0
 47
0.0008202099737533
 47
0.0
 47
0.0
 47
0.0
 47
0.0
 47
0.0008202099737533
 47
0.0
 47
0.0
 47
0.0
 47
0.0
 47
1.0
 47
0.0
 47
0.0
 47
0.0
 47
0.0
 47
1.0
171
     0
 49
0.0008202099737533
 49
0.0
 49
0.0
 49
0.0
 49
0.0
 49
0.0008202099737533
 49
0.0
 49
0.0
 49
0.0
 49
0.0
 49
1.0
 49
0.0
 49
0.0
 49
0.0
 49
0.0
 49
1.0
175
     0
142
0.0008202099737533
142
0.0
142
0.0
142
0.0
142
0.0
142
0.0008202099737533
142
0.0
142
0.0
142
0.0
142
0.0
142
1.0
142
0.0
142
0.0
142
0.0
142
0.0
142
1.0
179
     0
144
0.0008202099737533
144
0.0
144
0.0
144
0.0
144
0.0
144
0.0008202099737533
144
0.0
144
0.0
144
0.0
144
0.0
144
1.0
144
0.0
144
0.0
144
0.0
144
0.0
144
1.0
147
0.0008202099737533
147
0.0
147
0.0
147
0.0
147
0.0
147
0.0008202099737533
147
0.0
147
0.0
147
0.0
147
0.0
147
1.0
147
0.0
147
0.0
147
0.0
147
0.0
147
1.0
  0
MATERIAL
  5
348
102
{ACAD_XDICTIONARY
360
349
102
}
102
{ACAD_REACTORS
330
337
102
}
330
337
100
AcDbMaterial
  1
Global
 72
     0
 43
0.0008202099737533
 43
0.0
 43
0.0
 43
0.0
 43
0.0
 43
0.0008202099737533
 43
0.0
 43
0.0
 43
0.0
 43
0.0
 43
1.0
 43
0.0
 43
0.0
 43
0.0
 43
0.0
 43
1.0
 77
     0
 47
0.0008202099737533
 47
0.0
 47
0.0
 47
0.0
 47
0.0
 47
0.0008202099737533
 47
0.0
 47
0.0
 47
0.0
 47
0.0
 47
1.0
 47
0.0
 47
0.0
 47
0.0
 47
0.0
 47
1.0
171
     0
 49
0.0008202099737533
 49
0.0
 49
0.0
 49
0.0
 49
0.0
 49
0.0008202099737533
 49
0.0
 49
0.0
 49
0.0
 49
0.0
 49
1.0
 49
0.0
 49
0.0
 49
0.0
 49
0.0
 49
1.0
175
     0
142
0.0008202099737533
142
0.0
142
0.0
142
0.0
142
0.0
142
0.0008202099737533
142
0.0
142
0.0
142
0.0
142
0.0
142
1.0
142
0.0
142
0.0
142
0.0
142
0.0
142
1.0
179
     0
144
0.0008202099737533
144
0.0
144
0.0
144
0.0
144
0.0
144
0.0008202099737533
144
0.0
144
0.0
144
0.0
144
0.0
144
1.0
144
0.0
144
0.0
144
0.0
144
0.0
144
1.0
147
0.0008202099737533
147
0.0
147
0.0
147
0.0
147
0.0
147
0.0008202099737533
147
0.0
147
0.0
147
0.0
147
0.0
147
1.0
147
0.0
147
0.0
147
0.0
147
0.0
147
1.0
  0
MLEADERSTYLE
  5
387
102
{ACAD_REACTORS
330
386
102
}
330
386
100
AcDbMLeaderStyle
179
     2
170
     2
171
     1
172
     0
 90
        2
 40
0.0
 41
0.0
173
     1
 91
-1056964608
340
14
 92
       -2
290
     1
 42
2.0
291
     1
 43
0.36
  3
Standard
 44
4.0
300

342
11
174
     1
178
     6
175
     1
176
     0
 93
-1056964608
 45
4.0
292
     0
297
     0
 46
4.0
 94
-1056964608
 47
1.0
 49
1.0
140
1.0
293
     1
141
0.0
294
     1
177
     0
142
1.0
295
     0
296
     0
143
0.125
271
     0
272
     9
273
     9
298
     0
  0
MLINESTYLE
  5
18
102
{ACAD_REACTORS
330
17
102
}
330
17
100
AcDbMlineStyle
  2
STANDARD
 70
     0
  3

 62
   256
 51
90.0
 52
90.0
 71
     2
 49
0.5
 62
   256
  6
BYLAYER
 49
-0.5
 62
   256
  6
BYLAYER
  0
ACDBPLACEHOLDER
  5
F
102
{ACAD_REACTORS
330
E
102
}
330
E
  0
SCALE
  5
365
102
{ACAD_REACTORS
330
364
102
}
330
364
100
AcDbScale
 70
     0
300
1:1
140
1.0
141
1.0
290
     1
  0
SCALE
  5
366
102
{ACAD_REACTORS
330
364
102
}
330
364
100
AcDbScale
 70
     0
300
1:2
140
1.0
141
2.0
290
     0
  0
SCALE
  5
367
102
{ACAD_REACTORS
330
364
102
}
330
364
100
AcDbScale
 70
     0
300
1:4
140
1.0
141
4.0
290
     0
  0
SCALE
  5
368
102
{ACAD_REACTORS
330
364
102
}
330
364
100
AcDbScale
 70
     0
300
1:5
140
1.0
141
5.0
290
     0
  0
SCALE
  5
369
102
{ACAD_REACTORS
330
364
102
}
330
364
100
AcDbScale
 70
     0
300
1:8
140
1.0
141
8.0
290
     0
  0
SCALE
  5
36A
102
{ACAD_REACTORS
330
364
102
}
330
364
100
AcDbScale
 70
     0
300
1:10
140
1.0
141
10.0
290
     0
  0
SCALE
  5
36B
102
{ACAD_REACTORS
330
364
102
}
330
364
100
AcDbScale
 70
     0
300
1:16
140
1.0
141
16.0
290
     0
  0
SCALE
  5
36C
102
{ACAD_REACTORS
330
364
102
}
330
364
100
AcDbScale
 70
     0
300
1:20
140
1.0
141
20.0
290
     0
  0
SCALE
  5
36D
102
{ACAD_REACTORS
330
364
102
}
330
364
100
AcDbScale
 70
     0
300
1:30
140
1.0
141
30.0
290
     0
  0
SCALE
  5
36E
102
{ACAD_REACTORS
330
364
102
}
330
364
100
AcDbScale
 70
     0
300
1:40
140
1.0
141
40.0
290
     0
  0
SCALE
  5
36F
102
{ACAD_REACTORS
330
364
102
}
330
364
100
AcDbScale
 70
     0
300
1:50
140
1.0
141
50.0
290
     0
  0
SCALE
  5
370
102
{ACAD_REACTORS
330
364
102
}
330
364
100
AcDbScale
 70
     0
300
1:100
140
1.0
141
100.0
290
     0
  0
SCALE
  5
371
102
{ACAD_REACTORS
330
364
102
}
330
364
100
AcDbScale
 70
     0
300
2:1
140
2.0
141
1.0
290
     0
  0
SCALE
  5
372
102
{ACAD_REACTORS
330
364
102
}
330
364
100
AcDbScale
 70
     0
300
4:1
140
4.0
141
1.0
290
     0
  0
SCALE
  5
373
102
{ACAD_REACTORS
330
364
102
}
330
364
100
AcDbScale
 70
     0
300
8:1
140
8.0
141
1.0
290
     0
  0
SCALE
  5
374
102
{ACAD_REACTORS
330
364
102
}
330
364
100
AcDbScale
 70
     0
300
10:1
140
10.0
141
1.0
290
     0
  0
SCALE
  5
375
102
{ACAD_REACTORS
330
364
102
}
330
364
100
AcDbScale
 70
     0
300
100:1
140
100.0
141
1.0
290
     0
  0
SCALE
  5
376
102
{ACAD_REACTORS
330
364
102
}
330
364
100
AcDbScale
 70
     0
300
1/128" = 1'-0"
140
0.0078125
141
12.0
290
     0
  0
SCALE
  5
377
102
{ACAD_REACTORS
330
364
102
}
330
364
100
AcDbScale
 70
     0
300
1/64" = 1'-0"
140
0.015625
141
12.0
290
     0
  0
SCALE
  5
378
102
{ACAD_REACTORS
330
364
102
}
330
364
100
AcDbScale
 70
     0
300
1/32" = 1'-0"
140
0.03125
141
12.0
290
     0
  0
SCALE
  5
379
102
{ACAD_REACTORS
330
364
102
}
330
364
100
AcDbScale
 70
     0
300
1/16" = 1'-0"
140
0.0625
141
12.0
290
     0
  0
SCALE
  5
37A
102
{ACAD_REACTORS
330
364
102
}
330
364
100
AcDbScale
 70
     0
300
3/32" = 1'-0"
140
0.09375
141
12.0
290
     0
  0
SCALE
  5
37B
102
{ACAD_REACTORS
330
364
102
}
330
364
100
AcDbScale
 70
     0
300
1/8" = 1'-0"
140
0.125
141
12.0
290
     0
  0
SCALE
  5
37C
102
{ACAD_REACTORS
330
364
102
}
330
364
100
AcDbScale
 70
     0
300
3/16" = 1'-0"
140
0.1875
141
12.0
290
     0
  0
SCALE
  5
37D
102
{ACAD_REACTORS
330
364
102
}
330
364
100
AcDbScale
 70
     0
300
1/4" = 1'-0"
140
0.25
141
12.0
290
     0
  0
SCALE
  5
37E
102
{ACAD_REACTORS
330
364
102
}
330
364
100
AcDbScale
 70
     0
300
3/8" = 1'-0"
140
0.375
141
12.0
290
     0
  0
SCALE
  5
37F
102
{ACAD_REACTORS
330
364
102
}
330
364
100
AcDbScale
 70
     0
300
1/2" = 1'-0"
140
0.5
141
12.0
290
     0
  0
SCALE
  5
380
102
{ACAD_REACTORS
330
364
102
}
330
364
100
AcDbScale
 70
     0
300
3/4" = 1'-0"
140
0.75
141
12.0
290
     0
  0
SCALE
  5
381
102
{ACAD_REACTORS
330
364
102
}
330
364
100
AcDbScale
 70
     0
300
1" = 1'-0"
140
1.0
141
12.0
290
     0
  0
SCALE
  5
382
102
{ACAD_REACTORS
330
364
102
}
330
364
100
AcDbScale
 70
     0
300
1-1/2" = 1'-0"
140
1.5
141
12.0
290
     0
  0
SCALE
  5
383
102
{ACAD_REACTORS
330
364
102
}
330
364
100
AcDbScale
 70
     0
300
3" = 1'-0"
140
3.0
141
12.0
290
     0
  0
SCALE
  5
384
102
{ACAD_REACTORS
330
364
102
}
330
364
100
AcDbScale
 70
     0
300
6" = 1'-0"
140
6.0
141
12.0
290
     0
  0
SCALE
  5
385
102
{ACAD_REACTORS
330
364
102
}
330
364
100
AcDbScale
 70
     0
300
1'-0" = 1'-0"
140
12.0
141
12.0
290
     0
  0
ACDBSECTIONVIEWSTYLE
  5
3E6
102
{ACAD_XDICTIONARY
360
3F9
102
}
102
{ACAD_REACTORS
330
3E5
102
}
330
3E5
100
AcDbModelDocViewStyle
 70
     0
  3
Metric50
290
     0
100
AcDbSectionViewStyle
 70
     0
 71
     0
 90
      102
 71
     1
340
11
 62
   256
 40
5.0
340
0
340
0
 62
   256
 40
5.0
300
I, O, Q, S, X, Z
 40
10.0
 90
        0
 40
2.5
 90
        0
 71
     2
340
16
 90
       25
 62
   256
340
16
 90
       50
 62
   256
 40
5.0
 40
2.5
 40
5.0
 71
     3
340
11
 62
   256
 40
5.0
 90
        0
 40
15.0
 90
        1
300
%<\AcVar ViewSectionStartId>%-%<\AcVar ViewSectionEndId>% (%<\AcVar ViewScale \f "%sn">%)
 71
     4
 62
   256
 62
   257
300
ANSI31
 40
1.0
 90
        0
290
     0
290
     0
 90
        6
 40
0.0
 40
1.570796326794896
 40
0.2617993877991494
 40
1.308996938995747
 40
-0.2617993877991494
 40
1.832595714594046
  0
TABLESTYLE
  5
363
102
{ACAD_XDICTIONARY
360
389
102
}
102
{ACAD_REACTORS
330
362
102
}
330
362
100
AcDbTableStyle
280
     0
  3
Standard
 70
     0
 71
     0
 40
1.5
 41
1.5
280
     0
281
     0
  7
STANDARD
140
4.5
170
     2
 62
     0
 63
     7
283
     0
 90
      512
 91
        0
  1

274
    -2
284
     1
 64
     0
275
    -2
285
     1
 65
     0
276
    -2
286
     1
 66
     0
277
    -2
287
     1
 67
     0
278
    -2
288
     1
 68
     0
279
    -2
289
     1
 69
     0
  7
STANDARD
140
6.0
170
     5
 62
     0
 63
     7
283
     0
 90
      512
 91
        0
  1

274
    -2
284
     1
 64
     0
275
    -2
285
     1
 65
     0
276
    -2
286
     1
 66
     0
277
    -2
287
     1
 67
     0
278
    -2
288
     1
 68
     0
279
    -2
289
     1
 69
     0
  7
STANDARD
140
4.5
170
     5
 62
     0
 63
     7
283
     0
 90
      512
 91
        0
  1

274
    -2
284
     1
 64
     0
275
    -2
285
     1
 65
     0
276
    -2
286
     1
 66
     0
277
    -2
287
     1
 67
     0
278
    -2
288
     1
 68
     0
279
    -2
289
     1
 69
     0
  0
VISUALSTYLE
  5
356
102
{ACAD_REACTORS
330
350
102
}
330
350
100
AcDbVisualStyle
  2
2dWireframe
 70
     4
177
     3
291
     0
 70
    58
 90
        0
176
     1
 90
        2
176
     1
 90
        0
176
     1
 90
        0
176
     1
 40
0.6
176
     1
 40
30.0
176
     1
 62
     7
420
 16777215
176
     1
 90
        1
176
     1
 90
        4
176
     1
 62
     7
176
     1
 62
   257
176
     1
 90
        1
176
     1
 90
        1
176
     1
 40
1.0
176
     1
 90
        0
176
     1
 62
   257
176
     1
 40
1.0
176
     1
 90
        1
176
     1
 90
        6
176
     1
 90
        2
176
     1
 62
     7
176
     1
 90
        5
176
     1
 90
        0
176
     1
 90
        0
176
     1
290
     0
176
     1
 90
        1
176
     1
 40
0.0
176
     1
 90
        0
176
     1
290
     1
176
     1
290
     1
176
     1
290
     0
176
     1
290
     0
176
     1
290
     0
176
     1
290
     0
176
     1
290
     0
176
     1
290
     0
176
     1
290
     0
176
     1
 90
       50
176
     1
 40
0.0
176
     1
 40
1.0
176
     1
 90
        0
176
     1
 62
    18
420
        0
176
     1
 90
       50
176
     1
 90
        3
176
     1
 62
     5
420
      255
176
     1
290
     0
176
     1
 90
       50
176
     1
 90
       50
176
     1
 90
       50
176
     1
290
     0
176
     1
 90
       50
176
     1
 62
   256
176
     0
 40
1.0
176
     0
 90
        2
176
     1
  1
strokes_ogs.tif
176
     1
290
     0
176
     1
 40
1.0
176
     1
 40
1.0
176
     1
  0
VISUALSTYLE
  5
358
102
{ACAD_REACTORS
330
350
102
}
330
350
100
AcDbVisualStyle
  2
3D Hidden
 70
     6
177
     3
291
     0
 70
    58
 90
        1
176
     1
 90
        2
176
     1
 90
        2
176
     1
 90
        0
176
     1
 40
0.6
176
     1
 40
30.0
176
     1
 62
     7
420
 16777215
176
     1
 90
        2
176
     1
 90
        2
176
     1
 62
     7
176
     1
 62
   257
176
     1
 90
        2
176
     1
 90
        1
176
     1
 40
40.0
176
     1
 90
        0
176
     1
 62
   257
176
     1
 40
1.0
176
     1
 90
        1
176
     1
 90
        6
176
     1
 90
        2
176
     1
 62
     7
176
     1
 90
        3
176
     1
 90
        0
176
     1
 90
        0
176
     1
290
     0
176
     1
 90
        1
176
     1
 40
0.0
176
     1
 90
        0
176
     1
290
     0
176
     1
290
     1
176
     1
290
     1
176
     1
290
     0
176
     1
290
     0
176
     1
290
     0
176
     1
290
     0
176
     1
290
     0
176
     1
290
     0
176
     1
 90
       50
176
     1
 40
0.0
176
     1
 40
1.0
176
     1
 90
        0
176
     1
 62
    18
420
        0
176
     1
 90
       50
176
     1
 90
        3
176
     1
 62
     5
420
      255
176
     1
290
     0
176
     1
 90
       50
176
     1
 90
       50
176
     1
 90
       50
176
     1
290
     0
176
     1
 90
       50
176
     1
 62
   256
176
     0
 40
1.0
176
     0
 90
        2
176
     1
  1
strokes_ogs.tif
176
     1
290
     0
176
     1
 40
1.0
176
     1
 40
1.0
176
     1
  0
VISUALSTYLE
  5
357
102
{ACAD_REACTORS
330
350
102
}
330
350
100
AcDbVisualStyle
  2
3dWireframe
 70
     5
177
     3
291
     0
 70
    58
 90
        0
176
     1
 90
        2
176
     1
 90
        0
176
     1
 90
        0
176
     1
 40
0.6
176
     1
 40
30.0
176
     1
 62
     7
420
 16777215
176
     1
 90
        1
176
     1
 90
        4
176
     1
 62
     7
176
     1
 62
   257
176
     1
 90
        1
176
     1
 90
        1
176
     1
 40
1.0
176
     1
 90
        0
176
     1
 62
   257
176
     1
 40
1.0
176
     1
 90
        1
176
     1
 90
        6
176
     1
 90
        2
176
     1
 62
     7
176
     1
 90
        5
176
     1
 90
        0
176
     1
 90
        0
176
     1
290
     0
176
     1
 90
        1
176
     1
 40
0.0
176
     1
 90
        0
176
     1
290
     0
176
     1
290
     1
176
     1
290
     1
176
     1
290
     0
176
     1
290
     0
176
     1
290
     0
176
     1
290
     0
176
     1
290
     0
176
     1
290
     0
176
     1
 90
       50
176
     1
 40
0.0
176
     1
 40
1.0
176
     1
 90
        0
176
     1
 62
    18
420
        0
176
     1
 90
       50
176
     1
 90
        3
176
     1
 62
     5
420
      255
176
     1
290
     0
176
     1
 90
       50
176
     1
 90
       50
176
     1
 90
       50
176
     1
290
     0
176
     1
 90
       50
176
     1
 62
   256
176
     0
 40
1.0
176
     0
 90
        2
176
     1
  1
strokes_ogs.tif
176
     1
290
     0
176
     1
 40
1.0
176
     1
 40
1.0
176
     1
  0
VISUALSTYLE
  5
355
102
{ACAD_REACTORS
330
350
102
}
330
350
100
AcDbVisualStyle
  2
Basic
 70
     7
177
     3
291
     1
 70
    58
 90
        1
176
     1
 90
        0
176
     1
 90
        1
176
     1
 90
        0
176
     1
 40
0.6
176
     1
 40
30.0
176
     1
 62
     7
420
 16777215
176
     1
 90
        0
176
     1
 90
        4
176
     1
 62
     7
176
     1
 62
   257
176
     1
 90
        1
176
     1
 90
        1
176
     1
 40
1.0
176
     1
 90
        8
176
     1
 62
     7
176
     1
 40
1.0
176
     1
 90
        1
176
     1
 90
        6
176
     1
 90
        2
176
     1
 62
     7
176
     1
 90
        5
176
     1
 90
        0
176
     1
 90
        0
176
     1
290
     0
176
     1
 90
        1
176
     1
 40
0.0
176
     1
 90
        0
176
     1
290
     0
176
     1
290
     1
176
     1
290
     1
176
     1
290
     0
176
     1
290
     0
176
     1
290
     0
176
     1
290
     0
176
     1
290
     0
176
     1
290
     0
176
     1
 90
       50
176
     1
 40
0.0
176
     1
 40
1.0
176
     1
 90
        0
176
     1
 62
    18
420
        0
176
     1
 90
       50
176
     1
 90
        3
176
     1
 62
     5
420
      255
176
     1
290
     0
176
     1
 90
       50
176
     1
 90
       50
176
     1
 90
       50
176
     1
290
     0
176
     1
 90
       50
176
     1
 62
   256
176
     0
 40
1.0
176
     0
 90
        2
176
     1
  1
strokes_ogs.tif
176
     1
290
     0
176
     1
 40
1.0
176
     1
 40
1.0
176
     1
  0
VISUALSTYLE
  5
35C
102
{ACAD_REACTORS
330
350
102
}
330
350
100
AcDbVisualStyle
  2
Brighten
 70
    12
177
     3
291
     1
 70
    58
 90
        2
176
     1
 90
        2
176
     1
 90
        0
176
     1
 90
        0
176
     1
 40
0.6
176
     1
 40
30.0
176
     1
 62
     7
420
 16777215
176
     1
 90
        1
176
     1
 90
        4
176
     1
 62
     7
176
     1
 62
   257
176
     1
 90
        1
176
     1
 90
        1
176
     1
 40
1.0
176
     1
 90
        8
176
     1
 62
     7
176
     1
 40
1.0
176
     1
 90
        1
176
     1
 90
        6
176
     1
 90
        2
176
     1
 62
     7
176
     1
 90
        5
176
     1
 90
        0
176
     1
 90
        0
176
     1
290
     0
176
     1
 90
        1
176
     1
 40
50.0
176
     1
 90
        0
176
     1
290
     0
176
     1
290
     1
176
     1
290
     1
176
     1
290
     0
176
     1
290
     0
176
     1
290
     0
176
     1
290
     0
176
     1
290
     0
176
     1
290
     0
176
     1
 90
       50
176
     1
 40
0.0
176
     1
 40
1.0
176
     1
 90
        0
176
     1
 62
    18
420
        0
176
     1
 90
       50
176
     1
 90
        3
176
     1
 62
     5
420
      255
176
     1
290
     0
176
     1
 90
       50
176
     1
 90
       50
176
     1
 90
       50
176
     1
290
     0
176
     1
 90
       50
176
     1
 62
   256
176
     0
 40
1.0
176
     0
 90
        2
176
     1
  1
strokes_ogs.tif
176
     1
290
     0
176
     1
 40
1.0
176
     1
 40
1.0
176
     1
  0
VISUALSTYLE
  5
360
102
{ACAD_REACTORS
330
350
102
}
330
350
100
AcDbVisualStyle
  2
ColorChange
 70
    16
177
     3
291
     1
 70
    58
 90
        2
176
     1
 90
        2
176
     1
 90
        3
176
     1
 90
        0
176
     1
 40
0.6
176
     1
 40
30.0
176
     1
 62
     8
420
  8421504
176
     1
 90
        1
176
     1
 90
        4
176
     1
 62
     7
176
     1
 62
   257
176
     1
 90
        1
176
     1
 90
        1
176
     1
 40
1.0
176
     1
 90
        8
176
     1
 62
     8
420
  8421504
176
     1
 40
1.0
176
     1
 90
        1
176
     1
 90
        6
176
     1
 90
        2
176
     1
 62
     7
176
     1
 90
        5
176
     1
 90
        0
176
     1
 90
        0
176
     1
290
     0
176
     1
 90
        1
176
     1
 40
0.0
176
     1
 90
        0
176
     1
290
     0
176
     1
290
     1
176
     1
290
     1
176
     1
290
     0
176
     1
290
     0
176
     1
290
     0
176
     1
290
     0
176
     1
290
     0
176
     1
290
     0
176
     1
 90
       50
176
     1
 40
0.0
176
     1
 40
1.0
176
     1
 90
        0
176
     1
 62
    18
420
        0
176
     1
 90
       50
176
     1
 90
        3
176
     1
 62
     5
420
      255
176
     1
290
     0
176
     1
 90
       50
176
     1
 90
       50
176
     1
 90
       50
176
     1
290
     0
176
     1
 90
       50
176
     1
 62
   256
176
     0
 40
1.0
176
     0
 90
        2
176
     1
  1
strokes_ogs.tif
176
     1
290
     0
176
     1
 40
1.0
176
     1
 40
1.0
176
     1
  0
VISUALSTYLE
  5
359
102
{ACAD_REACTORS
330
350
102
}
330
350
100
AcDbVisualStyle
  2
Conceptual
 70
     9
177
     3
291
     0
 70
    58
 90
        3
176
     1
 90
        2
176
     1
 90
        0
176
     1
 90
        0
176
     1
 40
0.6
176
     1
 40
30.0
176
     1
 62
     7
420
 16777215
176
     1
 90
        2
176
     1
 90
        2
176
     1
 62
     7
176
     1
 62
   257
176
     1
 90
        1
176
     1
 90
        1
176
     1
 40
40.0
176
     1
 90
        8
176
     1
 62
     7
176
     1
 40
1.0
176
     1
 90
        1
176
     1
 90
        6
176
     1
 90
        2
176
     1
 62
     7
176
     1
 90
        3
176
     1
 90
        0
176
     1
 90
        0
176
     1
290
     0
176
     1
 90
        1
176
     1
 40
0.0
176
     1
 90
        0
176
     1
290
     0
176
     1
290
     1
176
     1
290
     1
176
     1
290
     0
176
     1
290
     0
176
     1
290
     0
176
     1
290
     0
176
     1
290
     0
176
     1
290
     0
176
     1
 90
       50
176
     1
 40
0.0
176
     1
 40
1.0
176
     1
 90
        0
176
     1
 62
    18
420
        0
176
     1
 90
       50
176
     1
 90
        3
176
     1
 62
     5
420
      255
176
     1
290
     0
176
     1
 90
       50
176
     1
 90
       50
176
     1
 90
       50
176
     1
290
     0
176
     1
 90
       50
176
     1
 62
   256
176
     0
 40
1.0
176
     0
 90
        2
176
     1
  1
strokes_ogs.tif
176
     1
290
     0
176
     1
 40
1.0
176
     1
 40
1.0
176
     1
  0
VISUALSTYLE
  5
35B
102
{ACAD_REACTORS
330
350
102
}
330
350
100
AcDbVisualStyle
  2
Dim
 70
    11
177
     3
291
     1
 70
    58
 90
        2
176
     1
 90
        2
176
     1
 90
        0
176
     1
 90
        0
176
     1
 40
0.6
176
     1
 40
30.0
176
     1
 62
     7
420
 16777215
176
     1
 90
        1
176
     1
 90
        4
176
     1
 62
     7
176
     1
 62
   257
176
     1
 90
        1
176
     1
 90
        1
176
     1
 40
1.0
176
     1
 90
        8
176
     1
 62
     7
176
     1
 40
1.0
176
     1
 90
        1
176
     1
 90
        6
176
     1
 90
        2
176
     1
 62
     7
176
     1
 90
        5
176
     1
 90
        0
176
     1
 90
        0
176
     1
290
     0
176
     1
 90
        1
176
     1
 40
-50.0
176
     1
 90
        0
176
     1
290
     0
176
     1
290
     1
176
     1
290
     1
176
     1
290
     0
176
     1
290
     0
176
     1
290
     0
176
     1
290
     0
176
     1
290
     0
176
     1
290
     0
176
     1
 90
       50
176
     1
 40
0.0
176
     1
 40
1.0
176
     1
 90
        0
176
     1
 62
    18
420
        0
176
     1
 90
       50
176
     1
 90
        3
176
     1
 62
     5
420
      255
176
     1
290
     0
176
     1
 90
       50
176
     1
 90
       50
176
     1
 90
       50
176
     1
290
     0
176
     1
 90
       50
176
     1
 62
   256
176
     0
 40
1.0
176
     0
 90
        2
176
     1
  1
strokes_ogs.tif
176
     1
290
     0
176
     1
 40
1.0
176
     1
 40
1.0
176
     1
  0
VISUALSTYLE
  5
393
102
{ACAD_REACTORS
330
350
102
}
330
350
100
AcDbVisualStyle
  2
EdgeColorOff
 70
    22
177
     3
291
     1
 70
    58
 90
        2
176
     0
 90
        2
176
     0
 90
        0
176
     0
 90
        0
176
     0
 40
0.6
176
     0
 40
30.0
176
     0
 62
     7
420
 16777215
176
     0
 90
        1
176
     0
 90
        4
176
     0
 62
     7
176
     0
 62
   257
176
     0
 90
        1
176
     0
 90
        1
176
     0
 40
1.0
176
     0
 90
        8
176
     2
 62
     7
176
     0
 40
1.0
176
     0
 90
        1
176
     0
 90
        6
176
     0
 90
        2
176
     0
 62
     7
176
     0
 90
        5
176
     0
 90
        0
176
     0
 90
        0
176
     0
290
     0
176
     0
 90
        1
176
     0
 40
0.0
176
     0
 90
        0
176
     0
290
     0
176
     1
290
     1
176
     1
290
     1
176
     1
290
     0
176
     1
290
     0
176
     1
290
     0
176
     1
290
     0
176
     1
290
     0
176
     1
290
     0
176
     1
 90
       50
176
     1
 40
0.0
176
     1
 40
1.0
176
     1
 90
        0
176
     1
 62
    18
420
        0
176
     1
 90
       50
176
     1
 90
        3
176
     1
 62
     5
420
      255
176
     1
290
     0
176
     1
 90
       50
176
     1
 90
       50
176
     1
 90
       50
176
     1
290
     0
176
     1
 90
       50
176
     1
 62
   256
176
     0
 40
1.0
176
     0
 90
        2
176
     1
  1
strokes_ogs.tif
176
     1
290
     0
176
     1
 40
1.0
176
     1
 40
1.0
176
     1
  0
VISUALSTYLE
  5
35F
102
{ACAD_REACTORS
330
350
102
}
330
350
100
AcDbVisualStyle
  2
Facepattern
 70
    15
177
     3
291
     1
 70
    58
 90
        2
176
     1
 90
        2
176
     1
 90
        0
176
     1
 90
        0
176
     1
 40
0.6
176
     1
 40
30.0
176
     1
 62
     7
420
 16777215
176
     1
 90
        1
176
     1
 90
        4
176
     1
 62
     7
176
     1
 62
   257
176
     1
 90
        1
176
     1
 90
        1
176
     1
 40
1.0
176
     1
 90
        8
176
     1
 62
     7
176
     1
 40
1.0
176
     1
 90
        1
176
     1
 90
        6
176
     1
 90
        2
176
     1
 62
     7
176
     1
 90
        5
176
     1
 90
        0
176
     1
 90
        0
176
     1
290
     0
176
     1
 90
        1
176
     1
 40
0.0
176
     1
 90
        0
176
     1
290
     0
176
     1
290
     1
176
     1
290
     1
176
     1
290
     0
176
     1
290
     0
176
     1
290
     0
176
     1
290
     0
176
     1
290
     0
176
     1
290
     0
176
     1
 90
       50
176
     1
 40
0.0
176
     1
 40
1.0
176
     1
 90
        0
176
     1
 62
    18
420
        0
176
     1
 90
       50
176
     1
 90
        3
176
     1
 62
     5
420
      255
176
     1
290
     0
176
     1
 90
       50
176
     1
 90
       50
176
     1
 90
       50
176
     1
290
     0
176
     1
 90
       50
176
     1
 62
   256
176
     0
 40
1.0
176
     0
 90
        2
176
     1
  1
strokes_ogs.tif
176
     1
290
     0
176
     1
 40
1.0
176
     1
 40
1.0
176
     1
  0
VISUALSTYLE
  5
351
102
{ACAD_REACTORS
330
350
102
}
330
350
100
AcDbVisualStyle
  2
Flat
 70
     0
177
     3
291
     1
 70
    58
 90
        2
176
     1
 90
        1
176
     1
 90
        1
176
     1
 90
        2
176
     1
 40
0.6
176
     1
 40
30.0
176
     1
 62
     7
420
 16777215
176
     1
 90
        0
176
     1
 90
        4
176
     1
 62
     7
176
     1
 62
   257
176
     1
 90
        1
176
     1
 90
        1
176
     1
 40
1.0
176
     1
 90
        8
176
     1
 62
     7
176
     1
 40
1.0
176
     1
 90
        1
176
     1
 90
        6
176
     1
 90
        2
176
     1
 62
     7
176
     1
 90
        5
176
     1
 90
        0
176
     1
 90
        0
176
     1
290
     0
176
     1
 90
       13
176
     1
 40
0.0
176
     1
 90
        0
176
     1
290
     0
176
     1
290
     1
176
     1
290
     1
176
     1
290
     0
176
     1
290
     0
176
     1
290
     0
176
     1
290
     0
176
     1
290
     0
176
     1
290
     0
176
     1
 90
       50
176
     1
 40
0.0
176
     1
 40
1.0
176
     1
 90
        0
176
     1
 62
    18
420
        0
176
     1
 90
       50
176
     1
 90
        3
176
     1
 62
     5
420
      255
176
     1
290
     0
176
     1
 90
       50
176
     1
 90
       50
176
     1
 90
       50
176
     1
290
     0
176
     1
 90
       50
176
     1
 62
   256
176
     0
 40
1.0
176
     0
 90
        2
176
     1
  1
strokes_ogs.tif
176
     1
290
     0
176
     1
 40
1.0
176
     1
 40
1.0
176
     1
  0
VISUALSTYLE
  5
352
102
{ACAD_REACTORS
330
350
102
}
330
350
100
AcDbVisualStyle
  2
FlatWithEdges
 70
     1
177
     3
291
     1
 70
    58
 90
        2
176
     1
 90
        1
176
     1
 90
        1
176
     1
 90
        2
176
     1
 40
0.6
176
     1
 40
30.0
176
     1
 62
     7
420
 16777215
176
     1
 90
        1
176
     1
 90
        4
176
     1
 62
     7
176
     1
 62
   257
176
     1
 90
        1
176
     1
 90
        1
176
     1
 40
1.0
176
     1
 90
        0
176
     1
 62
   257
176
     1
 40
1.0
176
     1
 90
        1
176
     1
 90
        6
176
     1
 90
        2
176
     1
 62
     7
176
     1
 90
        5
176
     1
 90
        0
176
     1
 90
        0
176
     1
290
     0
176
     1
 90
       13
176
     1
 40
0.0
176
     1
 90
        0
176
     1
290
     0
176
     1
290
     1
176
     1
290
     1
176
     1
290
     0
176
     1
290
     0
176
     1
290
     0
176
     1
290
     0
176
     1
290
     0
176
     1
290
     0
176
     1
 90
       50
176
     1
 40
0.0
176
     1
 40
1.0
176
     1
 90
        0
176
     1
 62
    18
420
        0
176
     1
 90
       50
176
     1
 90
        3
176
     1
 62
     5
420
      255
176
     1
290
     0
176
     1
 90
       50
176
     1
 90
       50
176
     1
 90
       50
176
     1
290
     0
176
     1
 90
       50
176
     1
 62
   256
176
     0
 40
1.0
176
     0
 90
        2
176
     1
  1
strokes_ogs.tif
176
     1
290
     0
176
     1
 40
1.0
176
     1
 40
1.0
176
     1
  0
VISUALSTYLE
  5
353
102
{ACAD_REACTORS
330
350
102
}
330
350
100
AcDbVisualStyle
  2
Gouraud
 70
     2
177
     3
291
     1
 70
    58
 90
        2
176
     1
 90
        2
176
     1
 90
        1
176
     1
 90
        2
176
     1
 40
0.6
176
     1
 40
30.0
176
     1
 62
     7
420
 16777215
176
     1
 90
        0
176
     1
 90
        4
176
     1
 62
     7
176
     1
 62
   257
176
     1
 90
        1
176
     1
 90
        1
176
     1
 40
1.0
176
     1
 90
        0
176
     1
 62
     7
176
     1
 40
1.0
176
     1
 90
        1
176
     1
 90
        6
176
     1
 90
        2
176
     1
 62
     7
176
     1
 90
        5
176
     1
 90
        0
176
     1
 90
        0
176
     1
290
     0
176
     1
 90
       13
176
     1
 40
0.0
176
     1
 90
        0
176
     1
290
     0
176
     1
290
     1
176
     1
290
     1
176
     1
290
     0
176
     1
290
     0
176
     1
290
     0
176
     1
290
     0
176
     1
290
     0
176
     1
290
     0
176
     1
 90
       50
176
     1
 40
0.0
176
     1
 40
1.0
176
     1
 90
        0
176
     1
 62
    18
420
        0
176
     1
 90
       50
176
     1
 90
        3
176
     1
 62
     5
420
      255
176
     1
290
     0
176
     1
 90
       50
176
     1
 90
       50
176
     1
 90
       50
176
     1
290
     0
176
     1
 90
       50
176
     1
 62
   256
176
     0
 40
1.0
176
     0
 90
        2
176
     1
  1
strokes_ogs.tif
176
     1
290
     0
176
     1
 40
1.0
176
     1
 40
1.0
176
     1
  0
VISUALSTYLE
  5
354
102
{ACAD_REACTORS
330
350
102
}
330
350
100
AcDbVisualStyle
  2
GouraudWithEdges
 70
     3
177
     3
291
     1
 70
    58
 90
        2
176
     1
 90
        2
176
     1
 90
        1
176
     1
 90
        2
176
     1
 40
0.6
176
     1
 40
30.0
176
     1
 62
     7
420
 16777215
176
     1
 90
        1
176
     1
 90
        4
176
     1
 62
     7
176
     1
 62
   257
176
     1
 90
        1
176
     1
 90
        1
176
     1
 40
1.0
176
     1
 90
        0
176
     1
 62
   257
176
     1
 40
1.0
176
     1
 90
        1
176
     1
 90
        6
176
     1
 90
        2
176
     1
 62
     7
176
     1
 90
        5
176
     1
 90
        0
176
     1
 90
        0
176
     1
290
     0
176
     1
 90
       13
176
     1
 40
0.0
176
     1
 90
        0
176
     1
290
     0
176
     1
290
     1
176
     1
290
     1
176
     1
290
     0
176
     1
290
     0
176
     1
290
     0
176
     1
290
     0
176
     1
290
     0
176
     1
290
     0
176
     1
 90
       50
176
     1
 40
0.0
176
     1
 40
1.0
176
     1
 90
        0
176
     1
 62
    18
420
        0
176
     1
 90
       50
176
     1
 90
        3
176
     1
 62
     5
420
      255
176
     1
290
     0
176
     1
 90
       50
176
     1
 90
       50
176
     1
 90
       50
176
     1
290
     0
176
     1
 90
       50
176
     1
 62
   256
176
     0
 40
1.0
176
     0
 90
        2
176
     1
  1
strokes_ogs.tif
176
     1
290
     0
176
     1
 40
1.0
176
     1
 40
1.0
176
     1
  0
VISUALSTYLE
  5
3DF
102
{ACAD_REACTORS
330
350
102
}
330
350
100
AcDbVisualStyle
  2
Hidden
 70
     6
177
     3
291
     0
 70
    58
 90
        1
176
     1
 90
        2
176
     1
 90
        2
176
     1
 90
        0
176
     1
 40
0.6
176
     1
 40
30.0
176
     1
 62
     7
420
 16777215
176
     1
 90
        2
176
     1
 90
        2
176
     1
 62
     7
176
     1
 62
   257
176
     1
 90
        2
176
     1
 90
        1
176
     1
 40
40.0
176
     1
 90
        0
176
     1
 62
   257
176
     1
 40
1.0
176
     1
 90
        1
176
     1
 90
        6
176
     1
 90
        2
176
     1
 62
     7
176
     1
 90
        3
176
     1
 90
        0
176
     1
 90
        0
176
     1
290
     0
176
     1
 90
        1
176
     1
 40
0.0
176
     1
 90
        0
176
     1
290
     0
176
     1
290
     1
176
     1
290
     1
176
     1
290
     0
176
     1
290
     0
176
     1
290
     0
176
     1
290
     0
176
     1
290
     0
176
     1
290
     0
176
     1
 90
       50
176
     1
 40
0.0
176
     1
 40
1.0
176
     1
 90
        0
176
     1
 62
    18
420
        0
176
     1
 90
       50
176
     1
 90
        3
176
     1
 62
     5
420
      255
176
     1
290
     0
176
     1
 90
       50
176
     1
 90
       50
176
     1
 90
       50
176
     1
290
     0
176
     1
 90
       50
176
     1
 62
   256
176
     0
 40
1.0
176
     0
 90
        2
176
     1
  1
strokes_ogs.tif
176
     1
290
     0
176
     1
 40
1.0
176
     1
 40
1.0
176
     1
  0
VISUALSTYLE
  5
391
102
{ACAD_REACTORS
330
350
102
}
330
350
100
AcDbVisualStyle
  2
JitterOff
 70
    20
177
     3
291
     1
 70
    58
 90
        2
176
     0
 90
        2
176
     0
 90
        0
176
     0
 90
        0
176
     0
 40
0.6
176
     0
 40
30.0
176
     0
 62
     7
420
 16777215
176
     0
 90
        1
176
     0
 90
        4
176
     0
 62
     7
176
     0
 62
   257
176
     0
 90
        1
176
     0
 90
        1
176
     0
 40
1.0
176
     0
 90
       10
176
     2
 62
     7
176
     0
 40
1.0
176
     0
 90
        1
176
     0
 90
        6
176
     0
 90
        2
176
     0
 62
     7
176
     0
 90
        5
176
     0
 90
        0
176
     0
 90
        0
176
     0
290
     0
176
     0
 90
        1
176
     0
 40
0.0
176
     0
 90
        0
176
     0
290
     0
176
     1
290
     1
176
     1
290
     1
176
     1
290
     0
176
     1
290
     0
176
     1
290
     0
176
     1
290
     0
176
     1
290
     0
176
     1
290
     0
176
     1
 90
       50
176
     1
 40
0.0
176
     1
 40
1.0
176
     1
 90
        0
176
     1
 62
    18
420
        0
176
     1
 90
       50
176
     1
 90
        3
176
     1
 62
     5
420
      255
176
     1
290
     0
176
     1
 90
       50
176
     1
 90
       50
176
     1
 90
       50
176
     1
290
     0
176
     1
 90
       50
176
     1
 62
   256
176
     0
 40
1.0
176
     0
 90
        2
176
     1
  1
strokes_ogs.tif
176
     1
290
     0
176
     1
 40
1.0
176
     1
 40
1.0
176
     1
  0
VISUALSTYLE
  5
35E
102
{ACAD_REACTORS
330
350
102
}
330
350
100
AcDbVisualStyle
  2
Linepattern
 70
    14
177
     3
291
     1
 70
    58
 90
        2
176
     1
 90
        2
176
     1
 90
        0
176
     1
 90
        0
176
     1
 40
0.6
176
     1
 40
30.0
176
     1
 62
     7
420
 16777215
176
     1
 90
        1
176
     1
 90
        4
176
     1
 62
     7
176
     1
 62
   257
176
     1
 90
        7
176
     1
 90
        7
176
     1
 40
1.0
176
     1
 90
        8
176
     1
 62
     7
176
     1
 40
1.0
176
     1
 90
        1
176
     1
 90
        6
176
     1
 90
        2
176
     1
 62
     7
176
     1
 90
        5
176
     1
 90
        0
176
     1
 90
        0
176
     1
290
     0
176
     1
 90
        1
176
     1
 40
0.0
176
     1
 90
        0
176
     1
290
     0
176
     1
290
     1
176
     1
290
     1
176
     1
290
     0
176
     1
290
     0
176
     1
290
     0
176
     1
290
     0
176
     1
290
     0
176
     1
290
     0
176
     1
 90
       50
176
     1
 40
0.0
176
     1
 40
1.0
176
     1
 90
        0
176
     1
 62
    18
420
        0
176
     1
 90
       50
176
     1
 90
        3
176
     1
 62
     5
420
      255
176
     1
290
     0
176
     1
 90
       50
176
     1
 90
       50
176
     1
 90
       50
176
     1
290
     0
176
     1
 90
       50
176
     1
 62
   256
176
     0
 40
1.0
176
     0
 90
        2
176
     1
  1
strokes_ogs.tif
176
     1
290
     0
176
     1
 40
1.0
176
     1
 40
1.0
176
     1
  0
VISUALSTYLE
  5
392
102
{ACAD_REACTORS
330
350
102
}
330
350
100
AcDbVisualStyle
  2
OverhangOff
 70
    21
177
     3
291
     1
 70
    58
 90
        2
176
     0
 90
        2
176
     0
 90
        0
176
     0
 90
        0
176
     0
 40
0.6
176
     0
 40
30.0
176
     0
 62
     7
420
 16777215
176
     0
 90
        1
176
     0
 90
        4
176
     0
 62
     7
176
     0
 62
   257
176
     0
 90
        1
176
     0
 90
        1
176
     0
 40
1.0
176
     0
 90
        9
176
     2
 62
     7
176
     0
 40
1.0
176
     0
 90
        1
176
     0
 90
        6
176
     0
 90
        2
176
     0
 62
     7
176
     0
 90
        5
176
     0
 90
        0
176
     0
 90
        0
176
     0
290
     0
176
     0
 90
        1
176
     0
 40
0.0
176
     0
 90
        0
176
     0
290
     0
176
     1
290
     1
176
     1
290
     1
176
     1
290
     0
176
     1
290
     0
176
     1
290
     0
176
     1
290
     0
176
     1
290
     0
176
     1
290
     0
176
     1
 90
       50
176
     1
 40
0.0
176
     1
 40
1.0
176
     1
 90
        0
176
     1
 62
    18
420
        0
176
     1
 90
       50
176
     1
 90
        3
176
     1
 62
     5
420
      255
176
     1
290
     0
176
     1
 90
       50
176
     1
 90
       50
176
     1
 90
       50
176
     1
290
     0
176
     1
 90
       50
176
     1
 62
   256
176
     0
 40
1.0
176
     0
 90
        2
176
     1
  1
strokes_ogs.tif
176
     1
290
     0
176
     1
 40
1.0
176
     1
 40
1.0
176
     1
  0
VISUALSTYLE
  5
35A
102
{ACAD_REACTORS
330
350
102
}
330
350
100
AcDbVisualStyle
  2
Realistic
 70
     8
177
     3
291
     0
 70
    58
 90
        2
176
     1
 90
        2
176
     1
 90
        0
176
     1
 90
        0
176
     1
 40
0.6
176
     1
 40
30.0
176
     1
 62
     7
420
 16777215
176
     1
 90
        1
176
     1
 90
        0
176
     1
 62
     7
176
     1
 62
   257
176
     1
 90
        1
176
     1
 90
        1
176
     1
 40
1.0
176
     1
 90
        8
176
     1
 62
     8
420
  7895160
176
     1
 40
1.0
176
     1
 90
        1
176
     1
 90
        6
176
     1
 90
        2
176
     1
 62
     7
176
     1
 90
        5
176
     1
 90
        0
176
     1
 90
        0
176
     1
290
     0
176
     1
 90
       13
176
     1
 40
0.0
176
     1
 90
        0
176
     1
290
     0
176
     1
290
     1
176
     1
290
     1
176
     1
290
     0
176
     1
290
     0
176
     1
290
     0
176
     1
290
     0
176
     1
290
     0
176
     1
290
     0
176
     1
 90
       50
176
     1
 40
0.0
176
     1
 40
1.0
176
     1
 90
        0
176
     1
 62
    18
420
        0
176
     1
 90
       50
176
     1
 90
        3
176
     1
 62
     5
420
      255
176
     1
290
     0
176
     1
 90
       50
176
     1
 90
       50
176
     1
 90
       50
176
     1
290
     0
176
     1
 90
       50
176
     1
 62
   256
176
     0
 40
1.0
176
     0
 90
        2
176
     1
  1
strokes_ogs.tif
176
     1
290
     0
176
     1
 40
1.0
176
     1
 40
1.0
176
     1
  0
VISUALSTYLE
  5
3E4
102
{ACAD_REACTORS
330
350
102
}
330
350
100
AcDbVisualStyle
  2
Shaded
 70
    27
177
     3
291
     0
 70
    58
 90
        2
176
     1
 90
        2
176
     1
 90
        1
176
     1
 90
        2
176
     1
 40
0.6
176
     1
 40
30.0
176
     1
 62
     7
420
 16777215
176
     1
 90
        0
176
     1
 90
        4
176
     1
 62
     7
176
     1
 62
   257
176
     1
 90
        1
176
     1
 90
        1
176
     1
 40
1.0
176
     1
 90
        8
176
     1
 62
   257
176
     1
 40
1.0
176
     1
 90
        1
176
     1
 90
        6
176
     1
 90
        2
176
     1
 62
     8
420
  7895160
176
     1
 90
        3
176
     1
 90
        0
176
     1
 90
        0
176
     1
290
     0
176
     1
 90
        5
176
     1
 40
0.0
176
     1
 90
        0
176
     1
290
     0
176
     1
290
     1
176
     1
290
     1
176
     1
290
     0
176
     1
290
     0
176
     1
290
     0
176
     1
290
     0
176
     1
290
     0
176
     1
290
     0
176
     1
 90
       50
176
     1
 40
0.0
176
     1
 40
1.0
176
     1
 90
        0
176
     1
 62
    18
420
        0
176
     1
 90
       50
176
     1
 90
        3
176
     1
 62
     5
420
      255
176
     1
290
     0
176
     1
 90
       50
176
     1
 90
       50
176
     1
 90
       50
176
     1
290
     0
176
     1
 90
       50
176
     1
 62
   256
176
     0
 40
1.0
176
     0
 90
        2
176
     1
  1
strokes_ogs.tif
176
     1
290
     0
176
     1
 40
1.0
176
     1
 40
1.0
176
     1
  0
VISUALSTYLE
  5
3E3
102
{ACAD_REACTORS
330
350
102
}
330
350
100
AcDbVisualStyle
  2
Shaded with edges
 70
    26
177
     3
291
     0
 70
    58
 90
        2
176
     1
 90
        2
176
     1
 90
        1
176
     1
 90
        2
176
     1
 40
0.6
176
     1
 40
30.0
176
     1
 62
     7
420
 16777215
176
     1
 90
        1
176
     1
 90
        2
176
     1
 62
     7
176
     1
 62
   257
176
     1
 90
        2
176
     1
 90
        1
176
     1
 40
1.0
176
     1
 90
        8
176
     1
 62
   257
176
     1
 40
1.0
176
     1
 90
        1
176
     1
 90
        6
176
     1
 90
        2
176
     1
 62
     7
176
     1
 90
        3
176
     1
 90
        0
176
     1
 90
        0
176
     1
290
     0
176
     1
 90
        5
176
     1
 40
0.0
176
     1
 90
        0
176
     1
290
     0
176
     1
290
     1
176
     1
290
     1
176
     1
290
     0
176
     1
290
     0
176
     1
290
     0
176
     1
290
     0
176
     1
290
     0
176
     1
290
     0
176
     1
 90
       50
176
     1
 40
0.0
176
     1
 40
1.0
176
     1
 90
        0
176
     1
 62
    18
420
        0
176
     1
 90
       50
176
     1
 90
        3
176
     1
 62
     5
420
      255
176
     1
290
     0
176
     1
 90
       50
176
     1
 90
       50
176
     1
 90
       50
176
     1
290
     0
176
     1
 90
       50
176
     1
 62
   256
176
     0
 40
1.0
176
     0
 90
        2
176
     1
  1
strokes_ogs.tif
176
     1
290
     0
176
     1
 40
1.0
176
     1
 40
1.0
176
     1
  0
VISUALSTYLE
  5
3E0
102
{ACAD_REACTORS
330
350
102
}
330
350
100
AcDbVisualStyle
  2
Shades of Gray
 70
    23
177
     3
291
     0
 70
    58
 90
        2
176
     1
 90
        2
176
     1
 90
        3
176
     1
 90
        0
176
     1
 40
0.6
176
     1
 40
30.0
176
     1
 62
     7
420
 16777215
176
     1
 90
        2
176
     1
 90
        2
176
     1
 62
     7
176
     1
 62
     7
176
     1
 90
        1
176
     1
 90
        1
176
     1
 40
40.0
176
     1
 90
        8
176
     1
 62
     7
176
     1
 40
1.0
176
     1
 90
        1
176
     1
 90
        6
176
     1
 90
        2
176
     1
 62
     7
176
     1
 90
        3
176
     1
 90
        0
176
     1
 90
        0
176
     1
290
     0
176
     1
 90
        1
176
     1
 40
0.0
176
     1
 90
        0
176
     1
290
     0
176
     1
290
     1
176
     1
290
     1
176
     1
290
     0
176
     1
290
     0
176
     1
290
     0
176
     1
290
     0
176
     1
290
     0
176
     1
290
     0
176
     1
 90
       50
176
     1
 40
0.0
176
     1
 40
1.0
176
     1
 90
        0
176
     1
 62
    18
420
        0
176
     1
 90
       50
176
     1
 90
        3
176
     1
 62
     5
420
      255
176
     1
290
     0
176
     1
 90
       50
176
     1
 90
       50
176
     1
 90
       50
176
     1
290
     0
176
     1
 90
       50
176
     1
 62
   256
176
     0
 40
1.0
176
     0
 90
        2
176
     1
  1
strokes_ogs.tif
176
     1
290
     0
176
     1
 40
1.0
176
     1
 40
1.0
176
     1
  0
VISUALSTYLE
  5
3E1
102
{ACAD_REACTORS
330
350
102
}
330
350
100
AcDbVisualStyle
  2
Sketchy
 70
    24
177
     3
291
     0
 70
    58
 90
        1
176
     1
 90
        2
176
     1
 90
        2
176
     1
 90
        0
176
     1
 40
0.6
176
     1
 40
30.0
176
     1
 62
     7
420
 16777215
176
     1
 90
        2
176
     1
 90
        2
176
     1
 62
     7
176
     1
 62
     7
176
     1
 90
        1
176
     1
 90
        1
176
     1
 40
40.0
176
     1
 90
       11
176
     1
 62
     7
176
     1
 40
1.0
176
     1
 90
        1
176
     1
 90
        6
176
     1
 90
        2
176
     1
 62
     7
176
     1
 90
        6
176
     1
 90
        0
176
     1
 90
        0
176
     1
290
     0
176
     1
 90
        1
176
     1
 40
0.0
176
     1
 90
        0
176
     1
290
     0
176
     1
290
     1
176
     1
290
     1
176
     1
290
     0
176
     1
290
     0
176
     1
290
     0
176
     1
290
     0
176
     1
290
     0
176
     1
290
     0
176
     1
 90
       50
176
     1
 40
0.0
176
     1
 40
1.0
176
     1
 90
        0
176
     1
 62
    18
420
        0
176
     1
 90
       50
176
     1
 90
        3
176
     1
 62
     5
420
      255
176
     1
290
     0
176
     1
 90
       50
176
     1
 90
       50
176
     1
 90
       50
176
     1
290
     0
176
     1
 90
       50
176
     1
 62
   256
176
     0
 40
1.0
176
     0
 90
        2
176
     1
  1
strokes_ogs.tif
176
     1
290
     0
176
     1
 40
1.0
176
     1
 40
1.0
176
     1
  0
VISUALSTYLE
  5
35D
102
{ACAD_REACTORS
330
350
102
}
330
350
100
AcDbVisualStyle
  2
Thicken
 70
    13
177
     3
291
     1
 70
    58
 90
        2
176
     1
 90
        2
176
     1
 90
        0
176
     1
 90
        0
176
     1
 40
0.6
176
     1
 40
30.0
176
     1
 62
     7
420
 16777215
176
     1
 90
        1
176
     1
 90
        4
176
     1
 62
     7
176
     1
 62
   257
176
     1
 90
        1
176
     1
 90
        1
176
     1
 40
1.0
176
     1
 90
       12
176
     1
 62
     7
176
     1
 40
1.0
176
     1
 90
        1
176
     1
 90
        6
176
     1
 90
        2
176
     1
 62
     7
176
     1
 90
        5
176
     1
 90
        0
176
     1
 90
        0
176
     1
290
     0
176
     1
 90
        1
176
     1
 40
0.0
176
     1
 90
        0
176
     1
290
     0
176
     1
290
     1
176
     1
290
     1
176
     1
290
     0
176
     1
290
     0
176
     1
290
     0
176
     1
290
     0
176
     1
290
     0
176
     1
290
     0
176
     1
 90
       50
176
     1
 40
0.0
176
     1
 40
1.0
176
     1
 90
        0
176
     1
 62
    18
420
        0
176
     1
 90
       50
176
     1
 90
        3
176
     1
 62
     5
420
      255
176
     1
290
     0
176
     1
 90
       50
176
     1
 90
       50
176
     1
 90
       50
176
     1
290
     0
176
     1
 90
       50
176
     1
 62
   256
176
     0
 40
1.0
176
     0
 90
        2
176
     1
  1
strokes_ogs.tif
176
     1
290
     0
176
     1
 40
1.0
176
     1
 40
1.0
176
     1
  0
VISUALSTYLE
  5
3DE
102
{ACAD_REACTORS
330
350
102
}
330
350
100
AcDbVisualStyle
  2
Wireframe
 70
     5
177
     3
291
     0
 70
    58
 90
        0
176
     1
 90
        2
176
     1
 90
        0
176
     1
 90
        0
176
     1
 40
0.6
176
     1
 40
30.0
176
     1
 62
     7
420
 16777215
176
     1
 90
        1
176
     1
 90
        4
176
     1
 62
     7
176
     1
 62
   257
176
     1
 90
        1
176
     1
 90
        1
176
     1
 40
1.0
176
     1
 90
        0
176
     1
 62
   257
176
     1
 40
1.0
176
     1
 90
        1
176
     1
 90
        6
176
     1
 90
        2
176
     1
 62
     7
176
     1
 90
        3
176
     1
 90
        0
176
     1
 90
        0
176
     1
290
     0
176
     1
 90
        1
176
     1
 40
0.0
176
     1
 90
        0
176
     1
290
     0
176
     1
290
     1
176
     1
290
     1
176
     1
290
     0
176
     1
290
     0
176
     1
290
     0
176
     1
290
     0
176
     1
290
     0
176
     1
290
     0
176
     1
 90
       50
176
     1
 40
0.0
176
     1
 40
1.0
176
     1
 90
        0
176
     1
 62
    18
420
        0
176
     1
 90
       50
176
     1
 90
        3
176
     1
 62
     5
420
      255
176
     1
290
     0
176
     1
 90
       50
176
     1
 90
       50
176
     1
 90
       50
176
     1
290
     0
176
     1
 90
       50
176
     1
 62
   256
176
     0
 40
1.0
176
     0
 90
        2
176
     1
  1
strokes_ogs.tif
176
     1
290
     0
176
     1
 40
1.0
176
     1
 40
1.0
176
     1
  0
VISUALSTYLE
  5
3E2
102
{ACAD_REACTORS
330
350
102
}
330
350
100
AcDbVisualStyle
  2
X-Ray
 70
    25
177
     3
291
     0
 70
    58
 90
        2
176
     1
 90
        2
176
     1
 90
        1
176
     1
 90
        1
176
     1
 40
0.5
176
     1
 40
30.0
176
     1
 62
     7
420
 16777215
176
     1
 90
        1
176
     1
 90
        0
176
     1
 62
     7
176
     1
 62
   257
176
     1
 90
        1
176
     1
 90
        1
176
     1
 40
1.0
176
     1
 90
        8
176
     1
 62
     7
176
     1
 40
1.0
176
     1
 90
        1
176
     1
 90
        6
176
     1
 90
        2
176
     1
 62
     7
176
     1
 90
        3
176
     1
 90
        0
176
     1
 90
        0
176
     1
290
     0
176
     1
 90
       13
176
     1
 40
0.0
176
     1
 90
        0
176
     1
290
     0
176
     1
290
     1
176
     1
290
     1
176
     1
290
     0
176
     1
290
     0
176
     1
290
     0
176
     1
290
     0
176
     1
290
     0
176
     1
290
     0
176
     1
 90
       50
176
     1
 40
0.0
176
     1
 40
1.0
176
     1
 90
        0
176
     1
 62
    18
420
        0
176
     1
 90
       50
176
     1
 90
        3
176
     1
 62
     5
420
      255
176
     1
290
     0
176
     1
 90
       50
176
     1
 90
       50
176
     1
 90
       50
176
     1
290
     0
176
     1
 90
       50
176
     1
 62
   256
176
     0
 40
1.0
176
     0
 90
        2
176
     1
  1
strokes_ogs.tif
176
     1
290
     0
176
     1
 40
1.0
176
     1
 40
1.0
176
     1
  0
DICTIONARYVAR
  5
38F
102
{ACAD_REACTORS
330
38C
102
}
330
38C
100
DictionaryVariables
280
     0
  1
1:1
  0
DICTIONARYVAR
  5
38E
102
{ACAD_REACTORS
330
38C
102
}
330
38C
100
DictionaryVariables
280
     0
  1
STANDARD
  0
DICTIONARYVAR
  5
38D
102
{ACAD_REACTORS
330
38C
102
}
330
38C
100
DictionaryVariables
280
     0
  1
STANDARD
  0
DICTIONARYVAR
  5
3F6
102
{ACAD_REACTORS
330
38C
102
}
330
38C
100
DictionaryVariables
280
     0
  1
Metric50
  0
DICTIONARYVAR
  5
3F7
102
{ACAD_REACTORS
330
38C
102
}
330
38C
100
DictionaryVariables
280
     0
  1
Metric50
  0
DICTIONARYVAR
  5
3DB
102
{ACAD_REACTORS
330
38C
102
}
330
38C
100
DictionaryVariables
280
     0
  1
1
  0
DICTIONARYVAR
  5
3DC
102
{ACAD_REACTORS
330
38C
102
}
330
38C
100
DictionaryVariables
280
     0
  1
15
  0
VLO-VL
  5
399
102
{ACAD_REACTORS
330
398
102
}
330
398
100
vlo_VL
 90
   -64512
 91
       12
 92
        1
 40
2.5
300
(&VLO-R . 0)
  0
DICTIONARY
  5
3FB
330
3E8
100
AcDbDictionary
280
     1
281
     1
  3
ACAD_XREC_ROUNDTRIP
360
3FC
  0
DICTIONARY
  5
3D9
330
333
100
AcDbDictionary
280
     1
281
     1
  0
DICTIONARY
  5
341
330
340
100
AcDbDictionary
280
     1
281
     1
  3
BUMPTILE
360
343
  3
DIFFUSETILE
360
342
  3
OPACITYTILE
360
346
  3
REFLECTIONTILE
360
345
  3
REFRACTIONTILE
360
347
  3
SPECULARTILE
360
344
  0
DICTIONARY
  5
339
330
338
100
AcDbDictionary
280
     1
281
     1
  3
BUMPTILE
360
33B
  3
DIFFUSETILE
360
33A
  3
OPACITYTILE
360
33E
  3
REFLECTIONTILE
360
33D
  3
REFRACTIONTILE
360
33F
  3
SPECULARTILE
360
33C
  0
DICTIONARY
  5
349
330
348
100
AcDbDictionary
280
     1
281
     1
  3
BUMPTILE
360
34B
  3
DIFFUSETILE
360
34A
  3
OPACITYTILE
360
34E
  3
REFLECTIONTILE
360
34D
  3
REFRACTIONTILE
360
34F
  3
SPECULARTILE
360
34C
  0
DICTIONARY
  5
3F9
330
3E6
100
AcDbDictionary
280
     1
281
     1
  3
ACAD_XREC_ROUNDTRIP
360
3FA
  0
DICTIONARY
  5
389
330
363
100
AcDbDictionary
280
     1
281
     1
  3
ACAD_ROUNDTRIP_2008_TABLESTYLE_CELLSTYLEMAP
360
3F8
  0
XRECORD
  5
3FC
102
{ACAD_REACTORS
330
3FB
102
}
330
3FB
100
AcDbXrecord
280
     1
102
DISPLAYNAME
  1
Metric50
102
FLAGS
 90
        0
  0
XRECORD
  5
343
102
{ACAD_REACTORS
330
341
102
}
330
341
100
AcDbXrecord
280
     1
270
     1
271
     1
  0
XRECORD
  5
342
102
{ACAD_REACTORS
330
341
102
}
330
341
100
AcDbXrecord
280
     1
270
     1
271
     1
  0
XRECORD
  5
346
102
{ACAD_REACTORS
330
341
102
}
330
341
100
AcDbXrecord
280
     1
270
     1
271
     1
  0
XRECORD
  5
345
102
{ACAD_REACTORS
330
341
102
}
330
341
100
AcDbXrecord
280
     1
270
     1
271
     1
  0
XRECORD
  5
347
102
{ACAD_REACTORS
330
341
102
}
330
341
100
AcDbXrecord
280
     1
270
     1
271
     1
  0
XRECORD
  5
344
102
{ACAD_REACTORS
330
341
102
}
330
341
100
AcDbXrecord
280
     1
270
     1
271
     1
  0
XRECORD
  5
33B
102
{ACAD_REACTORS
330
339
102
}
330
339
100
AcDbXrecord
280
     1
270
     1
271
     1
  0
XRECORD
  5
33A
102
{ACAD_REACTORS
330
339
102
}
330
339
100
AcDbXrecord
280
     1
270
     1
271
     1
  0
XRECORD
  5
33E
102
{ACAD_REACTORS
330
339
102
}
330
339
100
AcDbXrecord
280
     1
270
     1
271
     1
  0
XRECORD
  5
33D
102
{ACAD_REACTORS
330
339
102
}
330
339
100
AcDbXrecord
280
     1
270
     1
271
     1
  0
XRECORD
  5
33F
102
{ACAD_REACTORS
330
339
102
}
330
339
100
AcDbXrecord
280
     1
270
     1
271
     1
  0
XRECORD
  5
33C
102
{ACAD_REACTORS
330
339
102
}
330
339
100
AcDbXrecord
280
     1
270
     1
271
     1
  0
XRECORD
  5
34B
102
{ACAD_REACTORS
330
349
102
}
330
349
100
AcDbXrecord
280
     1
270
     1
271
     1
  0
XRECORD
  5
34A
102
{ACAD_REACTORS
330
349
102
}
330
349
100
AcDbXrecord
280
     1
270
     1
271
     1
  0
XRECORD
  5
34E
102
{ACAD_REACTORS
330
349
102
}
330
349
100
AcDbXrecord
280
     1
270
     1
271
     1
  0
XRECORD
  5
34D
102
{ACAD_REACTORS
330
349
102
}
330
349
100
AcDbXrecord
280
     1
270
     1
271
     1
  0
XRECORD
  5
34F
102
{ACAD_REACTORS
330
349
102
}
330
349
100
AcDbXrecord
280
     1
270
     1
271
     1
  0
XRECORD
  5
34C
102
{ACAD_REACTORS
330
349
102
}
330
349
100
AcDbXrecord
280
     1
270
     1
271
     1
  0
XRECORD
  5
3FA
102
{ACAD_REACTORS
330
3F9
102
}
330
3F9
100
AcDbXrecord
280
     1
102
DISPLAYNAME
  1
Metric50
102
FLAGS
 90
        0
  0
CELLSTYLEMAP
  5
3F8
102
{ACAD_REACTORS
330
389
102
}
330
389
100
AcDbCellStyleMap
 90
        3
300
CELLSTYLE
  1
TABLEFORMAT_BEGIN
 90
        5
170
     1
 91
        0
 92
    32768
 62
   257
 93
        1
300
CONTENTFORMAT
  1
CONTENTFORMAT_BEGIN
 90
        0
 91
        0
 92
      512
 93
        0
300

 40
0.0
140
1.0
 94
        5
 62
     0
340
11
144
6.0
309
CONTENTFORMAT_END
171
     1
301
MARGIN
  1
CELLMARGIN_BEGIN
 40
1.5
 40
1.5
 40
1.5
 40
1.5
 40
4.5
 40
4.5
309
CELLMARGIN_END
 94
        6
 95
        1
302
GRIDFORMAT
  1
GRIDFORMAT_BEGIN
 90
        0
 91
        1
 62
     0
 92
       -2
340
0
 93
        0
 40
1.125
309
GRIDFORMAT_END
 95
        2
302
GRIDFORMAT
  1
GRIDFORMAT_BEGIN
 90
        0
 91
        1
 62
     0
 92
       -2
340
0
 93
        0
 40
1.125
309
GRIDFORMAT_END
 95
        4
302
GRIDFORMAT
  1
GRIDFORMAT_BEGIN
 90
        0
 91
        1
 62
     0
 92
       -2
340
0
 93
        0
 40
1.125
309
GRIDFORMAT_END
 95
        8
302
GRIDFORMAT
  1
GRIDFORMAT_BEGIN
 90
        0
 91
        1
 62
     0
 92
       -2
340
0
 93
        0
 40
1.125
309
GRIDFORMAT_END
 95
       16
302
GRIDFORMAT
  1
GRIDFORMAT_BEGIN
 90
        0
 91
        1
 62
     0
 92
       -2
340
0
 93
        0
 40
1.125
309
GRIDFORMAT_END
 95
       32
302
GRIDFORMAT
  1
GRIDFORMAT_BEGIN
 90
        0
 91
        1
 62
     0
 92
       -2
340
0
 93
        0
 40
1.125
309
GRIDFORMAT_END
309
TABLEFORMAT_END
  1
CELLSTYLE_BEGIN
 90
        1
 91
        1
300
_TITLE
309
CELLSTYLE_END
300
CELLSTYLE
  1
TABLEFORMAT_BEGIN
 90
        5
170
     1
 91
        0
 92
        0
 62
   257
 93
        1
300
CONTENTFORMAT
  1
CONTENTFORMAT_BEGIN
 90
        0
 91
        0
 92
      512
 93
        0
300

 40
0.0
140
1.0
 94
        5
 62
     0
340
11
144
4.5
309
CONTENTFORMAT_END
171
     1
301
MARGIN
  1
CELLMARGIN_BEGIN
 40
1.5
 40
1.5
 40
1.5
 40
1.5
 40
4.5
 40
4.5
309
CELLMARGIN_END
 94
        6
 95
        1
302
GRIDFORMAT
  1
GRIDFORMAT_BEGIN
 90
        0
 91
        1
 62
     0
 92
       -2
340
0
 93
        0
 40
1.125
309
GRIDFORMAT_END
 95
        2
302
GRIDFORMAT
  1
GRIDFORMAT_BEGIN
 90
        0
 91
        1
 62
     0
 92
       -2
340
0
 93
        0
 40
1.125
309
GRIDFORMAT_END
 95
        4
302
GRIDFORMAT
  1
GRIDFORMAT_BEGIN
 90
        0
 91
        1
 62
     0
 92
       -2
340
0
 93
        0
 40
1.125
309
GRIDFORMAT_END
 95
        8
302
GRIDFORMAT
  1
GRIDFORMAT_BEGIN
 90
        0
 91
        1
 62
     0
 92
       -2
340
0
 93
        0
 40
1.125
309
GRIDFORMAT_END
 95
       16
302
GRIDFORMAT
  1
GRIDFORMAT_BEGIN
 90
        0
 91
        1
 62
     0
 92
       -2
340
0
 93
        0
 40
1.125
309
GRIDFORMAT_END
 95
       32
302
GRIDFORMAT
  1
GRIDFORMAT_BEGIN
 90
        0
 91
        1
 62
     0
 92
       -2
340
0
 93
        0
 40
1.125
309
GRIDFORMAT_END
309
TABLEFORMAT_END
  1
CELLSTYLE_BEGIN
 90
        2
 91
        1
300
_HEADER
309
CELLSTYLE_END
300
CELLSTYLE
  1
TABLEFORMAT_BEGIN
 90
        5
170
     1
 91
        0
 92
        0
 62
   257
 93
        1
300
CONTENTFORMAT
  1
CONTENTFORMAT_BEGIN
 90
        0
 91
        0
 92
      512
 93
        0
300

 40
0.0
140
1.0
 94
        2
 62
     0
340
11
144
4.5
309
CONTENTFORMAT_END
171
     1
301
MARGIN
  1
CELLMARGIN_BEGIN
 40
1.5
 40
1.5
 40
1.5
 40
1.5
 40
4.5
 40
4.5
309
CELLMARGIN_END
 94
        6
 95
        1
302
GRIDFORMAT
  1
GRIDFORMAT_BEGIN
 90
        0
 91
        1
 62
     0
 92
       -2
340
0
 93
        0
 40
1.125
309
GRIDFORMAT_END
 95
        2
302
GRIDFORMAT
  1
GRIDFORMAT_BEGIN
 90
        0
 91
        1
 62
     0
 92
       -2
340
0
 93
        0
 40
1.125
309
GRIDFORMAT_END
 95
        4
302
GRIDFORMAT
  1
GRIDFORMAT_BEGIN
 90
        0
 91
        1
 62
     0
 92
       -2
340
0
 93
        0
 40
1.125
309
GRIDFORMAT_END
 95
        8
302
GRIDFORMAT
  1
GRIDFORMAT_BEGIN
 90
        0
 91
        1
 62
     0
 92
       -2
340
0
 93
        0
 40
1.125
309
GRIDFORMAT_END
 95
       16
302
GRIDFORMAT
  1
GRIDFORMAT_BEGIN
 90
        0
 91
        1
 62
     0
 92
       -2
340
0
 93
        0
 40
1.125
309
GRIDFORMAT_END
 95
       32
302
GRIDFORMAT
  1
GRIDFORMAT_BEGIN
 90
        0
 91
        1
 62
     0
 92
       -2
340
0
 93
        0
 40
1.125
309
GRIDFORMAT_END
309
TABLEFORMAT_END
  1
CELLSTYLE_BEGIN
 90
        3
 91
        2
300
_DATA
309
CELLSTYLE_END
  0
ENDSEC
  0
SECTION
  2
ACDSDATA
 70
     2
 71
     8
  0
ACDSSCHEMA
 90
        0
  1
AcDb_Thumbnail_Schema
  2
AcDbDs::ID
280
    10
 91
        8
  2
Thumbnail_Data
280
    15
 91
        0
101
ACDSRECORD
 95
        0
 90
        1
  2
AcDbDs::TreatedAsObjectData
280
     1
291
     1
101
ACDSRECORD
 95
        0
 90
        2
  2
AcDbDs::Legacy
280
     1
291
     1
101
ACDSRECORD
  1
AcDbDs::ID
 90
        3
  2
AcDs:Indexable
280
     1
291
     1
101
ACDSRECORD
  1
AcDbDs::ID
 90
        4
  2
AcDbDs::HandleAttribute
280
     7
282
     1
  0
ACDSSCHEMA
 90
        1
  1
AcDbDs::TreatedAsObjectDataSchema
  2
AcDbDs::TreatedAsObjectData
280
     1
 91
        0
  0
ACDSSCHEMA
 90
        2
  1
AcDbDs::LegacySchema
  2
AcDbDs::Legacy
280
     1
 91
        0
  0
ACDSSCHEMA
 90
        3
  1
AcDbDs::IndexedPropertySchema
  2
AcDs:Indexable
280
     1
 91
        0
  0
ACDSSCHEMA
 90
        4
  1
AcDbDs::HandleAttributeSchema
  2
AcDbDs::HandleAttribute
280
     7
 91
        1
284
     1
  0
ACDSRECORD
 90
        0
  2
AcDbDs::ID
280
    10
320
333
  2
Thumbnail_Data
280
    15
 94
     2173
310
89504E470D0A1A0A0000000D4948445200000100000000A408030000004F56001800000300504C5445000000000000FFFFFF0000000000000000000000000000000000000000000000000000330000660000990000CC0000FF0033000033330033660033990033CC0033FF0066000066330066660066990066CC0066FF0099
310
000099330099660099990099CC0099FF00CC0000CC3300CC6600CC9900CCCC00CCFF00FF0000FF3300FF6600FF9900FFCC00FFFF3300003300333300663300993300CC3300FF3333003333333333663333993333CC3333FF3366003366333366663366993366CC3366FF3399003399333399663399993399CC3399FF33CC00
310
33CC3333CC6633CC9933CCCC33CCFF33FF0033FF3333FF6633FF9933FFCC33FFFF6600006600336600666600996600CC6600FF6633006633336633666633996633CC6633FF6666006666336666666666996666CC6666FF6699006699336699666699996699CC6699FF66CC0066CC3366CC6666CC9966CCCC66CCFF66FF0066
310
FF3366FF6666FF9966FFCC66FFFF9900009900339900669900999900CC9900FF9933009933339933669933999933CC9933FF9966009966339966669966999966CC9966FF9999009999339999669999999999CC9999FF99CC0099CC3399CC6699CC9999CCCC99CCFF99FF0099FF3399FF6699FF9999FFCC99FFFFCC0000CC00
310
33CC0066CC0099CC00CCCC00FFCC3300CC3333CC3366CC3399CC33CCCC33FFCC6600CC6633CC6666CC6699CC66CCCC66FFCC9900CC9933CC9966CC9999CC99CCCC99FFCCCC00CCCC33CCCC66CCCC99CCCCCCCCCCFFCCFF00CCFF33CCFF66CCFF99CCFFCCCCFFFFFF0000FF0033FF0066FF0099FF00CCFF00FFFF3300FF3333
310
FF3366FF3399FF33CCFF33FFFF6600FF6633FF6666FF6699FF66CCFF66FFFF9900FF9933FF9966FF9999FF99CCFF99FFFFCC00FFCC33FFCC66FFCC99FFCCCCFFCCFFFFFF00FFFF33FFFF66FFFF99FFFFCCFFFFFF0000000D0D0D1A1A1A2828283535354343435050505D5D5D6B6B6B787878868686939393A1A1A1AEAEAEBB
310
BBBBC9C9C9D6D6D6E4E4E4F1F1F1FFFFFF000000000000000000000000000000000000000000000000000000000000C11FEF66000005384944415478DAED9D597224210C44B9FF317587FC1FC7B8BB8AAD562502816B22E6C363BB271F29104BA1208B3FA1C52FC5CFB32E805FF16E108416EA3DD920F08C5E2AF6C020A8F4
310
EF0A8FA40E8F400F00F2F3076E7BC4F046794240BE7FF9641034C6DF00FC87722A7258048F1D00C909ECE39E471B8437A12F5FE36F2ED862E38AC1047D40D4F321ED143E0A7DD9E0CD2810757E1F1764ADEC2914DE0D834001211B26DC84C2EB3C00F15355E8C3069AB9409406D4B3050FA1A09C0C1D3820B6C1E0A1A09D0D
310
E2B4213F19C2C836204C87AF33C0916DC0580FC08D3582739F7464600060EC50B0013070285801D86D3058281802D8D74B470A055300776C601D0AC156BFDC59363745600F600B82BACCCBD9E40C000E6DF09D44CD0FA0C6201A2997009086429A27380300CDCFA2363CFA02A0ECB3B6355612D30E00B4F94B6553519C01B8
310
5A177818447008E0A90D4E1DEF14C02306C977CE03E0260264A9E04C002E1920497DA60420A7C72550769BD59D15DF00AA3648A3FEB3C1382D804A73A7E2A34DC55901C4996E4DFD0A00B204A9D8469A1F403ADF3B4879E70570D2F6F1BFF71C059B0288139DEA16FADC004EE5A75DE19400A22C2F13546CA94F09201AE870
310
D8F41303A837FF7EB028FD5EDCCAA31D01D8EC2F65F65BAEFC674B03FE7686CEF41FE8426C8D1C92887300FBE08693097234214037F5D2E69599ACF73B3B45B559A1DB0989D05EBF5C2C8F186F06360690EBBF6ED9CE07C5D82F4D7D75EFFA65EC2734D62FB2120087FAC90012FD3E5E9D0C7CFDA70740E6061007C282AFCE
310
BAD4CF07E04C3F11406A00590E403202F8D14F04E0533FEF8488CB0E8007C06B00F00E4979D5CF021071C082001C1B8004203680AC072036009604E0D800C4C3D228B6C19601E0D9000400BE0DC000E0DA0034005E0DA007101F735913806F03102E50F06D001200BF06D0DF21E2DC0044005811807F03FC01600018611EFC
310
FA9845A019007DF5BF3D8C11A68800BC3F8F10668800DC398F353180F8602A2C010C120149FB7700D0DB00D09D4B700F208F7F7300BFB6EB0820D36F0A20729E57FD2400DD0CA0D6AFBB5EBF3B00BD7EDF0008FA55007A4F0418FA3D03A0E8670170AB9F03A087018AFC6731002CFD6A009D06019A7E5591957E0078FA7D02
310
C8D73F349FEF110053BF470054FD7A00E6791057BF3F0064FD1C008699205BBF3E0FB00540D7EF0B00F8FA5D01282E2660F43D8E00542E26909500EC0732A9B72F1396C46C00204FFB4963AF1E80CD8248792F09E9179300C046BFD0F513F6050C62A04DF7E70740A3EE8F000062B135569C7EA0061C09404302956B996425
310
0065F7C7FD28C2F98096002AE14FFEA4A06E9D962F4C57B21FF6E7E80F49358C81CD628DECAF06204D01A075F89301A075F8B70933ED71F9BD854096DF3EFC49009A580016E14F0180F707D4BA873F03406C011A817DE9AFBD7ECA4B53E4CBE32A57F2369C6E33DE1B84102D60DAFC427A7394678178C26BA29FF3EE308443
310
20AE3C011BFDA4D7E7F7957A8A7C98C9675DA040B0006AEE37D876255DA1A1B5007AB89F0520C90514154873F7DBEC37D1EE11C2EB05EBB4D484A1FB8900F07ECD1269F05BEB27DE25F6EAFFDE5B3EEF3A3D795334F548BEBF9AA3150270219F7CA5662CE24206B29EBF937CF6ADB2B7AA65202FB7795672C7118062751C79
310
41A1EA17F21F11BF00CA93F3F816D4DE9FCC06E82C9F5F5F20F370A5AE120E8A8C75AA34C1AE30519651CA9F3A98898AACD4AC5CA73080FC466576F0A83347D7322B6D2A4DE15132D8F5F68D667587EFB800DDE537AD3778216E04F5D2BCE668B5B73FEA0AE703703608CA204FB0F8908B41707E00233FFF000342607CE06B
310
2A7E0000000049454E44AE426082
  0
ENDSEC
  0
EOF
