  0
SECTION
  2
HEADER
  9
$ACADVER
  1
AC1027
  9
$ACADMAINTVER
 70
   125
  9
$DWGCODEPAGE
  3
ANSI_1252
  9
$LASTSAVEDBY
  1
fleminab
  9
$REQUIREDVERSIONS
160
                 0
  9
$INSBASE
 10
0.0
 20
0.0
 30
0.0
  9
$EXTMIN
 10
4.729061740857531
 20
0.1800419612238926
 30
-0.0000000349181948
  9
$EXTMAX
 10
11.92455930150278
 20
12.3483383080695
 30
0.0000000814935746
  9
$LIMMIN
 10
0.0
 20
0.0
  9
$LIMMAX
 10
12.0
 20
9.0
  9
$ORTHOMODE
 70
     0
  9
$REGENMODE
 70
     1
  9
$FILLMODE
 70
     1
  9
$QTEXTMODE
 70
     0
  9
$MIRRTEXT
 70
     0
  9
$LTSCALE
 40
1.0
  9
$ATTMODE
 70
     1
  9
$TEXTSIZE
 40
0.2
  9
$TRACEWID
 40
0.05
  9
$TEXTSTYLE
  7
Standard
  9
$CLAYER
  8
0
  9
$CELTYPE
  6
ByLayer
  9
$CECOLOR
 62
   256
  9
$CELTSCALE
 40
1.0
  9
$DISPSILH
 70
     0
  9
$DIMSCALE
 40
1.0
  9
$DIMASZ
 40
0.18
  9
$DIMEXO
 40
0.0625
  9
$DIMDLI
 40
0.38
  9
$DIMRND
 40
0.0
  9
$DIMDLE
 40
0.0
  9
$DIMEXE
 40
0.18
  9
$DIMTP
 40
0.0
  9
$DIMTM
 40
0.0
  9
$DIMTXT
 40
0.18
  9
$DIMCEN
 40
0.09
  9
$DIMTSZ
 40
0.0
  9
$DIMTOL
 70
     0
  9
$DIMLIM
 70
     0
  9
$DIMTIH
 70
     1
  9
$DIMTOH
 70
     1
  9
$DIMSE1
 70
     0
  9
$DIMSE2
 70
     0
  9
$DIMTAD
 70
     0
  9
$DIMZIN
 70
     0
  9
$DIMBLK
  1

  9
$DIMASO
 70
     1
  9
$DIMSHO
 70
     1
  9
$DIMPOST
  1

  9
$DIMAPOST
  1

  9
$DIMALT
 70
     0
  9
$DIMALTD
 70
     2
  9
$DIMALTF
 40
25.4
  9
$DIMLFAC
 40
1.0
  9
$DIMTOFL
 70
     0
  9
$DIMTVP
 40
0.0
  9
$DIMTIX
 70
     0
  9
$DIMSOXD
 70
     0
  9
$DIMSAH
 70
     0
  9
$DIMBLK1
  1

  9
$DIMBLK2
  1

  9
$DIMSTYLE
  2
Standard
  9
$DIMCLRD
 70
     0
  9
$DIMCLRE
 70
     0
  9
$DIMCLRT
 70
     0
  9
$DIMTFAC
 40
1.0
  9
$DIMGAP
 40
0.09
  9
$DIMJUST
 70
     0
  9
$DIMSD1
 70
     0
  9
$DIMSD2
 70
     0
  9
$DIMTOLJ
 70
     1
  9
$DIMTZIN
 70
     0
  9
$DIMALTZ
 70
     0
  9
$DIMALTTZ
 70
     0
  9
$DIMUPT
 70
     0
  9
$DIMDEC
 70
     4
  9
$DIMTDEC
 70
     4
  9
$DIMALTU
 70
     2
  9
$DIMALTTD
 70
     2
  9
$DIMTXSTY
  7
Standard
  9
$DIMAUNIT
 70
     0
  9
$DIMADEC
 70
     0
  9
$DIMALTRND
 40
0.0
  9
$DIMAZIN
 70
     0
  9
$DIMDSEP
 70
    46
  9
$DIMATFIT
 70
     3
  9
$DIMFRAC
 70
     0
  9
$DIMLDRBLK
  1

  9
$DIMLUNIT
 70
     2
  9
$DIMLWD
 70
    -2
  9
$DIMLWE
 70
    -2
  9
$DIMTMOVE
 70
     0
  9
$DIMFXL
 40
1.0
  9
$DIMFXLON
 70
     0
  9
$DIMJOGANG
 40
0.7853981633974483
  9
$DIMTFILL
 70
     0
  9
$DIMTFILLCLR
 70
     0
  9
$DIMARCSYM
 70
     0
  9
$DIMLTYPE
  6

  9
$DIMLTEX1
  6

  9
$DIMLTEX2
  6

  9
$DIMTXTDIRECTION
 70
     0
  9
$LUNITS
 70
     2
  9
$LUPREC
 70
     4
  9
$SKETCHINC
 40
0.1
  9
$FILLETRAD
 40
0.0
  9
$AUNITS
 70
     0
  9
$AUPREC
 70
     0
  9
$MENU
  1
.
  9
$ELEVATION
 40
0.0
  9
$PELEVATION
 40
0.0
  9
$THICKNESS
 40
0.0
  9
$LIMCHECK
 70
     0
  9
$CHAMFERA
 40
0.0
  9
$CHAMFERB
 40
0.0
  9
$CHAMFERC
 40
0.0
  9
$CHAMFERD
 40
0.0
  9
$SKPOLY
 70
     0
  9
$TDCREATE
 40
2458248.515717593
  9
$TDUCREATE
 40
2458248.099050926
  9
$TDUPDATE
 40
2458248.516053241
  9
$TDUUPDATE
 40
2458248.099386574
  9
$TDINDWG
 40
0.0003356481
  9
$TDUSRTIMER
 40
0.0003356481
  9
$USRTIMER
 70
     1
  9
$ANGBASE
 50
0.0
  9
$ANGDIR
 70
     0
  9
$PDMODE
 70
     0
  9
$PDSIZE
 40
0.0
  9
$PLINEWID
 40
0.0
  9
$SPLFRAME
 70
     0
  9
$SPLINETYPE
 70
     6
  9
$SPLINESEGS
 70
     8
  9
$HANDSEED
  5
382
  9
$SURFTAB1
 70
     6
  9
$SURFTAB2
 70
     6
  9
$SURFTYPE
 70
     6
  9
$SURFU
 70
     6
  9
$SURFV
 70
     6
  9
$UCSBASE
  2

  9
$UCSNAME
  2

  9
$UCSORG
 10
0.0
 20
0.0
 30
0.0
  9
$UCSXDIR
 10
1.0
 20
0.0
 30
0.0
  9
$UCSYDIR
 10
0.0
 20
1.0
 30
0.0
  9
$UCSORTHOREF
  2

  9
$UCSORTHOVIEW
 70
     0
  9
$UCSORGTOP
 10
0.0
 20
0.0
 30
0.0
  9
$UCSORGBOTTOM
 10
0.0
 20
0.0
 30
0.0
  9
$UCSORGLEFT
 10
0.0
 20
0.0
 30
0.0
  9
$UCSORGRIGHT
 10
0.0
 20
0.0
 30
0.0
  9
$UCSORGFRONT
 10
0.0
 20
0.0
 30
0.0
  9
$UCSORGBACK
 10
0.0
 20
0.0
 30
0.0
  9
$PUCSBASE
  2

  9
$PUCSNAME
  2

  9
$PUCSORG
 10
0.0
 20
0.0
 30
0.0
  9
$PUCSXDIR
 10
1.0
 20
0.0
 30
0.0
  9
$PUCSYDIR
 10
0.0
 20
1.0
 30
0.0
  9
$PUCSORTHOREF
  2

  9
$PUCSORTHOVIEW
 70
     0
  9
$PUCSORGTOP
 10
0.0
 20
0.0
 30
0.0
  9
$PUCSORGBOTTOM
 10
0.0
 20
0.0
 30
0.0
  9
$PUCSORGLEFT
 10
0.0
 20
0.0
 30
0.0
  9
$PUCSORGRIGHT
 10
0.0
 20
0.0
 30
0.0
  9
$PUCSORGFRONT
 10
0.0
 20
0.0
 30
0.0
  9
$PUCSORGBACK
 10
0.0
 20
0.0
 30
0.0
  9
$USERI1
 70
     0
  9
$USERI2
 70
     0
  9
$USERI3
 70
     0
  9
$USERI4
 70
     0
  9
$USERI5
 70
     0
  9
$USERR1
 40
0.0
  9
$USERR2
 40
0.0
  9
$USERR3
 40
0.0
  9
$USERR4
 40
0.0
  9
$USERR5
 40
0.0
  9
$WORLDVIEW
 70
     1
  9
$SHADEDGE
 70
     3
  9
$SHADEDIF
 70
    70
  9
$TILEMODE
 70
     1
  9
$MAXACTVP
 70
    64
  9
$PINSBASE
 10
0.0
 20
0.0
 30
0.0
  9
$PLIMCHECK
 70
     0
  9
$PEXTMIN
 10
1.000000000000000E+20
 20
1.000000000000000E+20
 30
1.000000000000000E+20
  9
$PEXTMAX
 10
-1.000000000000000E+20
 20
-1.000000000000000E+20
 30
-1.000000000000000E+20
  9
$PLIMMIN
 10
-0.7524054877282309
 20
-0.5025428238148726
  9
$PLIMMAX
 10
35.24759547345533
 20
23.49745621500156
  9
$UNITMODE
 70
     0
  9
$VISRETAIN
 70
     1
  9
$PLINEGEN
 70
     0
  9
$PSLTSCALE
 70
     1
  9
$TREEDEPTH
 70
  3020
  9
$CMLSTYLE
  2
Standard
  9
$CMLJUST
 70
     0
  9
$CMLSCALE
 40
1.0
  9
$PROXYGRAPHICS
 70
     1
  9
$MEASUREMENT
 70
     0
  9
$CELWEIGHT
370
    -1
  9
$ENDCAPS
280
     0
  9
$JOINSTYLE
280
     0
  9
$LWDISPLAY
290
     0
  9
$INSUNITS
 70
     1
  9
$HYPERLINKBASE
  1

  9
$STYLESHEET
  1

  9
$XEDIT
290
     1
  9
$CEPSNTYPE
380
     0
  9
$PSTYLEMODE
290
     1
  9
$FINGERPRINTGUID
  2
{B7E6EA4B-80A0-8F4A-BF2F-66F53482C90D}
  9
$VERSIONGUID
  2
{8FFB0961-9C44-8B48-A30E-FA8FF5D0B5C9}
  9
$EXTNAMES
290
     1
  9
$PSVPSCALE
 40
0.0
  9
$OLESTARTUP
290
     0
  9
$SORTENTS
280
   127
  9
$INDEXCTL
280
     0
  9
$HIDETEXT
280
     0
  9
$XCLIPFRAME
280
     0
  9
$HALOGAP
280
     0
  9
$OBSCOLOR
 70
   257
  9
$OBSLTYPE
280
     0
  9
$INTERSECTIONDISPLAY
280
     0
  9
$INTERSECTIONCOLOR
 70
   257
  9
$DIMASSOC
280
     1
  9
$PROJECTNAME
  1

  9
$CAMERADISPLAY
290
     0
  9
$LENSLENGTH
 40
50.0
  9
$CAMERAHEIGHT
 40
0.0
  9
$STEPSPERSEC
 40
2.0
  9
$STEPSIZE
 40
6.0
  9
$3DDWFPREC
 40
2.0
  9
$PSOLWIDTH
 40
0.25
  9
$PSOLHEIGHT
 40
4.0
  9
$LOFTANG1
 40
1.570796326794896
  9
$LOFTANG2
 40
1.570796326794896
  9
$LOFTMAG1
 40
0.0
  9
$LOFTMAG2
 40
0.0
  9
$LOFTPARAM
 70
     7
  9
$LOFTNORMALS
280
     1
  9
$LATITUDE
 40
37.795
  9
$LONGITUDE
 40
-122.394
  9
$NORTHDIRECTION
 40
0.0
  9
$TIMEZONE
 70
 -8000
  9
$LIGHTGLYPHDISPLAY
280
     1
  9
$TILEMODELIGHTSYNCH
280
     1
  9
$CMATERIAL
347
7F
  9
$SOLIDHIST
280
     1
  9
$SHOWHIST
280
     1
  9
$DWFFRAME
280
     2
  9
$DGNFRAME
280
     0
  9
$REALWORLDSCALE
290
     1
  9
$INTERFERECOLOR
 62
     1
  9
$INTERFEREOBJVS
345
8C
  9
$INTERFEREVPVS
346
A5
  9
$CSHADOW
280
     0
  9
$SHADOWPLANELOCATION
 40
0.0
  0
ENDSEC
  0
SECTION
  2
CLASSES
  0
CLASS
  1
ACDBDICTIONARYWDFLT
  2
AcDbDictionaryWithDefault
  3
ObjectDBX Classes
 90
        0
 91
        1
280
     0
281
     0
  0
CLASS
  1
PLOTSETTINGS
  2
AcDbPlotSettings
  3
ObjectDBX Classes
 90
        0
 91
        0
280
     0
281
     0
  0
CLASS
  1
MATERIAL
  2
AcDbMaterial
  3
ObjectDBX Classes
 90
     1153
 91
        3
280
     0
281
     0
  0
CLASS
  1
VISUALSTYLE
  2
AcDbVisualStyle
  3
ObjectDBX Classes
 90
     4095
 91
       26
280
     0
281
     0
  0
CLASS
  1
TABLESTYLE
  2
AcDbTableStyle
  3
ObjectDBX Classes
 90
     4095
 91
        1
280
     0
281
     0
  0
CLASS
  1
DICTIONARYVAR
  2
AcDbDictionaryVar
  3
ObjectDBX Classes
 90
        0
 91
       17
280
     0
281
     0
  0
CLASS
  1
SCALE
  2
AcDbScale
  3
ObjectDBX Classes
 90
     1153
 91
       17
280
     0
281
     0
  0
CLASS
  1
MLEADERSTYLE
  2
AcDbMLeaderStyle
  3
ACDB_MLEADERSTYLE_CLASS
 90
     4095
 91
        1
280
     0
281
     0
  0
CLASS
  1
ACDBSECTIONVIEWSTYLE
  2
AcDbSectionViewStyle
  3
ObjectDBX Classes
 90
     1025
 91
        1
280
     0
281
     0
  0
CLASS
  1
ACDBDETAILVIEWSTYLE
  2
AcDbDetailViewStyle
  3
ObjectDBX Classes
 90
     1025
 91
        1
280
     0
281
     0
  0
CLASS
  1
CELLSTYLEMAP
  2
AcDbCellStyleMap
  3
ObjectDBX Classes
 90
     1152
 91
        1
280
     0
281
     0
  0
ENDSEC
  0
SECTION
  2
TABLES
  0
TABLE
  2
VPORT
  5
19
330
0
100
AcDbSymbolTable
 70
     1
1001
ACAD
1000
DbSaveVer
1071
        5
  0
VPORT
  5
7D
330
19
100
AcDbSymbolTableRecord
100
AcDbViewportTableRecord
  2
*Active
 70
     0
 10
0.0
 20
0.0
 11
1.0
 21
1.0
 12
8.326810521180155
 22
6.264190134646696
 13
0.0
 23
0.0
 14
0.5
 24
0.5
 15
0.5
 25
0.5
 16
0.0
 26
0.0
 36
1.0
 17
0.0
 27
0.0
 37
0.0
 40
12.25542018703782
 41
2.292712066905615
 42
50.0
 43
0.0
 44
0.0
 50
0.0
 51
0.0
 71
     0
 72
  1000
 73
     1
 74
     3
 75
     0
 76
     0
 77
     0
 78
     0
281
     0
 65
     1
110
0.0
120
0.0
130
0.0
111
1.0
121
0.0
131
0.0
112
0.0
122
1.0
132
0.0
 79
     0
146
0.0
348
88
 60
     3
 61
     5
292
     1
282
     1
141
0.0
142
0.0
 63
   250
421
  3355443
1001
ACAD_NAV_VCDISPLAY
1070
     3
  0
ENDTAB
  0
TABLE
  2
LTYPE
  5
14
330
0
100
AcDbSymbolTable
 70
     1
  0
LTYPE
  5
15
330
14
100
AcDbSymbolTableRecord
100
AcDbLinetypeTableRecord
  2
ByBlock
 70
     0
  3

 72
    65
 73
     0
 40
0.0
  0
LTYPE
  5
16
330
14
100
AcDbSymbolTableRecord
100
AcDbLinetypeTableRecord
  2
ByLayer
 70
     0
  3

 72
    65
 73
     0
 40
0.0
  0
LTYPE
  5
8
330
14
100
AcDbSymbolTableRecord
100
AcDbLinetypeTableRecord
  2
Continuous
 70
     0
  3
Solid line
 72
    65
 73
     0
 40
0.0
  0
ENDTAB
  0
TABLE
  2
LAYER
  5
10
330
0
100
AcDbSymbolTable
 70
     4
  0
LAYER
  5
4
102
{ACAD_XDICTIONARY
360
35D
102
}
330
10
100
AcDbSymbolTableRecord
100
AcDbLayerTableRecord
  2
0
 70
     0
 62
     7
  6
Continuous
370
    -3
390
5
347
81
348
0
  0
LAYER
  5
25
102
{ACAD_XDICTIONARY
360
35F
102
}
330
10
100
AcDbSymbolTableRecord
100
AcDbLayerTableRecord
  2
Title Block
 70
     0
 62
     7
  6
Continuous
370
    -3
390
5
347
81
348
0
  0
LAYER
  5
CE
102
{ACAD_XDICTIONARY
360
361
102
}
330
10
100
AcDbSymbolTableRecord
100
AcDbLayerTableRecord
  2
PDF_Layer 1
 70
     0
 62
    28
420
  1052429
  6
Continuous
370
    -3
390
5
347
81
348
0
  0
LAYER
  5
DB
102
{ACAD_XDICTIONARY
360
363
102
}
330
10
100
AcDbSymbolTableRecord
100
AcDbLayerTableRecord
  2
PDF_Text
 70
     0
 62
   250
420
  2301728
  6
Continuous
370
    -3
390
5
347
81
348
0
  0
ENDTAB
  0
TABLE
  2
STYLE
  5
11
330
0
100
AcDbSymbolTable
 70
     3
  0
STYLE
  5
12
330
11
100
AcDbSymbolTableRecord
100
AcDbTextStyleTableRecord
  2
Standard
 70
     0
 40
0.0
 41
1.0
 50
0.0
 71
     0
 42
0.2
  3
txt
  4

  0
STYLE
  5
27
330
11
100
AcDbSymbolTableRecord
100
AcDbTextStyleTableRecord
  2
Roman
 70
     0
 40
0.0
 41
1.0
 50
0.0
 71
     0
 42
0.2
  3
ROMANS.SHX
  4

  0
STYLE
  5
DA
330
11
100
AcDbSymbolTableRecord
100
AcDbTextStyleTableRecord
  2
PDF Arial
 70
     0
 40
0.0
 41
1.0
 50
0.0
 71
     0
 42
0.2
  3
arial.ttf
  4

1001
ACAD
1000
Arial
1071
       34
  0
ENDTAB
  0
TABLE
  2
VIEW
  5
17
330
0
100
AcDbSymbolTable
 70
     0
  0
ENDTAB
  0
TABLE
  2
UCS
  5
18
330
0
100
AcDbSymbolTable
 70
     0
  0
ENDTAB
  0
TABLE
  2
APPID
  5
1B
330
0
100
AcDbSymbolTable
 70
     2
  0
APPID
  5
1C
330
1B
100
AcDbSymbolTableRecord
100
AcDbRegAppTableRecord
  2
ACAD
 70
     0
  0
APPID
  5
365
330
1B
100
AcDbSymbolTableRecord
100
AcDbRegAppTableRecord
  2
ACAD_NAV_VCDISPLAY
 70
     0
  0
ENDTAB
  0
TABLE
  2
DIMSTYLE
  5
1D
330
0
100
AcDbSymbolTable
 70
     1
100
AcDbDimStyleTable
 71
     0
  0
DIMSTYLE
105
23
330
1D
100
AcDbSymbolTableRecord
100
AcDbDimStyleTableRecord
  2
Standard
 70
     0
340
12
  0
ENDTAB
  0
TABLE
  2
BLOCK_RECORD
  5
1
330
0
100
AcDbSymbolTable
 70
     0
  0
BLOCK_RECORD
  5
2
330
1
100
AcDbSymbolTableRecord
100
AcDbBlockTableRecord
  2
*Model_Space
340
A
 70
     0
280
     1
281
     0
  0
BLOCK_RECORD
  5
C
330
1
100
AcDbSymbolTableRecord
100
AcDbBlockTableRecord
  2
*Paper_Space
340
F
 70
     0
280
     1
281
     0
  0
ENDTAB
  0
ENDSEC
  0
SECTION
  2
BLOCKS
  0
BLOCK
  5
3
330
2
100
AcDbEntity
  8
0
100
AcDbBlockBegin
  2
*Model_Space
 70
     2
 10
0.0
 20
0.0
 30
0.0
  3
*Model_Space
  1

  0
ENDBLK
  5
9
330
2
100
AcDbEntity
  8
0
100
AcDbBlockEnd
  0
BLOCK
  5
D
330
C
100
AcDbEntity
 67
     1
  8
0
100
AcDbBlockBegin
  2
*Paper_Space
 70
     0
 10
0.0
 20
0.0
 30
0.0
  3
*Paper_Space
  1

  0
ENDBLK
  5
E
330
C
100
AcDbEntity
 67
     1
  8
0
100
AcDbBlockEnd
  0
ENDSEC
  0
SECTION
  2
ENTITIES
  0
SOLID
  5
CF
330
2
100
AcDbEntity
  8
PDF_Layer 1
 62
     7
420
 16777215
440
 33554559
370
    30
100
AcDbTrace
 10
11.91213611111111
 20
4.034397222222221
 30
0.0
 11
11.87035833333333
 21
4.01666111111111
 31
0.0
 12
11.87035833333333
 22
3.935369444444443
 32
0.0
 13
11.82858055555555
 23
4.034397222222221
 33
0.0
  0
SOLID
  5
D0
330
2
100
AcDbEntity
  8
PDF_Layer 1
 62
     7
420
 16777215
440
 33554559
370
    30
100
AcDbTrace
 10
11.91213611111111
 20
10.80586805555555
 30
0.0
 11
11.87035833333333
 21
10.82361805555555
 31
0.0
 12
11.87035833333333
 22
10.90489583333333
 32
0.0
 13
11.82858055555555
 23
10.80586805555555
 33
0.0
  0
SOLID
  5
D1
330
2
100
AcDbEntity
  8
PDF_Layer 1
 62
     7
420
 16777215
440
 33554559
370
    30
100
AcDbTrace
 10
9.421766666666663
 20
2.548286111111111
 30
0.0
 11
9.439794444444441
 21
2.506619444444444
 31
0.0
 12
9.383766666666662
 22
2.447744444444444
 32
0.0
 13
9.482294444444441
 23
2.490688888888888
 33
0.0
  0
SOLID
  5
D2
330
2
100
AcDbEntity
  8
PDF_Layer 1
 62
     7
420
 16777215
440
 33554559
370
    30
100
AcDbTrace
 10
7.464009722222222
 20
0.4918208333333333
 30
0.0
 11
7.506509722222222
 21
0.4759041666666666
 31
0.0
 12
7.5625375
 22
0.5347930555555555
 32
0.0
 13
7.524551388888888
 23
0.4342375
 33
0.0
  0
SOLID
  5
D3
330
2
100
AcDbEntity
  8
PDF_Layer 1
 62
     7
420
 16777215
440
 33554559
370
    30
100
AcDbTrace
 10
11.30858055555555
 20
1.594373611111111
 30
0.0
 11
11.34701111111111
 21
1.618540277777777
 31
0.0
 12
11.33408055555555
 22
1.698804166666666
 32
0.0
 13
11.39106666666666
 23
1.607665277777777
 33
0.0
  0
SOLID
  5
D4
330
2
100
AcDbEntity
  8
PDF_Layer 1
 62
     7
420
 16777215
440
 33554559
370
    30
100
AcDbTrace
 10
11.33454027777778
 20
1.95775
 30
0.0
 11
11.29612361111111
 21
1.933541666666666
 31
0.0
 12
11.3091375
 22
1.853305555555555
 32
0.0
 13
11.25206805555555
 23
1.944375
 33
0.0
  0
SOLID
  5
D5
330
2
100
AcDbEntity
  8
PDF_Layer 1
 62
     7
420
 16777215
440
 33554559
370
    30
100
AcDbTrace
 10
10.84429305555555
 20
11.98714166666666
 30
0.0
 11
10.86202916666666
 21
11.94536388888889
 31
0.0
 12
10.94332083333333
 22
11.94536388888889
 32
0.0
 13
10.84429305555555
 23
11.90358611111111
 33
0.0
  0
SOLID
  5
D6
330
2
100
AcDbEntity
  8
PDF_Layer 1
 62
     7
420
 16777215
440
 33554559
370
    30
100
AcDbTrace
 10
5.80233472222222
 20
11.98714166666666
 30
0.0
 11
5.78458472222222
 21
11.94536388888889
 31
0.0
 12
5.703306944444443
 22
11.94536388888889
 32
0.0
 13
5.80233472222222
 23
11.90358611111111
 33
0.0
  0
SOLID
  5
D7
330
2
100
AcDbEntity
  8
PDF_Layer 1
 62
     7
420
 16777215
440
 33554559
370
    30
100
AcDbTrace
 10
5.100193055555554
 20
10.80586805555555
 30
0.0
 11
5.141970833333332
 21
10.82361805555555
 31
0.0
 12
5.141970833333332
 22
10.90489583333333
 32
0.0
 13
5.18374861111111
 23
10.80586805555555
 33
0.0
  0
SOLID
  5
D8
330
2
100
AcDbEntity
  8
PDF_Layer 1
 62
     7
420
 16777215
440
 33554559
370
    30
100
AcDbTrace
 10
5.100193055555554
 20
7.045593055555555
 30
0.0
 11
5.141970833333332
 21
7.027843055555554
 31
0.0
 12
5.141970833333332
 22
6.946565277777777
 32
0.0
 13
5.18374861111111
 23
7.045593055555555
 33
0.0
  0
LWPOLYLINE
  5
DC
330
2
100
AcDbEntity
  8
PDF_Layer 1
 62
     7
420
 16777215
370
    30
100
AcDbPolyline
 90
        2
 70
     0
 43
0.0
 10
8.333977777777777
 20
6.654873611111111
 10
8.333977777777777
 20
6.733165277777778
  0
LWPOLYLINE
  5
DD
330
2
100
AcDbEntity
  8
PDF_Layer 1
 62
     7
420
 16777215
370
    30
100
AcDbPolyline
 90
        2
 70
     0
 43
0.0
 10
8.333977777777777
 20
6.733168055555553
 10
8.333977777777777
 20
6.81145972222222
  0
LWPOLYLINE
  5
DE
330
2
100
AcDbEntity
  8
PDF_Layer 1
 62
     7
420
 16777215
370
    30
100
AcDbPolyline
 90
        2
 70
     0
 43
0.0
 10
8.333977777777777
 20
6.811462499999998
 10
8.333977777777777
 20
7.063670833333331
  0
LWPOLYLINE
  5
DF
330
2
100
AcDbEntity
  8
PDF_Layer 1
 62
     7
420
 16777215
370
    30
100
AcDbPolyline
 90
        2
 70
     0
 43
0.0
 10
8.333977777777777
 20
7.115620833333332
 10
8.333977777777777
 20
7.27289861111111
  0
LWPOLYLINE
  5
E0
330
2
100
AcDbEntity
  8
PDF_Layer 1
 62
     7
420
 16777215
370
    30
100
AcDbPolyline
 90
        2
 70
     0
 43
0.0
 10
8.333977777777777
 20
7.324869444444443
 10
8.333977777777777
 20
7.577077777777777
  0
LWPOLYLINE
  5
E1
330
2
100
AcDbEntity
  8
PDF_Layer 1
 62
     7
420
 16777215
370
    30
100
AcDbPolyline
 90
        2
 70
     0
 43
0.0
 10
8.333977777777777
 20
7.577080555555554
 10
8.333977777777777
 20
7.655358333333333
  0
LWPOLYLINE
  5
E2
330
2
100
AcDbEntity
  8
PDF_Layer 1
 62
     7
420
 16777215
370
    30
100
AcDbPolyline
 90
        2
 70
     0
 43
0.0
 10
8.333977777777777
 20
7.655354166666667
 10
8.333977777777777
 20
7.733645833333333
  0
LWPOLYLINE
  5
E3
330
2
100
AcDbEntity
  8
PDF_Layer 1
 62
     7
420
 16777215
370
    30
100
AcDbPolyline
 90
        2
 70
     0
 43
0.0
 10
8.471843055555556
 20
0.725315277777778
 10
8.471843055555556
 20
0.2216069444444446
  0
LWPOLYLINE
  5
E4
330
2
100
AcDbEntity
  8
PDF_Layer 1
 62
     7
420
 16777215
370
    30
100
AcDbPolyline
 90
        3
 70
     0
 43
0.0
 10
8.471843055555556
 20
1.993276388888889
 10
8.471843055555556
 20
1.490248611111111
 10
8.471843055555556
 20
0.9865402777777779
  0
LWPOLYLINE
  5
E5
330
2
100
AcDbEntity
  8
PDF_Layer 1
 62
     7
420
 16777215
370
    30
100
AcDbPolyline
 90
        2
 70
     0
 43
0.0
 10
8.471843055555556
 20
0.9345708333333334
 10
8.471843055555556
 20
0.7772930555555556
  0
LWPOLYLINE
  5
E7
330
2
100
AcDbEntity
  8
PDF_Layer 1
 62
     7
420
 16777215
370
    30
100
AcDbPolyline
 90
        2
 70
     0
 43
0.0
 10
8.471843055555556
 20
2.045924999999999
 10
8.471843055555556
 20
2.202494444444444
  0
LWPOLYLINE
  5
E8
330
2
100
AcDbEntity
  8
PDF_Layer 1
 62
     7
420
 16777215
370
    30
100
AcDbPolyline
 90
        2
 70
     0
 43
0.0
 10
8.471843055555556
 20
2.2544625
 10
8.471843055555556
 20
2.758198611111111
  0
LWPOLYLINE
  5
E9
330
2
100
AcDbEntity
  8
PDF_Layer 1
 62
     7
420
 16777215
370
    30
100
AcDbPolyline
 90
        2
 70
     0
 43
0.0
 10
7.707620833333333
 20
1.490248611111111
 10
7.204620833333333
 20
1.490248611111111
  0
LWPOLYLINE
  5
EA
330
2
100
AcDbEntity
  8
PDF_Layer 1
 62
     7
420
 16777215
370
    30
100
AcDbPolyline
 90
        3
 70
     0
 43
0.0
 10
8.974884722222222
 20
1.490248611111111
 10
8.471843055555556
 20
1.490248611111111
 10
7.968843055555556
 20
1.490248611111111
  0
LWPOLYLINE
  5
EB
330
2
100
AcDbEntity
  8
PDF_Layer 1
 62
     7
420
 16777215
370
    30
100
AcDbPolyline
 90
        2
 70
     0
 43
0.0
 10
7.916869444444444
 20
1.490248611111111
 10
7.759591666666666
 20
1.490248611111111
  0
LWPOLYLINE
  5
ED
330
2
100
AcDbEntity
  8
PDF_Layer 1
 62
     7
420
 16777215
370
    30
100
AcDbPolyline
 90
        2
 70
     0
 43
0.0
 10
9.027533333333332
 20
1.490248611111111
 10
9.184116666666666
 20
1.490248611111111
  0
LWPOLYLINE
  5
EE
330
2
100
AcDbEntity
  8
PDF_Layer 1
 62
     7
420
 16777215
370
    30
100
AcDbPolyline
 90
        2
 70
     0
 43
0.0
 10
9.236776388888886
 20
1.490248611111111
 10
9.739776388888886
 20
1.490248611111111
  0
LWPOLYLINE
  5
EF
330
2
100
AcDbEntity
  8
PDF_Layer 1
 62
     7
420
 16777215
370
    30
100
AcDbPolyline
 90
        2
 70
     0
 43
0.0
 10
8.471843055555556
 20
0.4045277777777778
 10
8.471843055555556
 20
0.3920555555555555
  0
LWPOLYLINE
  5
F0
330
2
100
AcDbEntity
  8
PDF_Layer 1
 62
     7
420
 16777215
370
    30
100
AcDbPolyline
 90
        3
 70
     0
 43
0.0
 10
8.471843055555556
 20
0.6927597222222223
 10
8.471843055555556
 20
0.6795791666666668
 10
8.471843055555556
 20
0.6664402777777779
  0
LWPOLYLINE
  5
F1
330
2
100
AcDbEntity
  8
PDF_Layer 1
 62
     7
420
 16777215
370
    30
100
AcDbPolyline
 90
        2
 70
     0
 43
0.0
 10
8.471843055555556
 20
0.6137833333333333
 10
8.471843055555556
 20
0.4571861111111112
  0
LWPOLYLINE
  5
F3
330
2
100
AcDbEntity
  8
PDF_Layer 1
 62
     7
420
 16777215
370
    30
100
AcDbPolyline
 90
        2
 70
     0
 43
0.0
 10
8.471843055555556
 20
0.7447236111111112
 10
8.471843055555556
 20
0.9019875
  0
LWPOLYLINE
  5
F4
330
2
100
AcDbEntity
  8
PDF_Layer 1
 62
     7
420
 16777215
370
    30
100
AcDbPolyline
 90
        2
 70
     0
 43
0.0
 10
8.471843055555556
 20
0.9539652777777776
 10
8.471843055555556
 20
0.9671319444444442
  0
LWPOLYLINE
  5
F5
330
2
100
AcDbEntity
  8
PDF_Layer 1
 62
     7
420
 16777215
370
    30
100
AcDbPolyline
 90
        2
 70
     0
 43
0.0
 10
8.19747638888889
 20
0.6795791666666668
 10
8.184323611111112
 20
0.6795791666666668
  0
LWPOLYLINE
  5
F6
330
2
100
AcDbEntity
  8
PDF_Layer 1
 62
     7
420
 16777215
370
    30
100
AcDbPolyline
 90
        3
 70
     0
 43
0.0
 10
8.485023611111111
 20
0.6795791666666668
 10
8.471843055555556
 20
0.6795791666666668
 10
8.458704166666667
 20
0.6795791666666668
  0
LWPOLYLINE
  5
F7
330
2
100
AcDbEntity
  8
PDF_Layer 1
 62
     7
420
 16777215
370
    30
100
AcDbPolyline
 90
        2
 70
     0
 43
0.0
 10
8.406724999999999
 20
0.6795791666666668
 10
8.250127777777777
 20
0.6795791666666668
  0
LWPOLYLINE
  5
F9
330
2
100
AcDbEntity
  8
PDF_Layer 1
 62
     7
420
 16777215
370
    30
100
AcDbPolyline
 90
        2
 70
     0
 43
0.0
 10
8.536987499999998
 20
0.6795791666666668
 10
8.694265277777775
 20
0.6795791666666668
  0
LWPOLYLINE
  5
FA
330
2
100
AcDbEntity
  8
PDF_Layer 1
 62
     7
420
 16777215
370
    30
100
AcDbPolyline
 90
        2
 70
     0
 43
0.0
 10
8.746243055555556
 20
0.6795791666666668
 10
8.759395833333334
 20
0.6795791666666668
  0
LWPOLYLINE
  5
FB
330
2
100
AcDbEntity
  8
PDF_Layer 1
 62
     7
420
 16777215
370
    30
100
AcDbPolyline
 90
        2
 70
     0
 43
0.0
 10
8.471843055555556
 20
2.025825
 10
8.471843055555556
 20
2.012672222222222
  0
LWPOLYLINE
  5
FC
330
2
100
AcDbEntity
  8
PDF_Layer 1
 62
     7
420
 16777215
370
    80
100
AcDbPolyline
 90
        3
 70
     0
 43
0.0
 10
8.471843055555556
 20
2.31336111111111
 10
8.471843055555556
 20
2.300902777777777
 10
8.471843055555556
 20
2.28773611111111
  0
LWPOLYLINE
  5
FD
330
2
100
AcDbEntity
  8
PDF_Layer 1
 62
     7
420
 16777215
370
    30
100
AcDbPolyline
 90
        2
 70
     0
 43
0.0
 10
8.471843055555556
 20
2.235080555555555
 10
8.471843055555556
 20
2.078497222222222
  0
LWPOLYLINE
  5
FF
330
2
100
AcDbEntity
  8
PDF_Layer 1
 62
     7
420
 16777215
370
    30
100
AcDbPolyline
 90
        2
 70
     0
 43
0.0
 10
8.471843055555556
 20
2.366034722222221
 10
8.471843055555556
 20
2.522604166666666
  0
LWPOLYLINE
  5
100
330
2
100
AcDbEntity
  8
PDF_Layer 1
 62
     7
420
 16777215
370
    80
100
AcDbPolyline
 90
        2
 70
     0
 43
0.0
 10
8.471843055555556
 20
2.5752625
 10
8.471843055555556
 20
2.588429166666666
  0
LWPOLYLINE
  5
101
330
2
100
AcDbEntity
  8
PDF_Layer 1
 62
     7
420
 16777215
370
    30
100
AcDbPolyline
 90
        2
 70
     0
 43
0.0
 10
8.19747638888889
 20
2.300902777777777
 10
8.184323611111112
 20
2.300902777777777
  0
LWPOLYLINE
  5
102
330
2
100
AcDbEntity
  8
PDF_Layer 1
 62
     7
420
 16777215
370
    80
100
AcDbPolyline
 90
        3
 70
     0
 43
0.0
 10
8.485023611111111
 20
2.300902777777777
 10
8.471843055555556
 20
2.300902777777777
 10
8.458704166666667
 20
2.300902777777777
  0
LWPOLYLINE
  5
103
330
2
100
AcDbEntity
  8
PDF_Layer 1
 62
     7
420
 16777215
370
    30
100
AcDbPolyline
 90
        2
 70
     0
 43
0.0
 10
8.406724999999999
 20
2.300902777777777
 10
8.250127777777777
 20
2.300902777777777
  0
LWPOLYLINE
  5
105
330
2
100
AcDbEntity
  8
PDF_Layer 1
 62
     7
420
 16777215
370
    30
100
AcDbPolyline
 90
        2
 70
     0
 43
0.0
 10
8.536987499999998
 20
2.300902777777777
 10
8.694265277777775
 20
2.300902777777777
  0
LWPOLYLINE
  5
106
330
2
100
AcDbEntity
  8
PDF_Layer 1
 62
     7
420
 16777215
370
    30
100
AcDbPolyline
 90
        2
 70
     0
 43
0.0
 10
8.746243055555556
 20
2.300902777777777
 10
8.759395833333334
 20
2.300902777777777
  0
LWPOLYLINE
  5
107
330
2
100
AcDbEntity
  8
PDF_Layer 1
 62
     7
420
 16777215
370
    80
100
AcDbPolyline
 90
        2
 70
     0
 43
0.0
 10
8.007636111111111
 20
6.942416666666666
 10
8.007636111111111
 20
6.889763888888889
  0
LWPOLYLINE
  5
108
330
2
100
AcDbEntity
  8
PDF_Layer 1
 62
     7
420
 16777215
370
    80
100
AcDbPolyline
 90
        2
 70
     0
 43
0.0
 10
8.661011111111111
 20
6.889763888888888
 10
8.661011111111111
 20
6.942416666666665
  0
LWPOLYLINE
  5
109
330
2
100
AcDbEntity
  8
PDF_Layer 1
 62
     7
420
 16777215
370
    80
100
AcDbPolyline
 90
        2
 70
     0
 43
0.0
 10
9.57697222222222
 20
4.134236111111111
 10
9.571416666666664
 20
4.134236111111111
  0
LWPOLYLINE
  5
10A
330
2
100
AcDbEntity
  8
PDF_Layer 1
 62
     7
420
 16777215
370
    80
100
AcDbPolyline
 90
        2
 70
     0
 43
0.0
 10
9.571411111111109
 20
4.134236111111111
 10
9.554119444444442
 20
4.134236111111111
  0
LWPOLYLINE
  5
10B
330
2
100
AcDbEntity
  8
PDF_Layer 1
 62
     7
420
 16777215
370
    80
100
AcDbPolyline
 90
        2
 70
     0
 43
0.0
 10
9.554118055555553
 20
4.134236111111111
 10
9.52640972222222
 20
4.134236111111111
  0
LWPOLYLINE
  5
10C
330
2
100
AcDbEntity
  8
PDF_Layer 1
 62
     7
420
 16777215
370
    80
100
AcDbPolyline
 90
        3
 70
     0
 43
0.0
 10
9.526408333333332
 20
4.134236111111111
 10
9.487588888888888
 20
4.134236111111111
 10
9.438394444444444
 20
4.134236111111111
  0
LWPOLYLINE
  5
10E
330
2
100
AcDbEntity
  8
PDF_Layer 1
 62
     7
420
 16777215
370
    80
100
AcDbPolyline
 90
        2
 70
     0
 43
0.0
 10
9.438395833333332
 20
4.134236111111111
 10
9.379506944444443
 20
4.134236111111111
  0
LWPOLYLINE
  5
10F
330
2
100
AcDbEntity
  8
PDF_Layer 1
 62
     7
420
 16777215
370
    80
100
AcDbPolyline
 90
        2
 70
     0
 43
0.0
 10
9.379502777777775
 20
4.134236111111111
 10
9.310933333333331
 20
4.134236111111111
  0
LWPOLYLINE
  5
110
330
2
100
AcDbEntity
  8
PDF_Layer 1
 62
     7
420
 16777215
370
    80
100
AcDbPolyline
 90
        2
 70
     0
 43
0.0
 10
9.310926388888889
 20
4.134236111111111
 10
9.233329166666667
 20
4.134236111111111
  0
LWPOLYLINE
  5
111
330
2
100
AcDbEntity
  8
PDF_Layer 1
 62
     7
420
 16777215
370
    80
100
AcDbPolyline
 90
        2
 70
     0
 43
0.0
 10
9.233330555555555
 20
4.134236111111111
 10
9.148108333333333
 20
4.134236111111111
  0
LWPOLYLINE
  5
112
330
2
100
AcDbEntity
  8
PDF_Layer 1
 62
     7
420
 16777215
370
    80
100
AcDbPolyline
 90
        2
 70
     0
 43
0.0
 10
9.148112499999998
 20
4.134236111111111
 10
9.055265277777776
 20
4.134236111111111
  0
LWPOLYLINE
  5
113
330
2
100
AcDbEntity
  8
PDF_Layer 1
 62
     7
420
 16777215
370
    80
100
AcDbPolyline
 90
        2
 70
     0
 43
0.0
 10
9.055270833333333
 20
4.134236111111111
 10
8.955479166666666
 20
4.134236111111111
  0
LWPOLYLINE
  5
114
330
2
100
AcDbEntity
  8
PDF_Layer 1
 62
     7
420
 16777215
370
    80
100
AcDbPolyline
 90
        3
 70
     0
 43
0.0
 10
8.955484722222223
 20
4.134236111111111
 10
8.850165277777778
 20
4.134236111111111
 10
8.740693055555555
 20
4.134236111111111
  0
LWPOLYLINE
  5
116
330
2
100
AcDbEntity
  8
PDF_Layer 1
 62
     7
420
 16777215
370
    80
100
AcDbPolyline
 90
        2
 70
     0
 43
0.0
 10
8.740695833333331
 20
4.134236111111111
 10
8.627070833333331
 20
4.134236111111111
  0
LWPOLYLINE
  5
117
330
2
100
AcDbEntity
  8
PDF_Layer 1
 62
     7
420
 16777215
370
    80
100
AcDbPolyline
 90
        2
 70
     0
 43
0.0
 10
8.627074999999999
 20
4.134236111111111
 10
8.510658333333333
 20
4.134236111111111
  0
LWPOLYLINE
  5
118
330
2
100
AcDbEntity
  8
PDF_Layer 1
 62
     7
420
 16777215
370
    80
100
AcDbPolyline
 90
        2
 70
     0
 43
0.0
 10
8.510661111111108
 20
4.134236111111111
 10
8.393563888888886
 20
4.134236111111111
  0
LWPOLYLINE
  5
119
330
2
100
AcDbEntity
  8
PDF_Layer 1
 62
     7
420
 16777215
370
    80
100
AcDbPolyline
 90
        2
 70
     0
 43
0.0
 10
8.393568055555553
 20
4.134236111111111
 10
8.275095833333331
 20
4.134236111111111
  0
LWPOLYLINE
  5
11A
330
2
100
AcDbEntity
  8
PDF_Layer 1
 62
     7
420
 16777215
370
    80
100
AcDbPolyline
 90
        2
 70
     0
 43
0.0
 10
8.275091666666664
 20
4.134236111111111
 10
8.157313888888886
 20
4.134236111111111
  0
LWPOLYLINE
  5
11B
330
2
100
AcDbEntity
  8
PDF_Layer 1
 62
     7
420
 16777215
370
    80
100
AcDbPolyline
 90
        2
 70
     0
 43
0.0
 10
8.157315277777776
 20
4.134236111111111
 10
8.040912499999999
 20
4.134236111111111
  0
LWPOLYLINE
  5
11C
330
2
100
AcDbEntity
  8
PDF_Layer 1
 62
     7
420
 16777215
370
    80
100
AcDbPolyline
 90
        2
 70
     0
 43
0.0
 10
8.040906944444444
 20
4.134236111111111
 10
7.927976388888888
 20
4.134236111111111
  0
LWPOLYLINE
  5
11D
330
2
100
AcDbEntity
  8
PDF_Layer 1
 62
     7
420
 16777215
370
    80
100
AcDbPolyline
 90
        2
 70
     0
 43
0.0
 10
7.927972222222221
 20
4.134236111111111
 10
7.817791666666665
 20
4.134236111111111
  0
LWPOLYLINE
  5
11E
330
2
100
AcDbEntity
  8
PDF_Layer 1
 62
     7
420
 16777215
370
    80
100
AcDbPolyline
 90
        3
 70
     0
 43
0.0
 10
7.817795833333333
 20
4.134236111111111
 10
7.712490277777779
 20
4.134236111111111
 10
7.613420833333334
 20
4.134236111111111
  0
LWPOLYLINE
  5
120
330
2
100
AcDbEntity
  8
PDF_Layer 1
 62
     7
420
 16777215
370
    80
100
AcDbPolyline
 90
        2
 70
     0
 43
0.0
 10
7.613416666666665
 20
4.134236111111111
 10
7.520555555555554
 20
4.134236111111111
  0
LWPOLYLINE
  5
121
330
2
100
AcDbEntity
  8
PDF_Layer 1
 62
     7
420
 16777215
370
    80
100
AcDbPolyline
 90
        2
 70
     0
 43
0.0
 10
7.520562499999999
 20
4.134236111111111
 10
7.434631944444443
 20
4.134236111111111
  0
LWPOLYLINE
  5
122
330
2
100
AcDbEntity
  8
PDF_Layer 1
 62
     7
420
 16777215
370
    80
100
AcDbPolyline
 90
        2
 70
     0
 43
0.0
 10
7.4346375
 20
4.134236111111111
 10
7.357054166666667
 20
4.134236111111111
  0
LWPOLYLINE
  5
123
330
2
100
AcDbEntity
  8
PDF_Layer 1
 62
     7
420
 16777215
370
    80
100
AcDbPolyline
 90
        3
 70
     0
 43
0.0
 10
7.35704861111111
 20
4.134236111111111
 10
7.288465277777777
 20
4.134236111111111
 10
7.22954861111111
 20
4.134236111111111
  0
LWPOLYLINE
  5
125
330
2
100
AcDbEntity
  8
PDF_Layer 1
 62
     7
420
 16777215
370
    80
100
AcDbPolyline
 90
        2
 70
     0
 43
0.0
 10
7.229552777777776
 20
4.134236111111111
 10
7.180372222222221
 20
4.134236111111111
  0
LWPOLYLINE
  5
126
330
2
100
AcDbEntity
  8
PDF_Layer 1
 62
     7
420
 16777215
370
    80
100
AcDbPolyline
 90
        2
 70
     0
 43
0.0
 10
7.180379166666666
 20
4.134236111111111
 10
7.141559722222222
 20
4.134236111111111
  0
LWPOLYLINE
  5
127
330
2
100
AcDbEntity
  8
PDF_Layer 1
 62
     7
420
 16777215
370
    80
100
AcDbPolyline
 90
        2
 70
     0
 43
0.0
 10
7.14156111111111
 20
4.134236111111111
 10
7.113852777777777
 20
4.134236111111111
  0
LWPOLYLINE
  5
128
330
2
100
AcDbEntity
  8
PDF_Layer 1
 62
     7
420
 16777215
370
    80
100
AcDbPolyline
 90
        2
 70
     0
 43
0.0
 10
7.113851388888889
 20
4.134236111111111
 10
7.0972125
 20
4.134236111111111
  0
LWPOLYLINE
  5
129
330
2
100
AcDbEntity
  8
PDF_Layer 1
 62
     7
420
 16777215
370
    80
100
AcDbPolyline
 90
        2
 70
     0
 43
0.0
 10
7.097215277777777
 20
4.134236111111111
 10
7.090979166666666
 20
4.134236111111111
  0
LWPOLYLINE
  5
12A
330
2
100
AcDbEntity
  8
PDF_Layer 1
 62
     7
420
 16777215
370
    80
100
AcDbPolyline
 90
        2
 70
     0
 43
0.0
 10
7.093756944444443
 20
4.133531944444444
 10
7.099312499999999
 20
4.133531944444444
  0
LWPOLYLINE
  5
12B
330
2
100
AcDbEntity
  8
PDF_Layer 1
 62
     7
420
 16777215
370
    80
100
AcDbPolyline
 90
        2
 70
     0
 43
0.0
 10
7.099311111111111
 20
4.133531944444444
 10
7.115936111111111
 20
4.133531944444444
  0
LWPOLYLINE
  5
12C
330
2
100
AcDbEntity
  8
PDF_Layer 1
 62
     7
420
 16777215
370
    80
100
AcDbPolyline
 90
        2
 70
     0
 43
0.0
 10
7.115940277777776
 20
4.133531944444444
 10
7.143662499999998
 20
4.133531944444444
  0
LWPOLYLINE
  5
12D
330
2
100
AcDbEntity
  8
PDF_Layer 1
 62
     7
420
 16777215
370
    80
100
AcDbPolyline
 90
        2
 70
     0
 43
0.0
 10
7.143656944444444
 20
4.133531944444444
 10
7.18244861111111
 20
4.133531944444444
  0
LWPOLYLINE
  5
12E
330
2
100
AcDbEntity
  8
PDF_Layer 1
 62
     7
420
 16777215
370
    80
100
AcDbPolyline
 90
        3
 70
     0
 43
0.0
 10
7.182454166666666
 20
4.133531944444444
 10
7.231648611111112
 20
4.133531944444444
 10
7.290537500000001
 20
4.133531944444444
  0
LWPOLYLINE
  5
130
330
2
100
AcDbEntity
  8
PDF_Layer 1
 62
     7
420
 16777215
370
    80
100
AcDbPolyline
 90
        2
 70
     0
 43
0.0
 10
7.290534722222221
 20
4.133531944444444
 10
7.359131944444444
 20
4.133531944444444
  0
LWPOLYLINE
  5
131
330
2
100
AcDbEntity
  8
PDF_Layer 1
 62
     7
420
 16777215
370
    80
100
AcDbPolyline
 90
        2
 70
     0
 43
0.0
 10
7.359137499999997
 20
4.133531944444444
 10
7.436026388888886
 20
4.133531944444444
  0
LWPOLYLINE
  5
132
330
2
100
AcDbEntity
  8
PDF_Layer 1
 62
     7
420
 16777215
370
    80
100
AcDbPolyline
 90
        2
 70
     0
 43
0.0
 10
7.436027777777777
 20
4.133531944444444
 10
7.521944444444444
 20
4.133531944444444
  0
LWPOLYLINE
  5
133
330
2
100
AcDbEntity
  8
PDF_Layer 1
 62
     7
420
 16777215
370
    80
100
AcDbPolyline
 90
        3
 70
     0
 43
0.0
 10
7.521945833333333
 20
4.133531944444444
 10
7.614806944444443
 20
4.133531944444444
 10
7.713876388888888
 20
4.133531944444444
  0
LWPOLYLINE
  5
135
330
2
100
AcDbEntity
  8
PDF_Layer 1
 62
     7
420
 16777215
370
    80
100
AcDbPolyline
 90
        2
 70
     0
 43
0.0
 10
7.713880555555554
 20
4.133531944444444
 10
7.818505555555555
 20
4.133531944444444
  0
LWPOLYLINE
  5
136
330
2
100
AcDbEntity
  8
PDF_Layer 1
 62
     7
420
 16777215
370
    80
100
AcDbPolyline
 90
        2
 70
     0
 43
0.0
 10
7.818501388888886
 20
4.133531944444444
 10
7.928654166666664
 20
4.133531944444444
  0
LWPOLYLINE
  5
137
330
2
100
AcDbEntity
  8
PDF_Layer 1
 62
     7
420
 16777215
370
    80
100
AcDbPolyline
 90
        2
 70
     0
 43
0.0
 10
7.928656944444443
 20
4.133531944444444
 10
8.041615277777777
 20
4.133531944444444
  0
LWPOLYLINE
  5
138
330
2
100
AcDbEntity
  8
PDF_Layer 1
 62
     7
420
 16777215
370
    80
100
AcDbPolyline
 90
        2
 70
     0
 43
0.0
 10
8.041612499999999
 20
4.133531944444444
 10
8.157320833333333
 20
4.133531944444444
  0
LWPOLYLINE
  5
139
330
2
100
AcDbEntity
  8
PDF_Layer 1
 62
     7
420
 16777215
370
    80
100
AcDbPolyline
 90
        2
 70
     0
 43
0.0
 10
8.157315277777776
 20
4.133531944444444
 10
8.275093055555554
 20
4.133531944444444
  0
LWPOLYLINE
  5
13A
330
2
100
AcDbEntity
  8
PDF_Layer 1
 62
     7
420
 16777215
370
    80
100
AcDbPolyline
 90
        2
 70
     0
 43
0.0
 10
8.275091666666664
 20
4.133531944444444
 10
8.392883333333331
 20
4.133531944444444
  0
LWPOLYLINE
  5
13B
330
2
100
AcDbEntity
  8
PDF_Layer 1
 62
     7
420
 16777215
370
    80
100
AcDbPolyline
 90
        2
 70
     0
 43
0.0
 10
8.392890277777778
 20
4.133531944444444
 10
8.510654166666668
 20
4.133531944444444
  0
LWPOLYLINE
  5
13C
330
2
100
AcDbEntity
  8
PDF_Layer 1
 62
     7
420
 16777215
370
    80
100
AcDbPolyline
 90
        3
 70
     0
 43
0.0
 10
8.510661111111108
 20
4.133531944444444
 10
8.626369444444444
 20
4.133531944444444
 10
8.740008333333333
 20
4.133531944444444
  0
LWPOLYLINE
  5
13E
330
2
100
AcDbEntity
  8
PDF_Layer 1
 62
     7
420
 16777215
370
    80
100
AcDbPolyline
 90
        2
 70
     0
 43
0.0
 10
8.740004166666668
 20
4.133531944444444
 10
8.849476388888891
 20
4.133531944444444
  0
LWPOLYLINE
  5
13F
330
2
100
AcDbEntity
  8
PDF_Layer 1
 62
     7
420
 16777215
370
    80
100
AcDbPolyline
 90
        2
 70
     0
 43
0.0
 10
8.849473611111109
 20
4.133531944444444
 10
8.95409861111111
 20
4.133531944444444
  0
LWPOLYLINE
  5
140
330
2
100
AcDbEntity
  8
PDF_Layer 1
 62
     7
420
 16777215
370
    80
100
AcDbPolyline
 90
        2
 70
     0
 43
0.0
 10
8.954101388888888
 20
4.133531944444444
 10
9.053893055555555
 20
4.133531944444444
  0
LWPOLYLINE
  5
141
330
2
100
AcDbEntity
  8
PDF_Layer 1
 62
     7
420
 16777215
370
    80
100
AcDbPolyline
 90
        2
 70
     0
 43
0.0
 10
9.0538875
 20
4.133531944444444
 10
9.146720833333333
 20
4.133531944444444
  0
LWPOLYLINE
  5
142
330
2
100
AcDbEntity
  8
PDF_Layer 1
 62
     7
420
 16777215
370
    80
100
AcDbPolyline
 90
        2
 70
     0
 43
0.0
 10
9.146715277777776
 20
4.133531944444444
 10
9.23192361111111
 20
4.133531944444444
  0
LWPOLYLINE
  5
143
330
2
100
AcDbEntity
  8
PDF_Layer 1
 62
     7
420
 16777215
370
    80
100
AcDbPolyline
 90
        2
 70
     0
 43
0.0
 10
9.231919444444445
 20
4.133531944444444
 10
9.309558333333333
 20
4.133531944444444
  0
LWPOLYLINE
  5
144
330
2
100
AcDbEntity
  8
PDF_Layer 1
 62
     7
420
 16777215
370
    80
100
AcDbPolyline
 90
        2
 70
     0
 43
0.0
 10
9.309556944444445
 20
4.133531944444444
 10
9.377459722222223
 20
4.133531944444444
  0
LWPOLYLINE
  5
145
330
2
100
AcDbEntity
  8
PDF_Layer 1
 62
     7
420
 16777215
370
    80
100
AcDbPolyline
 90
        3
 70
     0
 43
0.0
 10
9.377455555555556
 20
4.133531944444444
 10
9.437024999999998
 20
4.133531944444444
 10
9.485538888888887
 20
4.133531944444444
  0
LWPOLYLINE
  5
147
330
2
100
AcDbEntity
  8
PDF_Layer 1
 62
     7
420
 16777215
370
    80
100
AcDbPolyline
 90
        3
 70
     0
 43
0.0
 10
9.485541666666664
 20
4.133531944444444
 10
9.524319444444444
 20
4.133531944444444
 10
9.552027777777777
 20
4.133531944444444
  0
LWPOLYLINE
  5
149
330
2
100
AcDbEntity
  8
PDF_Layer 1
 62
     7
420
 16777215
370
    80
100
AcDbPolyline
 90
        3
 70
     0
 43
0.0
 10
9.552029166666665
 20
4.133531944444444
 10
9.569362499999998
 20
4.133531944444444
 10
9.574918055555555
 20
4.133531944444444
  0
LWPOLYLINE
  5
14B
330
2
100
AcDbEntity
  8
PDF_Layer 1
 62
     7
420
 16777215
370
    80
100
AcDbPolyline
 90
       33
 70
     0
 43
0.0
 10
7.876687499999998
 20
6.550244444444443
 42
-0.2198316052151075
 10
7.869774999999999
 20
6.873819444444444
 10
7.872538888888888
 20
6.879361111111109
 10
7.876691666666665
 20
6.883499999999998
 10
7.881524999999999
 20
6.886986111111109
 10
7.887788888888888
 20
6.889055555555554
 10
7.893316666666666
 20
6.889763888888888
 10
7.898870833333334
 20
6.889763888888888
 10
7.914801388888887
 20
6.889763888888888
 10
7.941833333333331
 20
6.889763888888888
 10
7.977851388888888
 20
6.889763888888888
 10
8.022202777777778
 20
6.889763888888888
 10
8.074855555555554
 20
6.889763888888888
 10
8.133741666666667
 20
6.889763888888888
 10
8.198180555555556
 20
6.889763888888888
 10
8.265401388888889
 20
6.889763888888888
 10
8.333977777777777
 20
6.889763888888888
 10
8.403266666666665
 20
6.889763888888888
 10
8.47048611111111
 20
6.889763888888888
 10
8.534220833333332
 20
6.889763888888888
 10
8.593126388888888
 20
6.889763888888888
 10
8.645779166666665
 20
6.889763888888888
 10
8.690809722222223
 20
6.889763888888888
 10
8.726833333333331
 20
6.889763888888888
 10
8.753187499999999
 20
6.889763888888888
 10
8.76911111111111
 20
6.889763888888888
 10
8.774645833333332
 20
6.889758333333332
 10
8.780868055555554
 20
6.889063888888888
 10
8.786437499999999
 20
6.886994444444444
 10
8.791270833333332
 20
6.883508333333333
 10
8.7954375
 20
6.879369444444444
 10
8.798895833333332
 20
6.873813888888888
 42
-0.2200047455767244
 10
8.791273611111112
 20
6.550245833333333
  0
LWPOLYLINE
  5
15F
330
2
100
AcDbEntity
  8
PDF_Layer 1
 62
     7
420
 16777215
370
    80
100
AcDbPolyline
 90
       47
 70
     0
 43
0.0
 10
7.090976388888888
 20
4.134236111111111
 10
7.086129166666666
 20
4.133527777777777
 10
7.080601388888888
 20
4.131458333333332
 10
7.075726388888888
 20
4.128694444444444
 10
7.072268055555555
 20
4.12523611111111
 10
7.068820833333332
 20
4.121066666666665
 42
0.1527748722691824
 10
7.027241666666665
 20
3.935370833333333
 10
7.032795833333332
 20
3.935370833333333
 10
7.049431944444443
 20
3.935370833333333
 10
7.077120833333332
 20
3.935370833333333
 10
7.115234722222222
 20
3.935370833333333
 10
7.164429166666665
 20
3.935370833333333
 10
7.223320833333333
 20
3.935370833333333
 10
7.291238888888886
 20
3.935370833333333
 10
7.368130555555555
 20
3.935370833333333
 10
7.454047222222222
 20
3.935370833333333
 10
7.546881944444443
 20
3.935370833333333
 10
7.645981944444444
 20
3.935370833333333
 10
7.751288888888888
 20
3.935370833333333
 10
7.862148611111112
 20
3.935370833333333
 10
7.976468055555555
 20
3.935370833333333
 10
8.094265277777777
 20
3.935370833333333
 10
8.213426388888887
 20
3.935370833333333
 10
8.333977777777777
 20
3.935370833333333
 10
8.454548611111111
 20
3.935370833333333
 10
8.57440833333333
 20
3.935370833333333
 10
8.691501388888889
 20
3.935370833333333
 10
8.806518055555555
 20
3.935370833333333
 10
8.916694444444443
 20
3.935370833333333
 10
9.022
 20
3.935370833333333
 10
9.121786111111109
 20
3.935370833333333
 10
9.214626388888888
 20
3.935370833333333
 10
9.299818055555554
 20
3.935370833333333
 10
9.37673611111111
 20
3.935370833333333
 10
9.445352777777776
 20
3.935370833333333
 10
9.504245833333332
 20
3.935370833333333
 10
9.552706944444445
 20
3.935370833333333
 10
9.590847222222221
 20
3.935370833333333
 10
9.618570833333331
 20
3.935370833333333
 10
9.635172222222221
 20
3.935370833333333
 10
9.640713888888887
 20
3.935370833333333
 42
0.1551780534393675
 10
9.599174999999998
 20
4.121066666666665
 10
9.59639722222222
 20
4.125233333333332
 10
9.592216666666665
 20
4.128691666666665
 10
9.587383333333331
 20
4.131455555555554
 10
9.582522222222221
 20
4.133524999999998
 10
9.576966666666665
 20
4.134233333333332
  0
LWPOLYLINE
  5
198
330
2
100
AcDbEntity
  8
PDF_Layer 1
 62
     7
420
 16777215
370
    80
100
AcDbPolyline
 90
        6
 70
     0
 43
0.0
 10
7.172049999999998
 20
4.295679166666666
 10
7.176216666666665
 20
4.300526388888888
 10
7.181744444444443
 20
4.303984722222221
 10
7.187299999999998
 20
4.306054166666665
 10
7.193536111111109
 20
4.306762499999999
 10
7.203230555555554
 20
4.306762499999999
  0
LWPOLYLINE
  5
199
330
2
100
AcDbEntity
  8
PDF_Layer 1
 62
     7
420
 16777215
370
    80
100
AcDbPolyline
 90
        2
 70
     0
 43
0.0
 10
7.203226388888888
 20
4.306762499999999
 10
7.23232361111111
 20
4.306762499999999
  0
LWPOLYLINE
  5
19A
330
2
100
AcDbEntity
  8
PDF_Layer 1
 62
     7
420
 16777215
370
    80
100
AcDbPolyline
 90
        2
 70
     0
 43
0.0
 10
7.232326388888887
 20
4.306762499999999
 10
7.280131944444443
 20
4.306762499999999
  0
LWPOLYLINE
  5
19B
330
2
100
AcDbEntity
  8
PDF_Layer 1
 62
     7
420
 16777215
370
    80
100
AcDbPolyline
 90
        2
 70
     0
 43
0.0
 10
7.280137499999999
 20
4.306762499999999
 10
7.345970833333332
 20
4.306762499999999
  0
LWPOLYLINE
  5
19C
330
2
100
AcDbEntity
  8
PDF_Layer 1
 62
     7
420
 16777215
370
    80
100
AcDbPolyline
 90
        2
 70
     0
 43
0.0
 10
7.345968055555555
 20
4.306762499999999
 10
7.429106944444444
 20
4.306762499999999
  0
LWPOLYLINE
  5
19D
330
2
100
AcDbEntity
  8
PDF_Layer 1
 62
     7
420
 16777215
370
    80
100
AcDbPolyline
 90
        3
 70
     0
 43
0.0
 10
7.42911111111111
 20
4.306762499999999
 10
7.527499999999999
 20
4.306762499999999
 10
7.639722222222221
 20
4.306762499999999
  0
LWPOLYLINE
  5
19F
330
2
100
AcDbEntity
  8
PDF_Layer 1
 62
     7
420
 16777215
370
    80
100
AcDbPolyline
 90
        2
 70
     0
 43
0.0
 10
7.639723611111109
 20
4.306762499999999
 10
7.763765277777776
 20
4.306762499999999
  0
LWPOLYLINE
  5
1A0
330
2
100
AcDbEntity
  8
PDF_Layer 1
 62
     7
420
 16777215
370
    80
100
AcDbPolyline
 90
        3
 70
     0
 43
0.0
 10
7.763759722222222
 20
4.306762499999999
 10
7.897481944444445
 20
4.306762499999999
 10
8.038829166666667
 20
4.306762499999999
  0
LWPOLYLINE
  5
1A2
330
2
100
AcDbEntity
  8
PDF_Layer 1
 62
     7
420
 16777215
370
    80
100
AcDbPolyline
 90
        2
 70
     0
 43
0.0
 10
8.038831944444444
 20
4.306762499999999
 10
8.185026388888889
 20
4.306762499999999
  0
LWPOLYLINE
  5
1A3
330
2
100
AcDbEntity
  8
PDF_Layer 1
 62
     7
420
 16777215
370
    80
100
AcDbPolyline
 90
        2
 70
     0
 43
0.0
 10
8.185031944444443
 20
4.306762499999999
 10
8.333976388888887
 20
4.306762499999999
  0
LWPOLYLINE
  5
1A4
330
2
100
AcDbEntity
  8
PDF_Layer 1
 62
     7
420
 16777215
370
    80
100
AcDbPolyline
 90
        2
 70
     0
 43
0.0
 10
8.333977777777777
 20
4.306762499999999
 10
8.482949999999998
 20
4.306762499999999
  0
LWPOLYLINE
  5
1A5
330
2
100
AcDbEntity
  8
PDF_Layer 1
 62
     7
420
 16777215
370
    80
100
AcDbPolyline
 90
        2
 70
     0
 43
0.0
 10
8.482951388888888
 20
4.306762499999999
 10
8.629145833333334
 20
4.306762499999999
  0
LWPOLYLINE
  5
1A6
330
2
100
AcDbEntity
  8
PDF_Layer 1
 62
     7
420
 16777215
370
    80
100
AcDbPolyline
 90
        2
 70
     0
 43
0.0
 10
8.62915
 20
4.306762499999999
 10
8.770497222222223
 20
4.306762499999999
  0
LWPOLYLINE
  5
1A7
330
2
100
AcDbEntity
  8
PDF_Layer 1
 62
     7
420
 16777215
370
    80
100
AcDbPolyline
 90
        2
 70
     0
 43
0.0
 10
8.770494444444443
 20
4.306762499999999
 10
8.904202777777776
 20
4.306762499999999
  0
LWPOLYLINE
  5
1A8
330
2
100
AcDbEntity
  8
PDF_Layer 1
 62
     7
420
 16777215
370
    80
100
AcDbPolyline
 90
        2
 70
     0
 43
0.0
 10
8.904201388888887
 20
4.306762499999999
 10
9.028243055555554
 20
4.306762499999999
  0
LWPOLYLINE
  5
1A9
330
2
100
AcDbEntity
  8
PDF_Layer 1
 62
     7
420
 16777215
370
    80
100
AcDbPolyline
 90
        4
 70
     0
 43
0.0
 10
9.028238888888887
 20
4.306762499999999
 10
9.140488888888887
 20
4.306762499999999
 10
9.238877777777776
 20
4.306762499999999
 10
9.322030555555555
 20
4.306762499999999
  0
LWPOLYLINE
  5
1AC
330
2
100
AcDbEntity
  8
PDF_Layer 1
 62
     7
420
 16777215
370
    80
100
AcDbPolyline
 90
        2
 70
     0
 43
0.0
 10
9.322034722222221
 20
4.306762499999999
 10
9.387826388888887
 20
4.306762499999999
  0
LWPOLYLINE
  5
1AD
330
2
100
AcDbEntity
  8
PDF_Layer 1
 62
     7
420
 16777215
370
    80
100
AcDbPolyline
 90
        2
 70
     0
 43
0.0
 10
9.387830555555554
 20
4.306762499999999
 10
9.436344444444443
 20
4.306762499999999
  0
LWPOLYLINE
  5
1AE
330
2
100
AcDbEntity
  8
PDF_Layer 1
 62
     7
420
 16777215
370
    80
100
AcDbPolyline
 90
        2
 70
     0
 43
0.0
 10
9.43634722222222
 20
4.306762499999999
 10
9.475124999999998
 20
4.306762499999999
  0
LWPOLYLINE
  5
1AF
330
2
100
AcDbEntity
  8
PDF_Layer 1
 62
     7
420
 16777215
370
    80
100
AcDbPolyline
 90
        2
 70
     0
 43
0.0
 10
8.054762499999998
 20
6.942416666666666
 10
8.086637499999998
 20
6.951430555555555
  0
LWPOLYLINE
  5
1B0
330
2
100
AcDbEntity
  8
PDF_Layer 1
 62
     7
420
 16777215
370
    80
100
AcDbPolyline
 90
        3
 70
     0
 43
0.0
 10
8.086643055555557
 20
6.951429166666666
 10
8.12682361111111
 20
6.960415277777777
 10
8.171851388888887
 20
6.966679166666667
  0
LWPOLYLINE
  5
1B2
330
2
100
AcDbEntity
  8
PDF_Layer 1
 62
     7
420
 16777215
370
    80
100
AcDbPolyline
 90
        2
 70
     0
 43
0.0
 10
8.171854166666665
 20
6.966675
 10
8.222437499999999
 20
6.972202777777778
  0
LWPOLYLINE
  5
1B3
330
2
100
AcDbEntity
  8
PDF_Layer 1
 62
     7
420
 16777215
370
    80
100
AcDbPolyline
 90
        2
 70
     0
 43
0.0
 10
8.222438888888888
 20
6.972201388888887
 10
8.270244444444443
 20
6.974979166666665
  0
LWPOLYLINE
  5
1B4
330
2
100
AcDbEntity
  8
PDF_Layer 1
 62
     7
420
 16777215
370
    80
100
AcDbPolyline
 90
        2
 70
     0
 43
0.0
 10
8.270243055555553
 20
6.974974999999999
 10
8.320826388888887
 20
6.97635
  0
LWPOLYLINE
  5
1B5
330
2
100
AcDbEntity
  8
PDF_Layer 1
 62
     7
420
 16777215
370
    80
100
AcDbPolyline
 90
        2
 70
     0
 43
0.0
 10
8.320827777777777
 20
6.976345833333332
 10
8.374869444444444
 20
6.975665277777777
  0
LWPOLYLINE
  5
1B6
330
2
100
AcDbEntity
  8
PDF_Layer 1
 62
     7
420
 16777215
370
    80
100
AcDbPolyline
 90
        3
 70
     0
 43
0.0
 10
8.374863888888887
 20
6.975661111111111
 10
8.427516666666665
 20
6.973591666666665
 10
8.478113888888888
 20
6.968744444444443
  0
LWPOLYLINE
  5
1B8
330
2
100
AcDbEntity
  8
PDF_Layer 1
 62
     7
420
 16777215
370
    80
100
AcDbPolyline
 90
        2
 70
     0
 43
0.0
 10
8.478108333333333
 20
6.968743055555555
 10
8.523844444444444
 20
6.9631875
  0
LWPOLYLINE
  5
1B9
330
2
100
AcDbEntity
  8
PDF_Layer 1
 62
     7
420
 16777215
370
    80
100
AcDbPolyline
 90
        2
 70
     0
 43
0.0
 10
8.523844444444444
 20
6.963188888888889
 10
8.565386111111111
 20
6.955563888888889
  0
LWPOLYLINE
  5
1BA
330
2
100
AcDbEntity
  8
PDF_Layer 1
 62
     7
420
 16777215
370
    80
100
AcDbPolyline
 90
        2
 70
     0
 43
0.0
 10
8.56538888888889
 20
6.955566666666666
 10
8.600041666666667
 20
6.946566666666666
  0
LWPOLYLINE
  5
1BB
330
2
100
AcDbEntity
  8
PDF_Layer 1
 62
     7
420
 16777215
370
    80
100
AcDbPolyline
 90
        2
 70
     0
 43
0.0
 10
8.600043055555556
 20
6.946559722222222
 10
8.613223611111111
 20
6.942420833333333
  0
LWPOLYLINE
  5
1BC
330
2
100
AcDbEntity
  8
PDF_Layer 1
 62
     7
420
 16777215
370
    80
100
AcDbPolyline
 90
        5
 70
     0
 43
0.0
 10
8.320827777777777
 20
10.87162916666666
 10
8.166327777777777
 20
10.87162916666666
 10
8.011799999999997
 20
10.87162916666666
 10
7.857299999999999
 20
10.87162916666666
 10
7.702091666666666
 20
10.87162916666666
  0
LWPOLYLINE
  5
1C0
330
2
100
AcDbEntity
  8
PDF_Layer 1
 62
     7
420
 16777215
370
    80
100
AcDbPolyline
 90
        2
 70
     0
 43
0.0
 10
7.702094444444443
 20
10.87162916666666
 10
7.547580555555554
 20
10.86747638888889
  0
LWPOLYLINE
  5
1C1
330
2
100
AcDbEntity
  8
PDF_Layer 1
 62
     7
420
 16777215
370
    80
100
AcDbPolyline
 90
        2
 70
     0
 43
0.0
 10
7.547587499999998
 20
10.86747916666666
 10
7.393768055555554
 20
10.85224305555555
  0
LWPOLYLINE
  5
1C2
330
2
100
AcDbEntity
  8
PDF_Layer 1
 62
     7
420
 16777215
370
    80
100
AcDbPolyline
 90
        2
 70
     0
 43
0.0
 10
7.393772222222219
 20
10.85224722222222
 10
7.242022222222219
 20
10.824525
  0
LWPOLYLINE
  5
1C3
330
2
100
AcDbEntity
  8
PDF_Layer 1
 62
     7
420
 16777215
370
    80
100
AcDbPolyline
 90
        2
 70
     0
 43
0.0
 10
7.242024999999999
 20
10.82452361111111
 10
7.092372222222221
 20
10.78434305555555
  0
LWPOLYLINE
  5
1C4
330
2
100
AcDbEntity
  8
PDF_Layer 1
 62
     7
420
 16777215
370
    80
100
AcDbPolyline
 90
        2
 70
     0
 43
0.0
 10
7.092366666666666
 20
10.78434861111111
 10
6.946880555555555
 20
10.73305694444444
  0
LWPOLYLINE
  5
1C5
330
2
100
AcDbEntity
  8
PDF_Layer 1
 62
     7
420
 16777215
370
    80
100
AcDbPolyline
 90
        2
 70
     0
 43
0.0
 10
6.946879166666666
 20
10.73305972222222
 10
6.805531944444443
 20
10.67001805555555
  0
LWPOLYLINE
  5
1C6
330
2
100
AcDbEntity
  8
PDF_Layer 1
 62
     7
420
 16777215
370
    80
100
AcDbPolyline
 90
        2
 70
     0
 43
0.0
 10
6.805527777777776
 20
10.67001666666666
 10
6.66972222222222
 20
10.59587777777777
  0
LWPOLYLINE
  5
1C7
330
2
100
AcDbEntity
  8
PDF_Layer 1
 62
     7
420
 16777215
370
    80
100
AcDbPolyline
 90
        2
 70
     0
 43
0.0
 10
6.669724999999999
 20
10.59587222222222
 10
6.540169444444444
 20
10.51135833333333
  0
LWPOLYLINE
  5
1C8
330
2
100
AcDbEntity
  8
PDF_Layer 1
 62
     7
420
 16777215
370
    80
100
AcDbPolyline
 90
        2
 70
     0
 43
0.0
 10
6.540168055555554
 20
10.51135277777777
 10
6.417515277777776
 20
10.41713055555555
  0
LWPOLYLINE
  5
1C9
330
2
100
AcDbEntity
  8
PDF_Layer 1
 62
     7
420
 16777215
370
    80
100
AcDbPolyline
 90
        2
 70
     0
 43
0.0
 10
6.417520833333332
 20
10.41712777777777
 10
6.303201388888888
 20
10.31319722222222
  0
LWPOLYLINE
  5
1CA
330
2
100
AcDbEntity
  8
PDF_Layer 1
 62
     7
420
 16777215
370
    80
100
AcDbPolyline
 90
        2
 70
     0
 43
0.0
 10
6.303202777777777
 20
10.31319861111111
 10
6.197188888888888
 20
10.20025416666666
  0
LWPOLYLINE
  5
1CB
330
2
100
AcDbEntity
  8
PDF_Layer 1
 62
     7
420
 16777215
370
    80
100
AcDbPolyline
 90
        2
 70
     0
 43
0.0
 10
6.197191666666666
 20
10.20025694444444
 10
6.100886111111111
 20
10.0796875
  0
LWPOLYLINE
  5
1CC
330
2
100
AcDbEntity
  8
PDF_Layer 1
 62
     7
420
 16777215
370
    80
100
AcDbPolyline
 90
        2
 70
     0
 43
0.0
 10
6.100891666666666
 20
10.07969166666666
 10
6.01358611111111
 20
9.951511111111109
  0
LWPOLYLINE
  5
1CD
330
2
100
AcDbEntity
  8
PDF_Layer 1
 62
     7
420
 16777215
370
    80
100
AcDbPolyline
 90
        2
 70
     0
 43
0.0
 10
6.013583333333332
 20
9.951518055555554
 10
5.937374999999998
 20
9.817101388888888
  0
LWPOLYLINE
  5
1CE
330
2
100
AcDbEntity
  8
PDF_Layer 1
 62
     7
420
 16777215
370
    80
100
AcDbPolyline
 90
        2
 70
     0
 43
0.0
 10
5.937370833333332
 20
9.817104166666664
 10
5.872231944444443
 20
9.677145833333332
  0
LWPOLYLINE
  5
1CF
330
2
100
AcDbEntity
  8
PDF_Layer 1
 62
     7
420
 16777215
370
    80
100
AcDbPolyline
 90
        2
 70
     0
 43
0.0
 10
5.872233333333333
 20
9.677144444444444
 10
5.818205555555556
 20
9.532338888888888
  0
LWPOLYLINE
  5
1D0
330
2
100
AcDbEntity
  8
PDF_Layer 1
 62
     7
420
 16777215
370
    80
100
AcDbPolyline
 90
        2
 70
     0
 43
0.0
 10
5.818202777777777
 20
9.53233472222222
 10
5.775244444444444
 20
9.383362499999998
  0
LWPOLYLINE
  5
1D1
330
2
100
AcDbEntity
  8
PDF_Layer 1
 62
     7
420
 16777215
370
    80
100
AcDbPolyline
 90
        2
 70
     0
 43
0.0
 10
5.77524861111111
 20
9.383362499999998
 10
5.744762499999999
 20
9.231640277777776
  0
LWPOLYLINE
  5
1D2
330
2
100
AcDbEntity
  8
PDF_Layer 1
 62
     7
420
 16777215
370
    80
100
AcDbPolyline
 90
        2
 70
     0
 43
0.0
 10
5.744758333333333
 20
9.231641666666666
 10
5.726744444444444
 20
9.077822222222222
  0
LWPOLYLINE
  5
1D3
330
2
100
AcDbEntity
  8
PDF_Layer 1
 62
     7
420
 16777215
370
    80
100
AcDbPolyline
 90
        2
 70
     0
 43
0.0
 10
5.726745833333333
 20
9.077819444444445
 10
5.720509722222222
 20
8.923319444444445
  0
LWPOLYLINE
  5
1D4
330
2
100
AcDbEntity
  8
PDF_Layer 1
 62
     7
420
 16777215
370
    80
100
AcDbPolyline
 90
        5
 70
     0
 43
0.0
 10
8.320827777777777
 20
10.9049
 10
8.166327777777777
 20
10.9049
 10
8.011799999999997
 20
10.9049
 10
7.857299999999999
 20
10.9049
 10
7.702091666666666
 20
10.9049
  0
LWPOLYLINE
  5
1D8
330
2
100
AcDbEntity
  8
PDF_Layer 1
 62
     7
420
 16777215
370
    80
100
AcDbPolyline
 90
        2
 70
     0
 43
0.0
 10
7.702094444444443
 20
10.9049
 10
7.545497222222221
 20
10.90003888888888
  0
LWPOLYLINE
  5
1D9
330
2
100
AcDbEntity
  8
PDF_Layer 1
 62
     7
420
 16777215
370
    80
100
AcDbPolyline
 90
        2
 70
     0
 43
0.0
 10
7.545498611111112
 20
10.90004444444444
 10
7.389609722222223
 20
10.88341944444444
  0
LWPOLYLINE
  5
1DA
330
2
100
AcDbEntity
  8
PDF_Layer 1
 62
     7
420
 16777215
370
    80
100
AcDbPolyline
 90
        2
 70
     0
 43
0.0
 10
7.389608333333332
 20
10.88342222222222
 10
7.235108333333332
 20
10.85431111111111
  0
LWPOLYLINE
  5
1DB
330
2
100
AcDbEntity
  8
PDF_Layer 1
 62
     7
420
 16777215
370
    80
100
AcDbPolyline
 90
        2
 70
     0
 43
0.0
 10
7.235106944444443
 20
10.85431527777777
 10
7.083356944444443
 20
10.81345416666666
  0
LWPOLYLINE
  5
1DC
330
2
100
AcDbEntity
  8
PDF_Layer 1
 62
     7
420
 16777215
370
    80
100
AcDbPolyline
 90
        2
 70
     0
 43
0.0
 10
7.08336111111111
 20
10.81345
 10
6.935791666666665
 20
10.76008888888889
  0
LWPOLYLINE
  5
1DD
330
2
100
AcDbEntity
  8
PDF_Layer 1
 62
     7
420
 16777215
370
    80
100
AcDbPolyline
 90
        2
 70
     0
 43
0.0
 10
6.935797222222221
 20
10.76009166666666
 10
6.792366666666666
 20
10.69564722222222
  0
LWPOLYLINE
  5
1DE
330
2
100
AcDbEntity
  8
PDF_Layer 1
 62
     7
420
 16777215
370
    80
100
AcDbPolyline
 90
        2
 70
     0
 43
0.0
 10
6.792372222222222
 20
10.69565138888889
 10
6.655163888888888
 20
10.62012361111111
  0
LWPOLYLINE
  5
1DF
330
2
100
AcDbEntity
  8
PDF_Layer 1
 62
     7
420
 16777215
370
    80
100
AcDbPolyline
 90
        2
 70
     0
 43
0.0
 10
6.655165277777776
 20
10.62011666666666
 10
6.524220833333332
 20
10.53421388888889
  0
LWPOLYLINE
  5
1E0
330
2
100
AcDbEntity
  8
PDF_Layer 1
 62
     7
420
 16777215
370
    80
100
AcDbPolyline
 90
        2
 70
     0
 43
0.0
 10
6.524218055555555
 20
10.53422083333333
 10
6.400204166666665
 20
10.43790138888889
  0
LWPOLYLINE
  5
1E1
330
2
100
AcDbEntity
  8
PDF_Layer 1
 62
     7
420
 16777215
370
    80
100
AcDbPolyline
 90
        3
 70
     0
 43
0.0
 10
6.400206944444444
 20
10.4379
 10
6.28449861111111
 20
10.33258055555555
 10
6.177095833333332
 20
10.21756666666666
  0
LWPOLYLINE
  5
1E3
330
2
100
AcDbEntity
  8
PDF_Layer 1
 62
     7
420
 16777215
370
    80
100
AcDbPolyline
 90
        2
 70
     0
 43
0.0
 10
6.177097222222221
 20
10.21756944444444
 10
6.079416666666666
 20
10.09493055555555
  0
LWPOLYLINE
  5
1E4
330
2
100
AcDbEntity
  8
PDF_Layer 1
 62
     7
420
 16777215
370
    80
100
AcDbPolyline
 90
        2
 70
     0
 43
0.0
 10
6.079413888888888
 20
10.09493611111111
 10
5.992108333333332
 20
9.965366666666666
  0
LWPOLYLINE
  5
1E5
330
2
100
AcDbEntity
  8
PDF_Layer 1
 62
     7
420
 16777215
370
    80
100
AcDbPolyline
 90
        2
 70
     0
 43
0.0
 10
5.992105555555554
 20
9.965372222222221
 10
5.914508333333333
 20
9.828872222222221
  0
LWPOLYLINE
  5
1E6
330
2
100
AcDbEntity
  8
PDF_Layer 1
 62
     7
420
 16777215
370
    80
100
AcDbPolyline
 90
        2
 70
     0
 43
0.0
 10
5.914509722222222
 20
9.828870833333334
 10
5.848690277777778
 20
9.686829166666667
  0
LWPOLYLINE
  5
1E7
330
2
100
AcDbEntity
  8
PDF_Layer 1
 62
     7
420
 16777215
370
    80
100
AcDbPolyline
 90
        2
 70
     0
 43
0.0
 10
5.848687499999999
 20
9.686834722222219
 10
5.793951388888888
 20
9.539959722222219
  0
LWPOLYLINE
  5
1E8
330
2
100
AcDbEntity
  8
PDF_Layer 1
 62
     7
420
 16777215
370
    80
100
AcDbPolyline
 90
        2
 70
     0
 43
0.0
 10
5.793952777777778
 20
9.539958333333332
 10
5.750994444444445
 20
9.388902777777778
  0
LWPOLYLINE
  5
1E9
330
2
100
AcDbEntity
  8
PDF_Layer 1
 62
     7
420
 16777215
370
    80
100
AcDbPolyline
 90
        2
 70
     0
 43
0.0
 10
5.750990277777776
 20
9.388895833333332
 10
5.720518055555554
 20
9.235784722222222
  0
LWPOLYLINE
  5
1EA
330
2
100
AcDbEntity
  8
PDF_Layer 1
 62
     7
420
 16777215
370
    80
100
AcDbPolyline
 90
        2
 70
     0
 43
0.0
 10
5.720513888888889
 20
9.235779166666665
 10
5.701791666666666
 20
9.079890277777776
  0
LWPOLYLINE
  5
1EB
330
2
100
AcDbEntity
  8
PDF_Layer 1
 62
     7
420
 16777215
370
    80
100
AcDbPolyline
 90
        2
 70
     0
 43
0.0
 10
5.701795833333332
 20
9.079888888888888
 10
5.695559722222221
 20
8.923319444444443
  0
LWPOLYLINE
  5
1EC
330
2
100
AcDbEntity
  8
PDF_Layer 1
 62
     7
420
 16777215
370
    80
100
AcDbPolyline
 90
        2
 70
     0
 43
0.0
 10
10.92183472222222
 20
8.923319444444445
 10
10.9156125
 20
9.077819444444445
  0
LWPOLYLINE
  5
1ED
330
2
100
AcDbEntity
  8
PDF_Layer 1
 62
     7
420
 16777215
370
    80
100
AcDbPolyline
 90
        2
 70
     0
 43
0.0
 10
10.91560833333333
 20
9.077819444444445
 10
10.8969
 20
9.231638888888889
  0
LWPOLYLINE
  5
1EE
330
2
100
AcDbEntity
  8
PDF_Layer 1
 62
     7
420
 16777215
370
    80
100
AcDbPolyline
 90
        2
 70
     0
 43
0.0
 10
10.89690416666666
 20
9.231641666666666
 10
10.86641805555555
 20
9.383363888888888
  0
LWPOLYLINE
  5
1EF
330
2
100
AcDbEntity
  8
PDF_Layer 1
 62
     7
420
 16777215
370
    80
100
AcDbPolyline
 90
        2
 70
     0
 43
0.0
 10
10.86641388888889
 20
9.383362499999998
 10
10.82413611111111
 20
9.53233472222222
  0
LWPOLYLINE
  5
1F0
330
2
100
AcDbEntity
  8
PDF_Layer 1
 62
     7
420
 16777215
370
    80
100
AcDbPolyline
 90
        2
 70
     0
 43
0.0
 10
10.82413749999999
 20
9.53233472222222
 10
10.77010972222222
 20
9.677140277777775
  0
LWPOLYLINE
  5
1F1
330
2
100
AcDbEntity
  8
PDF_Layer 1
 62
     7
420
 16777215
370
    80
100
AcDbPolyline
 90
        2
 70
     0
 43
0.0
 10
10.77011388888889
 20
9.677144444444444
 10
10.70426666666666
 20
9.817102777777776
  0
LWPOLYLINE
  5
1F2
330
2
100
AcDbEntity
  8
PDF_Layer 1
 62
     7
420
 16777215
370
    80
100
AcDbPolyline
 90
        2
 70
     0
 43
0.0
 10
10.70426388888889
 20
9.817104166666664
 10
10.62808333333333
 20
9.951520833333331
  0
LWPOLYLINE
  5
1F3
330
2
100
AcDbEntity
  8
PDF_Layer 1
 62
     7
420
 16777215
370
    80
100
AcDbPolyline
 90
        2
 70
     0
 43
0.0
 10
10.62807916666667
 20
9.951518055555554
 10
10.54144027777778
 20
10.07969861111111
  0
LWPOLYLINE
  5
1F4
330
2
100
AcDbEntity
  8
PDF_Layer 1
 62
     7
420
 16777215
370
    80
100
AcDbPolyline
 90
        2
 70
     0
 43
0.0
 10
10.54143611111111
 20
10.07969166666666
 10
10.44513055555555
 20
10.20026111111111
  0
LWPOLYLINE
  5
1F5
330
2
100
AcDbEntity
  8
PDF_Layer 1
 62
     7
420
 16777215
370
    80
100
AcDbPolyline
 90
        2
 70
     0
 43
0.0
 10
10.44513611111111
 20
10.20025694444444
 10
10.33915
 20
10.31320138888889
  0
LWPOLYLINE
  5
1F6
330
2
100
AcDbEntity
  8
PDF_Layer 1
 62
     7
420
 16777215
370
    80
100
AcDbPolyline
 90
        2
 70
     0
 43
0.0
 10
10.33915138888889
 20
10.31319861111111
 10
10.22409583333333
 20
10.41712916666666
  0
LWPOLYLINE
  5
1F7
330
2
100
AcDbEntity
  8
PDF_Layer 1
 62
     7
420
 16777215
370
    80
100
AcDbPolyline
 90
        2
 70
     0
 43
0.0
 10
10.22409444444444
 20
10.41712777777777
 10
10.10219166666666
 20
10.51135
  0
LWPOLYLINE
  5
1F8
330
2
100
AcDbEntity
  8
PDF_Layer 1
 62
     7
420
 16777215
370
    80
100
AcDbPolyline
 90
        2
 70
     0
 43
0.0
 10
10.10218611111111
 20
10.51135277777777
 10
9.972616666666665
 20
10.59586666666666
  0
LWPOLYLINE
  5
1F9
330
2
100
AcDbEntity
  8
PDF_Layer 1
 62
     7
420
 16777215
370
    80
100
AcDbPolyline
 90
        2
 70
     0
 43
0.0
 10
9.972615277777778
 20
10.59587222222222
 10
9.836823611111112
 20
10.67001111111111
  0
LWPOLYLINE
  5
1FA
330
2
100
AcDbEntity
  8
PDF_Layer 1
 62
     7
420
 16777215
370
    80
100
AcDbPolyline
 90
        2
 70
     0
 43
0.0
 10
9.836819444444444
 20
10.67001666666666
 10
9.695472222222221
 20
10.73305833333333
  0
LWPOLYLINE
  5
1FB
330
2
100
AcDbEntity
  8
PDF_Layer 1
 62
     7
420
 16777215
370
    80
100
AcDbPolyline
 90
        2
 70
     0
 43
0.0
 10
9.695475
 20
10.73305972222222
 10
9.549974999999999
 20
10.78435138888889
  0
LWPOLYLINE
  5
1FC
330
2
100
AcDbEntity
  8
PDF_Layer 1
 62
     7
420
 16777215
370
    80
100
AcDbPolyline
 90
        2
 70
     0
 43
0.0
 10
9.549980555555555
 20
10.78434861111111
 10
9.400313888888888
 20
10.82452916666666
  0
LWPOLYLINE
  5
1FD
330
2
100
AcDbEntity
  8
PDF_Layer 1
 62
     7
420
 16777215
370
    80
100
AcDbPolyline
 90
        2
 70
     0
 43
0.0
 10
9.400309722222219
 20
10.82452361111111
 10
9.247893055555552
 20
10.85224583333333
  0
LWPOLYLINE
  5
1FE
330
2
100
AcDbEntity
  8
PDF_Layer 1
 62
     7
420
 16777215
370
    80
100
AcDbPolyline
 90
        2
 70
     0
 43
0.0
 10
9.247897222222221
 20
10.85224722222222
 10
9.094063888888888
 20
10.86748333333333
  0
LWPOLYLINE
  5
1FF
330
2
100
AcDbEntity
  8
PDF_Layer 1
 62
     7
420
 16777215
370
    80
100
AcDbPolyline
 90
        2
 70
     0
 43
0.0
 10
9.094062499999999
 20
10.86747916666666
 10
8.939534722222221
 20
10.87163194444444
  0
LWPOLYLINE
  5
200
330
2
100
AcDbEntity
  8
PDF_Layer 1
 62
     7
420
 16777215
370
    80
100
AcDbPolyline
 90
        3
 70
     0
 43
0.0
 10
8.939534722222221
 20
10.87162916666666
 10
8.785034722222221
 20
10.87162916666666
 10
8.63053472222222
 20
10.87162916666666
  0
LWPOLYLINE
  5
202
330
2
100
AcDbEntity
  8
PDF_Layer 1
 62
     7
420
 16777215
370
    80
100
AcDbPolyline
 90
        2
 70
     0
 43
0.0
 10
8.630533333333334
 20
10.87162916666666
 10
8.476005555555556
 20
10.87162916666666
  0
LWPOLYLINE
  5
203
330
2
100
AcDbEntity
  8
PDF_Layer 1
 62
     7
420
 16777215
370
    80
100
AcDbPolyline
 90
        2
 70
     0
 43
0.0
 10
8.476006944444444
 20
10.87162916666666
 10
8.320826388888889
 20
10.87162916666666
  0
LWPOLYLINE
  5
204
330
2
100
AcDbEntity
  8
PDF_Layer 1
 62
     7
420
 16777215
370
    80
100
AcDbPolyline
 90
        2
 70
     0
 43
0.0
 10
10.94677777777778
 20
8.923319444444445
 10
10.94054166666666
 20
9.07988888888889
  0
LWPOLYLINE
  5
205
330
2
100
AcDbEntity
  8
PDF_Layer 1
 62
     7
420
 16777215
370
    80
100
AcDbPolyline
 90
        2
 70
     0
 43
0.0
 10
10.9405375
 20
9.079888888888888
 10
10.92182916666667
 20
9.235777777777776
  0
LWPOLYLINE
  5
206
330
2
100
AcDbEntity
  8
PDF_Layer 1
 62
     7
420
 16777215
370
    80
100
AcDbPolyline
 90
        2
 70
     0
 43
0.0
 10
10.92183472222222
 20
9.235779166666665
 10
10.89134861111111
 20
9.388890277777775
  0
LWPOLYLINE
  5
207
330
2
100
AcDbEntity
  8
PDF_Layer 1
 62
     7
420
 16777215
370
    80
100
AcDbPolyline
 90
        2
 70
     0
 43
0.0
 10
10.89134444444444
 20
9.388895833333332
 10
10.84838611111111
 20
9.539951388888887
  0
LWPOLYLINE
  5
208
330
2
100
AcDbEntity
  8
PDF_Layer 1
 62
     7
420
 16777215
370
    80
100
AcDbPolyline
 90
        2
 70
     0
 43
0.0
 10
10.84838888888889
 20
9.539958333333332
 10
10.79365277777778
 20
9.686833333333332
  0
LWPOLYLINE
  5
209
330
2
100
AcDbEntity
  8
PDF_Layer 1
 62
     7
420
 16777215
370
    80
100
AcDbPolyline
 90
        2
 70
     0
 43
0.0
 10
10.79364722222222
 20
9.686834722222219
 10
10.72716111111111
 20
9.828876388888886
  0
LWPOLYLINE
  5
20A
330
2
100
AcDbEntity
  8
PDF_Layer 1
 62
     7
420
 16777215
370
    80
100
AcDbPolyline
 90
        2
 70
     0
 43
0.0
 10
10.72715972222222
 20
9.828870833333334
 10
10.65024305555555
 20
9.965370833333334
  0
LWPOLYLINE
  5
20B
330
2
100
AcDbEntity
  8
PDF_Layer 1
 62
     7
420
 16777215
370
    80
100
AcDbPolyline
 90
        2
 70
     0
 43
0.0
 10
10.65024166666666
 20
9.965372222222221
 10
10.56222777777777
 20
10.09494166666666
  0
LWPOLYLINE
  5
20C
330
2
100
AcDbEntity
  8
PDF_Layer 1
 62
     7
420
 16777215
370
    80
100
AcDbPolyline
 90
        2
 70
     0
 43
0.0
 10
10.56222916666667
 20
10.09493611111111
 10
10.46452083333333
 20
10.217575
  0
LWPOLYLINE
  5
20D
330
2
100
AcDbEntity
  8
PDF_Layer 1
 62
     7
420
 16777215
370
    80
100
AcDbPolyline
 90
        2
 70
     0
 43
0.0
 10
10.46451805555555
 20
10.21756944444444
 10
10.35785138888889
 20
10.33258333333333
  0
LWPOLYLINE
  5
20E
330
2
100
AcDbEntity
  8
PDF_Layer 1
 62
     7
420
 16777215
370
    80
100
AcDbPolyline
 90
        3
 70
     0
 43
0.0
 10
10.35785555555555
 20
10.33258055555555
 10
10.24211944444444
 20
10.4379
 10
10.11810555555555
 20
10.53421944444444
  0
LWPOLYLINE
  5
210
330
2
100
AcDbEntity
  8
PDF_Layer 1
 62
     7
420
 16777215
370
    80
100
AcDbPolyline
 90
        2
 70
     0
 43
0.0
 10
10.11810972222222
 20
10.53422083333333
 10
9.987179166666667
 20
10.62012361111111
  0
LWPOLYLINE
  5
211
330
2
100
AcDbEntity
  8
PDF_Layer 1
 62
     7
420
 16777215
370
    80
100
AcDbPolyline
 90
        2
 70
     0
 43
0.0
 10
9.987181944444444
 20
10.62011666666666
 10
9.849293055555556
 20
10.69564444444444
  0
LWPOLYLINE
  5
212
330
2
100
AcDbEntity
  8
PDF_Layer 1
 62
     7
420
 16777215
370
    80
100
AcDbPolyline
 90
        2
 70
     0
 43
0.0
 10
9.849297222222221
 20
10.69565138888889
 10
9.706533333333332
 20
10.76009583333333
  0
LWPOLYLINE
  5
213
330
2
100
AcDbEntity
  8
PDF_Layer 1
 62
     7
420
 16777215
370
    80
100
AcDbPolyline
 90
        2
 70
     0
 43
0.0
 10
9.706529166666665
 20
10.76009166666666
 10
9.558265277777776
 20
10.81345277777777
  0
LWPOLYLINE
  5
214
330
2
100
AcDbEntity
  8
PDF_Layer 1
 62
     7
420
 16777215
370
    80
100
AcDbPolyline
 90
        2
 70
     0
 43
0.0
 10
9.558268055555556
 20
10.81345
 10
9.40722638888889
 20
10.85431111111111
  0
LWPOLYLINE
  5
215
330
2
100
AcDbEntity
  8
PDF_Layer 1
 62
     7
420
 16777215
370
    80
100
AcDbPolyline
 90
        2
 70
     0
 43
0.0
 10
9.407226388888888
 20
10.85431527777777
 10
9.252726388888888
 20
10.88342638888889
  0
LWPOLYLINE
  5
216
330
2
100
AcDbEntity
  8
PDF_Layer 1
 62
     7
420
 16777215
370
    80
100
AcDbPolyline
 90
        2
 70
     0
 43
0.0
 10
9.252726388888889
 20
10.88342222222222
 10
9.096143055555556
 20
10.90004722222222
  0
LWPOLYLINE
  5
217
330
2
100
AcDbEntity
  8
PDF_Layer 1
 62
     7
420
 16777215
370
    80
100
AcDbPolyline
 90
        2
 70
     0
 43
0.0
 10
9.096137499999999
 20
10.90004444444444
 10
8.939540277777776
 20
10.90490555555555
  0
LWPOLYLINE
  5
218
330
2
100
AcDbEntity
  8
PDF_Layer 1
 62
     7
420
 16777215
370
    80
100
AcDbPolyline
 90
        3
 70
     0
 43
0.0
 10
8.939534722222221
 20
10.9049
 10
8.785034722222221
 20
10.9049
 10
8.63053472222222
 20
10.9049
  0
LWPOLYLINE
  5
21A
330
2
100
AcDbEntity
  8
PDF_Layer 1
 62
     7
420
 16777215
370
    80
100
AcDbPolyline
 90
        2
 70
     0
 43
0.0
 10
8.630533333333334
 20
10.9049
 10
8.476005555555556
 20
10.9049
  0
LWPOLYLINE
  5
21B
330
2
100
AcDbEntity
  8
PDF_Layer 1
 62
     7
420
 16777215
370
    80
100
AcDbPolyline
 90
        2
 70
     0
 43
0.0
 10
8.476006944444444
 20
10.9049
 10
8.320826388888889
 20
10.9049
  0
LWPOLYLINE
  5
21C
330
2
100
AcDbEntity
  8
PDF_Layer 1
 62
     7
420
 16777215
370
    80
100
AcDbPolyline
 90
        5
 70
     0
 43
0.0
 10
7.857299999999999
 20
6.975661111111111
 10
8.011799999999997
 20
6.975661111111111
 10
8.166327777777777
 20
6.975661111111111
 10
8.320827777777777
 20
6.975661111111111
 10
8.476008333333332
 20
6.975661111111111
  0
LWPOLYLINE
  5
21D
330
2
100
AcDbEntity
  8
PDF_Layer 1
 62
     7
420
 16777215
370
    80
100
AcDbPolyline
 90
        2
 70
     0
 43
0.0
 10
8.476006944444444
 20
6.975661111111111
 10
8.630534722222222
 20
6.975661111111111
  0
LWPOLYLINE
  5
21E
330
2
100
AcDbEntity
  8
PDF_Layer 1
 62
     7
420
 16777215
370
    80
100
AcDbPolyline
 90
        2
 70
     0
 43
0.0
 10
8.630533333333334
 20
6.975661111111111
 10
8.785033333333334
 20
6.975661111111111
  0
LWPOLYLINE
  5
21F
330
2
100
AcDbEntity
  8
PDF_Layer 1
 62
     7
420
 16777215
370
    80
100
AcDbPolyline
 90
        3
 70
     0
 43
0.0
 10
8.785034722222221
 20
6.975661111111111
 10
8.939534722222221
 20
6.975661111111111
 10
9.094062499999999
 20
6.979133333333333
  0
LWPOLYLINE
  5
221
330
2
100
AcDbEntity
  8
PDF_Layer 1
 62
     7
420
 16777215
370
    80
100
AcDbPolyline
 90
        2
 70
     0
 43
0.0
 10
9.094062499999999
 20
6.979138888888887
 10
9.247895833333332
 20
6.995069444444443
  0
LWPOLYLINE
  5
222
330
2
100
AcDbEntity
  8
PDF_Layer 1
 62
     7
420
 16777215
370
    80
100
AcDbPolyline
 90
        2
 70
     0
 43
0.0
 10
9.247897222222221
 20
6.995069444444444
 10
9.400313888888888
 20
7.022791666666667
  0
LWPOLYLINE
  5
223
330
2
100
AcDbEntity
  8
PDF_Layer 1
 62
     7
420
 16777215
370
    80
100
AcDbPolyline
 90
        2
 70
     0
 43
0.0
 10
9.400309722222219
 20
7.022786111111111
 10
9.549976388888886
 20
7.062286111111111
  0
LWPOLYLINE
  5
224
330
2
100
AcDbEntity
  8
PDF_Layer 1
 62
     7
420
 16777215
370
    80
100
AcDbPolyline
 90
        2
 70
     0
 43
0.0
 10
9.549980555555555
 20
7.062290277777776
 10
9.695480555555555
 20
7.114234722222221
  0
LWPOLYLINE
  5
225
330
2
100
AcDbEntity
  8
PDF_Layer 1
 62
     7
420
 16777215
370
    80
100
AcDbPolyline
 90
        2
 70
     0
 43
0.0
 10
9.695475
 20
7.114237499999999
 10
9.836822222222222
 20
7.176598611111111
  0
LWPOLYLINE
  5
226
330
2
100
AcDbEntity
  8
PDF_Layer 1
 62
     7
420
 16777215
370
    80
100
AcDbPolyline
 90
        2
 70
     0
 43
0.0
 10
9.836819444444444
 20
7.176601388888889
 10
9.97261111111111
 20
7.2507125
  0
LWPOLYLINE
  5
227
330
2
100
AcDbEntity
  8
PDF_Layer 1
 62
     7
420
 16777215
370
    80
100
AcDbPolyline
 90
        2
 70
     0
 43
0.0
 10
9.972615277777778
 20
7.250719444444443
 10
10.10218472222222
 20
7.335274999999998
  0
LWPOLYLINE
  5
228
330
2
100
AcDbEntity
  8
PDF_Layer 1
 62
     7
420
 16777215
370
    80
100
AcDbPolyline
 90
        2
 70
     0
 43
0.0
 10
10.10218611111111
 20
7.335272222222221
 10
10.22408888888889
 20
7.430174999999999
  0
LWPOLYLINE
  5
229
330
2
100
AcDbEntity
  8
PDF_Layer 1
 62
     7
420
 16777215
370
    80
100
AcDbPolyline
 90
        2
 70
     0
 43
0.0
 10
10.22409444444444
 20
7.430176388888888
 10
10.33915
 20
7.534120833333332
  0
LWPOLYLINE
  5
22A
330
2
100
AcDbEntity
  8
PDF_Layer 1
 62
     7
420
 16777215
370
    80
100
AcDbPolyline
 90
        2
 70
     0
 43
0.0
 10
10.33915138888889
 20
7.534118055555553
 10
10.4451375
 20
7.646354166666664
  0
LWPOLYLINE
  5
22B
330
2
100
AcDbEntity
  8
PDF_Layer 1
 62
     7
420
 16777215
370
    80
100
AcDbPolyline
 90
        2
 70
     0
 43
0.0
 10
10.44513611111111
 20
7.646348611111108
 10
10.54144166666667
 20
7.766918055555553
  0
LWPOLYLINE
  5
22C
330
2
100
AcDbEntity
  8
PDF_Layer 1
 62
     7
420
 16777215
370
    80
100
AcDbPolyline
 90
        2
 70
     0
 43
0.0
 10
10.54143611111111
 20
7.766920833333334
 10
10.628075
 20
7.89510138888889
  0
LWPOLYLINE
  5
22D
330
2
100
AcDbEntity
  8
PDF_Layer 1
 62
     7
420
 16777215
370
    80
100
AcDbPolyline
 90
        2
 70
     0
 43
0.0
 10
10.62807916666667
 20
7.895094444444443
 10
10.70425972222222
 20
8.029524999999999
  0
LWPOLYLINE
  5
22E
330
2
100
AcDbEntity
  8
PDF_Layer 1
 62
     7
420
 16777215
370
    80
100
AcDbPolyline
 90
        2
 70
     0
 43
0.0
 10
10.70426388888889
 20
8.029527777777776
 10
10.77011111111111
 20
8.170152777777776
  0
LWPOLYLINE
  5
22F
330
2
100
AcDbEntity
  8
PDF_Layer 1
 62
     7
420
 16777215
370
    80
100
AcDbPolyline
 90
        2
 70
     0
 43
0.0
 10
10.77011388888889
 20
8.170145833333332
 10
10.82414166666666
 20
8.314979166666665
  0
LWPOLYLINE
  5
230
330
2
100
AcDbEntity
  8
PDF_Layer 1
 62
     7
420
 16777215
370
    80
100
AcDbPolyline
 90
        2
 70
     0
 43
0.0
 10
10.82413749999999
 20
8.314981944444445
 10
10.86641527777777
 20
8.463954166666667
  0
LWPOLYLINE
  5
231
330
2
100
AcDbEntity
  8
PDF_Layer 1
 62
     7
420
 16777215
370
    80
100
AcDbPolyline
 90
        2
 70
     0
 43
0.0
 10
10.86641388888889
 20
8.463955555555555
 10
10.8969
 20
8.614983333333332
  0
LWPOLYLINE
  5
232
330
2
100
AcDbEntity
  8
PDF_Layer 1
 62
     7
420
 16777215
370
    80
100
AcDbPolyline
 90
        2
 70
     0
 43
0.0
 10
10.89690416666666
 20
8.614976388888891
 10
10.9156125
 20
8.768795833333335
  0
LWPOLYLINE
  5
233
330
2
100
AcDbEntity
  8
PDF_Layer 1
 62
     7
420
 16777215
370
    80
100
AcDbPolyline
 90
        2
 70
     0
 43
0.0
 10
10.91560833333333
 20
8.768791666666665
 10
10.92183055555555
 20
8.923319444444443
  0
LWPOLYLINE
  5
234
330
2
100
AcDbEntity
  8
PDF_Layer 1
 62
     7
420
 16777215
370
    80
100
AcDbPolyline
 90
        2
 70
     0
 43
0.0
 10
8.613226388888888
 20
6.942416666666666
 10
8.630531944444443
 20
6.942416666666666
  0
LWPOLYLINE
  5
235
330
2
100
AcDbEntity
  8
PDF_Layer 1
 62
     7
420
 16777215
370
    80
100
AcDbPolyline
 90
        2
 70
     0
 43
0.0
 10
8.630533333333334
 20
6.942416666666666
 10
8.785033333333334
 20
6.942416666666666
  0
LWPOLYLINE
  5
236
330
2
100
AcDbEntity
  8
PDF_Layer 1
 62
     7
420
 16777215
370
    80
100
AcDbPolyline
 90
        3
 70
     0
 43
0.0
 10
8.785034722222221
 20
6.942416666666666
 10
8.939534722222221
 20
6.942416666666666
 10
9.096131944444444
 20
6.946555555555555
  0
LWPOLYLINE
  5
238
330
2
100
AcDbEntity
  8
PDF_Layer 1
 62
     7
420
 16777215
370
    80
100
AcDbPolyline
 90
        2
 70
     0
 43
0.0
 10
9.096137499999999
 20
6.946559722222222
 10
9.252720833333333
 20
6.963893055555555
  0
LWPOLYLINE
  5
239
330
2
100
AcDbEntity
  8
PDF_Layer 1
 62
     7
420
 16777215
370
    80
100
AcDbPolyline
 90
        2
 70
     0
 43
0.0
 10
9.252726388888889
 20
6.963894444444443
 10
9.40722638888889
 20
6.992297222222221
  0
LWPOLYLINE
  5
23A
330
2
100
AcDbEntity
  8
PDF_Layer 1
 62
     7
420
 16777215
370
    80
100
AcDbPolyline
 90
        2
 70
     0
 43
0.0
 10
9.407226388888888
 20
6.992295833333332
 10
9.558268055555554
 20
7.033865277777777
  0
LWPOLYLINE
  5
23B
330
2
100
AcDbEntity
  8
PDF_Layer 1
 62
     7
420
 16777215
370
    80
100
AcDbPolyline
 90
        2
 70
     0
 43
0.0
 10
9.558268055555556
 20
7.033868055555553
 10
9.706531944444446
 20
7.086520833333331
  0
LWPOLYLINE
  5
23C
330
2
100
AcDbEntity
  8
PDF_Layer 1
 62
     7
420
 16777215
370
    80
100
AcDbPolyline
 90
        2
 70
     0
 43
0.0
 10
9.706529166666665
 20
7.086520833333332
 10
9.849293055555554
 20
7.150965277777777
  0
LWPOLYLINE
  5
23D
330
2
100
AcDbEntity
  8
PDF_Layer 1
 62
     7
420
 16777215
370
    80
100
AcDbPolyline
 90
        2
 70
     0
 43
0.0
 10
9.849297222222221
 20
7.15095972222222
 10
9.987186111111109
 20
7.226473611111108
  0
LWPOLYLINE
  5
23E
330
2
100
AcDbEntity
  8
PDF_Layer 1
 62
     7
420
 16777215
370
    80
100
AcDbPolyline
 90
        2
 70
     0
 43
0.0
 10
9.987181944444444
 20
7.226480555555554
 10
10.1181125
 20
7.313077777777776
  0
LWPOLYLINE
  5
23F
330
2
100
AcDbEntity
  8
PDF_Layer 1
 62
     7
420
 16777215
370
    80
100
AcDbPolyline
 90
        2
 70
     0
 43
0.0
 10
10.11810972222222
 20
7.313083333333331
 10
10.24212361111111
 20
7.408694444444442
  0
LWPOLYLINE
  5
240
330
2
100
AcDbEntity
  8
PDF_Layer 1
 62
     7
420
 16777215
370
    80
100
AcDbPolyline
 90
        2
 70
     0
 43
0.0
 10
10.24211944444444
 20
7.40869861111111
 10
10.35785555555555
 20
7.514712499999999
  0
LWPOLYLINE
  5
241
330
2
100
AcDbEntity
  8
PDF_Layer 1
 62
     7
420
 16777215
370
    80
100
AcDbPolyline
 90
        2
 70
     0
 43
0.0
 10
10.35785555555555
 20
7.514709722222221
 10
10.46452222222222
 20
7.629029166666665
  0
LWPOLYLINE
  5
242
330
2
100
AcDbEntity
  8
PDF_Layer 1
 62
     7
420
 16777215
370
    80
100
AcDbPolyline
 90
        2
 70
     0
 43
0.0
 10
10.46451805555555
 20
7.629027777777778
 10
10.56222638888889
 20
7.751680555555556
  0
LWPOLYLINE
  5
243
330
2
100
AcDbEntity
  8
PDF_Layer 1
 62
     7
420
 16777215
370
    80
100
AcDbPolyline
 90
        2
 70
     0
 43
0.0
 10
10.56222916666667
 20
7.751674999999998
 10
10.65024305555555
 20
7.88191111111111
  0
LWPOLYLINE
  5
244
330
2
100
AcDbEntity
  8
PDF_Layer 1
 62
     7
420
 16777215
370
    80
100
AcDbPolyline
 90
        2
 70
     0
 43
0.0
 10
10.65024166666666
 20
7.881916666666667
 10
10.72715833333333
 20
8.01773611111111
  0
LWPOLYLINE
  5
245
330
2
100
AcDbEntity
  8
PDF_Layer 1
 62
     7
420
 16777215
370
    80
100
AcDbPolyline
 90
        2
 70
     0
 43
0.0
 10
10.72715972222222
 20
8.017740277777779
 10
10.79364583333333
 20
8.160448611111112
  0
LWPOLYLINE
  5
246
330
2
100
AcDbEntity
  8
PDF_Layer 1
 62
     7
420
 16777215
370
    80
100
AcDbPolyline
 90
        2
 70
     0
 43
0.0
 10
10.79364722222222
 20
8.160454166666665
 10
10.84838333333333
 20
8.306648611111111
  0
LWPOLYLINE
  5
247
330
2
100
AcDbEntity
  8
PDF_Layer 1
 62
     7
420
 16777215
370
    80
100
AcDbPolyline
 90
        2
 70
     0
 43
0.0
 10
10.84838888888889
 20
8.306654166666666
 10
10.89134722222222
 20
8.457709722222221
  0
LWPOLYLINE
  5
248
330
2
100
AcDbEntity
  8
PDF_Layer 1
 62
     7
420
 16777215
370
    80
100
AcDbPolyline
 90
        2
 70
     0
 43
0.0
 10
10.89134444444444
 20
8.457716666666664
 10
10.92183055555555
 20
8.611508333333331
  0
LWPOLYLINE
  5
249
330
2
100
AcDbEntity
  8
PDF_Layer 1
 62
     7
420
 16777215
370
    80
100
AcDbPolyline
 90
        2
 70
     0
 43
0.0
 10
10.92183472222222
 20
8.611511111111111
 10
10.94054305555555
 20
8.766719444444444
  0
LWPOLYLINE
  5
24A
330
2
100
AcDbEntity
  8
PDF_Layer 1
 62
     7
420
 16777215
370
    80
100
AcDbPolyline
 90
        2
 70
     0
 43
0.0
 10
10.9405375
 20
8.76672361111111
 10
10.94677361111111
 20
8.923320833333333
  0
LWPOLYLINE
  5
24B
330
2
100
AcDbEntity
  8
PDF_Layer 1
 62
     7
420
 16777215
370
    80
100
AcDbPolyline
 90
        2
 70
     0
 43
0.0
 10
8.003493055555555
 20
8.923319444444445
 10
8.007631944444444
 20
8.986347222222223
  0
LWPOLYLINE
  5
24C
330
2
100
AcDbEntity
  8
PDF_Layer 1
 62
     7
420
 16777215
370
    80
100
AcDbPolyline
 90
        2
 70
     0
 43
0.0
 10
8.007636111111111
 20
8.986348611111109
 10
8.024274999999999
 20
9.048001388888888
  0
LWPOLYLINE
  5
24D
330
2
100
AcDbEntity
  8
PDF_Layer 1
 62
     7
420
 16777215
370
    80
100
AcDbPolyline
 90
        2
 70
     0
 43
0.0
 10
8.02427222222222
 20
9.048006944444441
 10
8.052688888888887
 20
9.10414583333333
  0
LWPOLYLINE
  5
24E
330
2
100
AcDbEntity
  8
PDF_Layer 1
 62
     7
420
 16777215
370
    80
100
AcDbPolyline
 90
        2
 70
     0
 43
0.0
 10
8.052687500000001
 20
9.104145833333333
 10
8.092173611111112
 20
9.153340277777777
  0
LWPOLYLINE
  5
24F
330
2
100
AcDbEntity
  8
PDF_Layer 1
 62
     7
420
 16777215
370
    80
100
AcDbPolyline
 90
        2
 70
     0
 43
0.0
 10
8.092169444444442
 20
9.153340277777775
 10
8.140683333333331
 20
9.19352083333333
  0
LWPOLYLINE
  5
250
330
2
100
AcDbEntity
  8
PDF_Layer 1
 62
     7
420
 16777215
370
    80
100
AcDbPolyline
 90
        2
 70
     0
 43
0.0
 10
8.140679166666666
 20
9.19352222222222
 10
8.196790277777777
 20
9.223327777777775
  0
LWPOLYLINE
  5
251
330
2
100
AcDbEntity
  8
PDF_Layer 1
 62
     7
420
 16777215
370
    80
100
AcDbPolyline
 90
        2
 70
     0
 43
0.0
 10
8.196790277777777
 20
9.223334722222221
 10
8.257776388888888
 20
9.239945833333331
  0
LWPOLYLINE
  5
252
330
2
100
AcDbEntity
  8
PDF_Layer 1
 62
     7
420
 16777215
370
    80
100
AcDbPolyline
 90
        2
 70
     0
 43
0.0
 10
8.257779166666665
 20
9.239943055555556
 10
8.320834722222221
 20
9.244109722222223
  0
LWPOLYLINE
  5
253
330
2
100
AcDbEntity
  8
PDF_Layer 1
 62
     7
420
 16777215
370
    80
100
AcDbPolyline
 90
        2
 70
     0
 43
0.0
 10
8.320827777777777
 20
8.602505555555556
 10
8.257772222222222
 20
8.606672222222222
  0
LWPOLYLINE
  5
254
330
2
100
AcDbEntity
  8
PDF_Layer 1
 62
     7
420
 16777215
370
    80
100
AcDbPolyline
 90
        2
 70
     0
 43
0.0
 10
8.257779166666665
 20
8.606669444444444
 10
8.196793055555554
 20
8.623988888888888
  0
LWPOLYLINE
  5
255
330
2
100
AcDbEntity
  8
PDF_Layer 1
 62
     7
420
 16777215
370
    80
100
AcDbPolyline
 90
        2
 70
     0
 43
0.0
 10
8.196790277777777
 20
8.623983333333331
 10
8.140679166666666
 20
8.653094444444443
  0
LWPOLYLINE
  5
256
330
2
100
AcDbEntity
  8
PDF_Layer 1
 62
     7
420
 16777215
370
    80
100
AcDbPolyline
 90
        2
 70
     0
 43
0.0
 10
8.140679166666666
 20
8.653090277777776
 10
8.092165277777777
 20
8.693270833333331
  0
LWPOLYLINE
  5
257
330
2
100
AcDbEntity
  8
PDF_Layer 1
 62
     7
420
 16777215
370
    80
100
AcDbPolyline
 90
        2
 70
     0
 43
0.0
 10
8.092169444444442
 20
8.693270833333333
 10
8.05268333333333
 20
8.742465277777776
  0
LWPOLYLINE
  5
258
330
2
100
AcDbEntity
  8
PDF_Layer 1
 62
     7
420
 16777215
370
    80
100
AcDbPolyline
 90
        2
 70
     0
 43
0.0
 10
8.052687500000001
 20
8.742465277777775
 10
8.024270833333334
 20
8.799284722222219
  0
LWPOLYLINE
  5
259
330
2
100
AcDbEntity
  8
PDF_Layer 1
 62
     7
420
 16777215
370
    80
100
AcDbPolyline
 90
        2
 70
     0
 43
0.0
 10
8.02427222222222
 20
8.799281944444445
 10
8.007633333333332
 20
8.860268055555556
  0
LWPOLYLINE
  5
25A
330
2
100
AcDbEntity
  8
PDF_Layer 1
 62
     7
420
 16777215
370
    80
100
AcDbPolyline
 90
        2
 70
     0
 43
0.0
 10
8.007636111111111
 20
8.860263888888887
 10
8.003497222222222
 20
8.923319444444443
  0
LWPOLYLINE
  5
25B
330
2
100
AcDbEntity
  8
PDF_Layer 1
 62
     7
420
 16777215
370
    80
100
AcDbPolyline
 90
        2
 70
     0
 43
0.0
 10
8.638848611111109
 20
8.923319444444445
 10
8.634695833333331
 20
8.860263888888889
  0
LWPOLYLINE
  5
25C
330
2
100
AcDbEntity
  8
PDF_Layer 1
 62
     7
420
 16777215
370
    80
100
AcDbPolyline
 90
        2
 70
     0
 43
0.0
 10
8.634697222222222
 20
8.860263888888887
 10
8.618072222222222
 20
8.799277777777776
  0
LWPOLYLINE
  5
25D
330
2
100
AcDbEntity
  8
PDF_Layer 1
 62
     7
420
 16777215
370
    80
100
AcDbPolyline
 90
        2
 70
     0
 43
0.0
 10
8.618069444444444
 20
8.799281944444445
 10
8.589652777777777
 20
8.7424625
  0
LWPOLYLINE
  5
25E
330
2
100
AcDbEntity
  8
PDF_Layer 1
 62
     7
420
 16777215
370
    80
100
AcDbPolyline
 90
        2
 70
     0
 43
0.0
 10
8.589654166666665
 20
8.742465277777775
 10
8.550168055555554
 20
8.693270833333331
  0
LWPOLYLINE
  5
25F
330
2
100
AcDbEntity
  8
PDF_Layer 1
 62
     7
420
 16777215
370
    80
100
AcDbPolyline
 90
        3
 70
     0
 43
0.0
 10
8.550170833333332
 20
8.693270833333333
 10
8.50097638888889
 20
8.653090277777776
 10
8.444837500000001
 20
8.623979166666664
  0
LWPOLYLINE
  5
261
330
2
100
AcDbEntity
  8
PDF_Layer 1
 62
     7
420
 16777215
370
    80
100
AcDbPolyline
 90
        2
 70
     0
 43
0.0
 10
8.4448375
 20
8.623983333333331
 10
8.383879166666666
 20
8.606663888888887
  0
LWPOLYLINE
  5
262
330
2
100
AcDbEntity
  8
PDF_Layer 1
 62
     7
420
 16777215
370
    80
100
AcDbPolyline
 90
        2
 70
     0
 43
0.0
 10
8.383883333333333
 20
8.606669444444444
 10
8.320827777777777
 20
8.602502777777777
  0
LWPOLYLINE
  5
263
330
2
100
AcDbEntity
  8
PDF_Layer 1
 62
     7
420
 16777215
370
    80
100
AcDbPolyline
 90
        2
 70
     0
 43
0.0
 10
8.320827777777777
 20
9.244106944444444
 10
8.383883333333333
 20
9.239940277777778
  0
LWPOLYLINE
  5
264
330
2
100
AcDbEntity
  8
PDF_Layer 1
 62
     7
420
 16777215
370
    80
100
AcDbPolyline
 90
        2
 70
     0
 43
0.0
 10
8.383883333333333
 20
9.239943055555556
 10
8.444841666666667
 20
9.223331944444446
  0
LWPOLYLINE
  5
265
330
2
100
AcDbEntity
  8
PDF_Layer 1
 62
     7
420
 16777215
370
    80
100
AcDbPolyline
 90
        2
 70
     0
 43
0.0
 10
8.4448375
 20
9.223334722222221
 10
8.500976388888888
 20
9.193529166666666
  0
LWPOLYLINE
  5
266
330
2
100
AcDbEntity
  8
PDF_Layer 1
 62
     7
420
 16777215
370
    80
100
AcDbPolyline
 90
        2
 70
     0
 43
0.0
 10
8.50097638888889
 20
9.19352222222222
 10
8.550170833333334
 20
9.153341666666666
  0
LWPOLYLINE
  5
267
330
2
100
AcDbEntity
  8
PDF_Layer 1
 62
     7
420
 16777215
370
    80
100
AcDbPolyline
 90
        2
 70
     0
 43
0.0
 10
8.550170833333332
 20
9.153340277777775
 10
8.589656944444444
 20
9.104145833333332
  0
LWPOLYLINE
  5
268
330
2
100
AcDbEntity
  8
PDF_Layer 1
 62
     7
420
 16777215
370
    80
100
AcDbPolyline
 90
        2
 70
     0
 43
0.0
 10
8.589654166666665
 20
9.104145833333333
 10
8.618070833333332
 20
9.048006944444445
  0
LWPOLYLINE
  5
269
330
2
100
AcDbEntity
  8
PDF_Layer 1
 62
     7
420
 16777215
370
    80
100
AcDbPolyline
 90
        2
 70
     0
 43
0.0
 10
8.618069444444444
 20
9.048006944444441
 10
8.634694444444443
 20
8.986354166666663
  0
LWPOLYLINE
  5
26A
330
2
100
AcDbEntity
  8
PDF_Layer 1
 62
     7
420
 16777215
370
    80
100
AcDbPolyline
 90
        2
 70
     0
 43
0.0
 10
8.634697222222222
 20
8.986348611111109
 10
8.638849999999999
 20
8.923320833333331
  0
LWPOLYLINE
  5
26B
330
2
100
AcDbEntity
  8
PDF_Layer 1
 62
     7
420
 16777215
370
    80
100
AcDbPolyline
 90
        2
 70
     0
 43
0.0
 10
5.695563888888888
 20
8.923319444444445
 10
5.701799999999999
 20
8.766722222222222
  0
LWPOLYLINE
  5
26C
330
2
100
AcDbEntity
  8
PDF_Layer 1
 62
     7
420
 16777215
370
    80
100
AcDbPolyline
 90
        2
 70
     0
 43
0.0
 10
5.701795833333332
 20
8.76672361111111
 10
5.720518055555555
 20
8.611515277777778
  0
LWPOLYLINE
  5
26D
330
2
100
AcDbEntity
  8
PDF_Layer 1
 62
     7
420
 16777215
370
    80
100
AcDbPolyline
 90
        2
 70
     0
 43
0.0
 10
5.720513888888889
 20
8.611511111111111
 10
5.750986111111111
 20
8.457719444444444
  0
LWPOLYLINE
  5
26E
330
2
100
AcDbEntity
  8
PDF_Layer 1
 62
     7
420
 16777215
370
    80
100
AcDbPolyline
 90
        2
 70
     0
 43
0.0
 10
5.750990277777776
 20
8.457716666666664
 10
5.793948611111109
 20
8.306661111111109
  0
LWPOLYLINE
  5
26F
330
2
100
AcDbEntity
  8
PDF_Layer 1
 62
     7
420
 16777215
370
    80
100
AcDbPolyline
 90
        2
 70
     0
 43
0.0
 10
5.793952777777778
 20
8.306654166666666
 10
5.848688888888889
 20
8.160459722222221
  0
LWPOLYLINE
  5
270
330
2
100
AcDbEntity
  8
PDF_Layer 1
 62
     7
420
 16777215
370
    80
100
AcDbPolyline
 90
        2
 70
     0
 43
0.0
 10
5.848687499999999
 20
8.160454166666665
 10
5.914506944444443
 20
8.017745833333332
  0
LWPOLYLINE
  5
271
330
2
100
AcDbEntity
  8
PDF_Layer 1
 62
     7
420
 16777215
370
    80
100
AcDbPolyline
 90
        2
 70
     0
 43
0.0
 10
5.914509722222222
 20
8.017740277777779
 10
5.992106944444444
 20
7.881920833333334
  0
LWPOLYLINE
  5
272
330
2
100
AcDbEntity
  8
PDF_Layer 1
 62
     7
420
 16777215
370
    80
100
AcDbPolyline
 90
        2
 70
     0
 43
0.0
 10
5.992105555555554
 20
7.881916666666667
 10
6.07941111111111
 20
7.751680555555555
  0
LWPOLYLINE
  5
273
330
2
100
AcDbEntity
  8
PDF_Layer 1
 62
     7
420
 16777215
370
    80
100
AcDbPolyline
 90
        2
 70
     0
 43
0.0
 10
6.079413888888888
 20
7.751674999999998
 10
6.177094444444444
 20
7.629022222222221
  0
LWPOLYLINE
  5
274
330
2
100
AcDbEntity
  8
PDF_Layer 1
 62
     7
420
 16777215
370
    80
100
AcDbPolyline
 90
        2
 70
     0
 43
0.0
 10
6.177097222222221
 20
7.629027777777778
 10
6.284499999999999
 20
7.514708333333334
  0
LWPOLYLINE
  5
275
330
2
100
AcDbEntity
  8
PDF_Layer 1
 62
     7
420
 16777215
370
    80
100
AcDbPolyline
 90
        2
 70
     0
 43
0.0
 10
6.28449861111111
 20
7.514709722222221
 10
6.400206944444443
 20
7.408695833333332
  0
LWPOLYLINE
  5
276
330
2
100
AcDbEntity
  8
PDF_Layer 1
 62
     7
420
 16777215
370
    80
100
AcDbPolyline
 90
        2
 70
     0
 43
0.0
 10
6.400206944444444
 20
7.40869861111111
 10
6.524220833333333
 20
7.313087499999999
  0
LWPOLYLINE
  5
277
330
2
100
AcDbEntity
  8
PDF_Layer 1
 62
     7
420
 16777215
370
    80
100
AcDbPolyline
 90
        2
 70
     0
 43
0.0
 10
6.524218055555555
 20
7.313083333333331
 10
6.655162499999999
 20
7.226486111111109
  0
LWPOLYLINE
  5
278
330
2
100
AcDbEntity
  8
PDF_Layer 1
 62
     7
420
 16777215
370
    80
100
AcDbPolyline
 90
        2
 70
     0
 43
0.0
 10
6.655165277777776
 20
7.226480555555554
 10
6.79237361111111
 20
7.150966666666665
  0
LWPOLYLINE
  5
279
330
2
100
AcDbEntity
  8
PDF_Layer 1
 62
     7
420
 16777215
370
    80
100
AcDbPolyline
 90
        2
 70
     0
 43
0.0
 10
6.792372222222222
 20
7.15095972222222
 10
6.935802777777777
 20
7.086515277777775
  0
LWPOLYLINE
  5
27A
330
2
100
AcDbEntity
  8
PDF_Layer 1
 62
     7
420
 16777215
370
    80
100
AcDbPolyline
 90
        2
 70
     0
 43
0.0
 10
6.935797222222221
 20
7.086520833333332
 10
7.083366666666666
 20
7.033868055555554
  0
LWPOLYLINE
  5
27B
330
2
100
AcDbEntity
  8
PDF_Layer 1
 62
     7
420
 16777215
370
    80
100
AcDbPolyline
 90
        2
 70
     0
 43
0.0
 10
7.08336111111111
 20
7.033868055555553
 10
7.23511111111111
 20
6.992298611111109
  0
LWPOLYLINE
  5
27C
330
2
100
AcDbEntity
  8
PDF_Layer 1
 62
     7
420
 16777215
370
    80
100
AcDbPolyline
 90
        2
 70
     0
 43
0.0
 10
7.235106944444443
 20
6.992295833333332
 10
7.389606944444443
 20
6.963893055555554
  0
LWPOLYLINE
  5
27D
330
2
100
AcDbEntity
  8
PDF_Layer 1
 62
     7
420
 16777215
370
    80
100
AcDbPolyline
 90
        2
 70
     0
 43
0.0
 10
7.389608333333332
 20
6.963894444444443
 10
7.545497222222221
 20
6.94656111111111
  0
LWPOLYLINE
  5
27E
330
2
100
AcDbEntity
  8
PDF_Layer 1
 62
     7
420
 16777215
370
    80
100
AcDbPolyline
 90
        2
 70
     0
 43
0.0
 10
7.545498611111112
 20
6.946559722222222
 10
7.702095833333334
 20
6.942420833333333
  0
LWPOLYLINE
  5
27F
330
2
100
AcDbEntity
  8
PDF_Layer 1
 62
     7
420
 16777215
370
    80
100
AcDbPolyline
 90
        2
 70
     0
 43
0.0
 10
7.702094444444443
 20
6.942416666666666
 10
7.857302777777777
 20
6.942416666666666
  0
LWPOLYLINE
  5
280
330
2
100
AcDbEntity
  8
PDF_Layer 1
 62
     7
420
 16777215
370
    80
100
AcDbPolyline
 90
        2
 70
     0
 43
0.0
 10
7.857299999999999
 20
6.942416666666666
 10
8.054758333333332
 20
6.942416666666666
  0
LWPOLYLINE
  5
281
330
2
100
AcDbEntity
  8
PDF_Layer 1
 62
     7
420
 16777215
370
    80
100
AcDbPolyline
 90
        2
 70
     0
 43
0.0
 10
5.720513888888889
 20
8.923319444444445
 10
5.72675
 20
8.768791666666666
  0
LWPOLYLINE
  5
282
330
2
100
AcDbEntity
  8
PDF_Layer 1
 62
     7
420
 16777215
370
    80
100
AcDbPolyline
 90
        2
 70
     0
 43
0.0
 10
5.726745833333333
 20
8.768791666666665
 10
5.744759722222221
 20
8.61497222222222
  0
LWPOLYLINE
  5
283
330
2
100
AcDbEntity
  8
PDF_Layer 1
 62
     7
420
 16777215
370
    80
100
AcDbPolyline
 90
        2
 70
     0
 43
0.0
 10
5.744758333333333
 20
8.614976388888891
 10
5.775244444444444
 20
8.463948611111113
  0
LWPOLYLINE
  5
284
330
2
100
AcDbEntity
  8
PDF_Layer 1
 62
     7
420
 16777215
370
    80
100
AcDbPolyline
 90
        2
 70
     0
 43
0.0
 10
5.77524861111111
 20
8.463955555555555
 10
5.818206944444443
 20
8.314983333333334
  0
LWPOLYLINE
  5
285
330
2
100
AcDbEntity
  8
PDF_Layer 1
 62
     7
420
 16777215
370
    80
100
AcDbPolyline
 90
        2
 70
     0
 43
0.0
 10
5.818202777777777
 20
8.314981944444445
 10
5.872230555555555
 20
8.170148611111113
  0
LWPOLYLINE
  5
286
330
2
100
AcDbEntity
  8
PDF_Layer 1
 62
     7
420
 16777215
370
    80
100
AcDbPolyline
 90
        2
 70
     0
 43
0.0
 10
5.872233333333333
 20
8.170145833333332
 10
5.937372222222222
 20
8.029520833333332
  0
LWPOLYLINE
  5
287
330
2
100
AcDbEntity
  8
PDF_Layer 1
 62
     7
420
 16777215
370
    80
100
AcDbPolyline
 90
        2
 70
     0
 43
0.0
 10
5.937370833333332
 20
8.029527777777776
 10
6.013579166666666
 20
7.89509722222222
  0
LWPOLYLINE
  5
288
330
2
100
AcDbEntity
  8
PDF_Layer 1
 62
     7
420
 16777215
370
    80
100
AcDbPolyline
 90
        2
 70
     0
 43
0.0
 10
6.013583333333332
 20
7.895094444444443
 10
6.100888888888888
 20
7.766913888888887
  0
LWPOLYLINE
  5
289
330
2
100
AcDbEntity
  8
PDF_Layer 1
 62
     7
420
 16777215
370
    80
100
AcDbPolyline
 90
        2
 70
     0
 43
0.0
 10
6.100891666666666
 20
7.766920833333334
 10
6.197197222222222
 20
7.64635138888889
  0
LWPOLYLINE
  5
28A
330
2
100
AcDbEntity
  8
PDF_Layer 1
 62
     7
420
 16777215
370
    80
100
AcDbPolyline
 90
        2
 70
     0
 43
0.0
 10
6.197191666666666
 20
7.646348611111108
 10
6.303205555555555
 20
7.534112499999998
  0
LWPOLYLINE
  5
28B
330
2
100
AcDbEntity
  8
PDF_Layer 1
 62
     7
420
 16777215
370
    80
100
AcDbPolyline
 90
        2
 70
     0
 43
0.0
 10
6.303202777777777
 20
7.534118055555553
 10
6.417522222222221
 20
7.430173611111109
  0
LWPOLYLINE
  5
28C
330
2
100
AcDbEntity
  8
PDF_Layer 1
 62
     7
420
 16777215
370
    80
100
AcDbPolyline
 90
        2
 70
     0
 43
0.0
 10
6.417520833333332
 20
7.430176388888888
 10
6.54017361111111
 20
7.33527361111111
  0
LWPOLYLINE
  5
28D
330
2
100
AcDbEntity
  8
PDF_Layer 1
 62
     7
420
 16777215
370
    80
100
AcDbPolyline
 90
        2
 70
     0
 43
0.0
 10
6.540168055555554
 20
7.335272222222221
 10
6.669723611111109
 20
7.250716666666666
  0
LWPOLYLINE
  5
28E
330
2
100
AcDbEntity
  8
PDF_Layer 1
 62
     7
420
 16777215
370
    80
100
AcDbPolyline
 90
        2
 70
     0
 43
0.0
 10
6.669724999999999
 20
7.250719444444443
 10
6.805530555555555
 20
7.176608333333332
  0
LWPOLYLINE
  5
28F
330
2
100
AcDbEntity
  8
PDF_Layer 1
 62
     7
420
 16777215
370
    80
100
AcDbPolyline
 90
        2
 70
     0
 43
0.0
 10
6.805527777777776
 20
7.176601388888889
 10
6.946874999999998
 20
7.114240277777778
  0
LWPOLYLINE
  5
290
330
2
100
AcDbEntity
  8
PDF_Layer 1
 62
     7
420
 16777215
370
    80
100
AcDbPolyline
 90
        2
 70
     0
 43
0.0
 10
6.946879166666666
 20
7.114237499999999
 10
7.092365277777777
 20
7.062293055555555
  0
LWPOLYLINE
  5
291
330
2
100
AcDbEntity
  8
PDF_Layer 1
 62
     7
420
 16777215
370
    80
100
AcDbPolyline
 90
        2
 70
     0
 43
0.0
 10
7.092366666666666
 20
7.062290277777776
 10
7.242019444444444
 20
7.022790277777776
  0
LWPOLYLINE
  5
292
330
2
100
AcDbEntity
  8
PDF_Layer 1
 62
     7
420
 16777215
370
    80
100
AcDbPolyline
 90
        2
 70
     0
 43
0.0
 10
7.242024999999999
 20
7.022786111111111
 10
7.393774999999998
 20
6.995063888888888
  0
LWPOLYLINE
  5
293
330
2
100
AcDbEntity
  8
PDF_Layer 1
 62
     7
420
 16777215
370
    80
100
AcDbPolyline
 90
        2
 70
     0
 43
0.0
 10
7.393772222222219
 20
6.995069444444444
 10
7.547591666666663
 20
6.979138888888889
  0
LWPOLYLINE
  5
294
330
2
100
AcDbEntity
  8
PDF_Layer 1
 62
     7
420
 16777215
370
    80
100
AcDbPolyline
 90
        2
 70
     0
 43
0.0
 10
7.547587499999998
 20
6.979138888888887
 10
7.702101388888888
 20
6.975666666666665
  0
LWPOLYLINE
  5
295
330
2
100
AcDbEntity
  8
PDF_Layer 1
 62
     7
420
 16777215
370
    80
100
AcDbPolyline
 90
        2
 70
     0
 43
0.0
 10
7.702094444444443
 20
6.975661111111111
 10
7.857302777777777
 20
6.975661111111111
  0
LWPOLYLINE
  5
299
330
2
100
AcDbEntity
  8
PDF_Layer 1
 62
     7
420
 16777215
370
    80
100
AcDbPolyline
 90
        2
 70
     0
 43
0.0
 10
9.774454166666666
 20
1.502712499999999
 10
9.8139125
 20
1.50619861111111
  0
LWPOLYLINE
  5
29A
330
2
100
AcDbEntity
  8
PDF_Layer 1
 62
     7
420
 16777215
370
    80
100
AcDbPolyline
 90
        2
 70
     0
 43
0.0
 10
9.81391111111111
 20
1.506198611111111
 10
9.831938888888888
 20
1.507573611111111
  0
LWPOLYLINE
  5
29B
330
2
100
AcDbEntity
  8
PDF_Layer 1
 62
     7
420
 16777215
370
    80
100
AcDbPolyline
 90
        2
 70
     0
 43
0.0
 10
9.83193611111111
 20
1.507568055555555
 10
9.849269444444443
 20
1.508956944444444
  0
LWPOLYLINE
  5
29C
330
2
100
AcDbEntity
  8
PDF_Layer 1
 62
     7
420
 16777215
370
    80
100
AcDbPolyline
 90
        2
 70
     0
 43
0.0
 10
9.849270833333331
 20
1.508951388888888
 10
9.865881944444442
 20
1.510340277777777
  0
LWPOLYLINE
  5
29D
330
2
100
AcDbEntity
  8
PDF_Layer 1
 62
     7
420
 16777215
370
    80
100
AcDbPolyline
 90
        2
 70
     0
 43
0.0
 10
9.865884722222221
 20
1.510334722222222
 10
9.881134722222221
 20
1.511043055555555
  0
LWPOLYLINE
  5
29E
330
2
100
AcDbEntity
  8
PDF_Layer 1
 62
     7
420
 16777215
370
    80
100
AcDbPolyline
 90
        2
 70
     0
 43
0.0
 10
9.881130555555554
 20
1.511040277777777
 10
9.895686111111109
 20
1.512429166666666
  0
LWPOLYLINE
  5
29F
330
2
100
AcDbEntity
  8
PDF_Layer 1
 62
     7
420
 16777215
370
    80
100
AcDbPolyline
 90
        2
 70
     0
 43
0.0
 10
9.895684722222222
 20
1.512423611111111
 10
9.9088375
 20
1.513118055555555
  0
LWPOLYLINE
  5
2A0
330
2
100
AcDbEntity
  8
PDF_Layer 1
 62
     7
420
 16777215
370
    80
100
AcDbPolyline
 90
        2
 70
     0
 43
0.0
 10
9.908840277777775
 20
1.513115277777777
 10
9.920631944444442
 20
1.513809722222222
  0
LWPOLYLINE
  5
2A1
330
2
100
AcDbEntity
  8
PDF_Layer 1
 62
     7
420
 16777215
370
    80
100
AcDbPolyline
 90
        2
 70
     0
 43
0.0
 10
9.920627777777777
 20
1.513806944444444
 10
9.93308611111111
 20
1.515195833333333
  0
LWPOLYLINE
  5
2A2
330
2
100
AcDbEntity
  8
PDF_Layer 1
 62
     7
420
 16777215
370
    80
100
AcDbPolyline
 90
        2
 70
     0
 43
0.0
 10
9.933091666666665
 20
1.515191666666666
 10
9.946244444444443
 20
1.515872222222222
  0
LWPOLYLINE
  5
2A3
330
2
100
AcDbEntity
  8
PDF_Layer 1
 62
     7
420
 16777215
370
    80
100
AcDbPolyline
 90
        2
 70
     0
 43
0.0
 10
9.94624861111111
 20
1.515869444444444
 10
9.960818055555554
 20
1.517272222222222
  0
LWPOLYLINE
  5
2A4
330
2
100
AcDbEntity
  8
PDF_Layer 1
 62
     7
420
 16777215
370
    80
100
AcDbPolyline
 90
        2
 70
     0
 43
0.0
 10
9.960815277777779
 20
1.517266666666666
 10
9.975370833333334
 20
1.518669444444444
  0
LWPOLYLINE
  5
2A5
330
2
100
AcDbEntity
  8
PDF_Layer 1
 62
     7
420
 16777215
370
    80
100
AcDbPolyline
 90
        2
 70
     0
 43
0.0
 10
9.975369444444442
 20
1.518663888888888
 10
9.991299999999998
 20
1.520052777777777
  0
LWPOLYLINE
  5
2A6
330
2
100
AcDbEntity
  8
PDF_Layer 1
 62
     7
420
 16777215
370
    80
100
AcDbPolyline
 90
        2
 70
     0
 43
0.0
 10
9.991305555555555
 20
1.520047222222222
 10
10.02179166666667
 20
1.522811111111111
  0
LWPOLYLINE
  5
2A7
330
2
100
AcDbEntity
  8
PDF_Layer 1
 62
     7
420
 16777215
370
    80
100
AcDbPolyline
 90
        2
 70
     0
 43
0.0
 10
10.02179583333333
 20
1.522813888888888
 10
10.0529625
 20
1.525577777777777
  0
LWPOLYLINE
  5
2A8
330
2
100
AcDbEntity
  8
PDF_Layer 1
 62
     7
420
 16777215
370
    80
100
AcDbPolyline
 90
        2
 70
     0
 43
0.0
 10
10.05296527777777
 20
1.525580555555555
 10
10.09110416666666
 20
1.529747222222222
  0
LWPOLYLINE
  5
2A9
330
2
100
AcDbEntity
  8
PDF_Layer 1
 62
     7
420
 16777215
370
    80
100
AcDbPolyline
 90
        2
 70
     0
 43
0.0
 10
10.09110555555555
 20
1.529744444444444
 10
10.12850833333333
 20
1.533202777777777
  0
LWPOLYLINE
  5
2AA
330
2
100
AcDbEntity
  8
PDF_Layer 1
 62
     7
420
 16777215
370
    80
100
AcDbPolyline
 90
        2
 70
     0
 43
0.0
 10
10.1285125
 20
1.533202777777777
 10
10.2040125
 20
1.541522222222222
  0
LWPOLYLINE
  5
2AB
330
2
100
AcDbEntity
  8
PDF_Layer 1
 62
     7
420
 16777215
370
    80
100
AcDbPolyline
 90
        2
 70
     0
 43
0.0
 10
10.20400694444444
 20
1.541518055555555
 10
10.27954861111111
 20
1.549851388888888
  0
LWPOLYLINE
  5
2AC
330
2
100
AcDbEntity
  8
PDF_Layer 1
 62
     7
420
 16777215
370
    80
100
AcDbPolyline
 90
        2
 70
     0
 43
0.0
 10
10.27955416666666
 20
1.549845833333333
 10
10.34535972222222
 20
1.556762499999999
  0
LWPOLYLINE
  5
2AD
330
2
100
AcDbEntity
  8
PDF_Layer 1
 62
     7
420
 16777215
370
    80
100
AcDbPolyline
 90
        2
 70
     0
 43
0.0
 10
10.34536388888888
 20
1.556762499999999
 10
10.41047499999999
 20
1.565081944444444
  0
LWPOLYLINE
  5
2AE
330
2
100
AcDbEntity
  8
PDF_Layer 1
 62
     7
420
 16777215
370
    80
100
AcDbPolyline
 90
        2
 70
     0
 43
0.0
 10
10.41048194444444
 20
1.565076388888888
 10
10.46937083333333
 20
1.572006944444444
  0
LWPOLYLINE
  5
2AF
330
2
100
AcDbEntity
  8
PDF_Layer 1
 62
     7
420
 16777215
370
    80
100
AcDbPolyline
 90
        2
 70
     0
 43
0.0
 10
10.46937361111111
 20
1.572008333333333
 10
10.52690138888889
 20
1.578924999999999
  0
LWPOLYLINE
  5
2B0
330
2
100
AcDbEntity
  8
PDF_Layer 1
 62
     7
420
 16777215
370
    80
100
AcDbPolyline
 90
        2
 70
     0
 43
0.0
 10
10.52689583333333
 20
1.578924999999999
 10
10.57817361111111
 20
1.58516111111111
  0
LWPOLYLINE
  5
2B1
330
2
100
AcDbEntity
  8
PDF_Layer 1
 62
     7
420
 16777215
370
    80
100
AcDbPolyline
 90
        2
 70
     0
 43
0.0
 10
10.57817916666667
 20
1.585163888888888
 10
10.62529027777777
 20
1.590705555555555
  0
LWPOLYLINE
  5
2B2
330
2
100
AcDbEntity
  8
PDF_Layer 1
 62
     7
420
 16777215
370
    80
100
AcDbPolyline
 90
        2
 70
     0
 43
0.0
 10
10.62528472222222
 20
1.590712499999999
 10
10.64677083333333
 20
1.593476388888888
  0
LWPOLYLINE
  5
2B3
330
2
100
AcDbEntity
  8
PDF_Layer 1
 62
     7
420
 16777215
370
    80
100
AcDbPolyline
 90
        2
 70
     0
 43
0.0
 10
10.64676944444444
 20
1.593479166666666
 10
10.666825
 20
1.596256944444444
  0
LWPOLYLINE
  5
2B4
330
2
100
AcDbEntity
  8
PDF_Layer 1
 62
     7
420
 16777215
370
    80
100
AcDbPolyline
 90
        2
 70
     0
 43
0.0
 10
10.66682916666666
 20
1.596259722222222
 10
10.6855375
 20
1.59902361111111
  0
LWPOLYLINE
  5
2B5
330
2
100
AcDbEntity
  8
PDF_Layer 1
 62
     7
420
 16777215
370
    80
100
AcDbPolyline
 90
        2
 70
     0
 43
0.0
 10
10.68553333333333
 20
1.599026388888888
 10
10.70218611111111
 20
1.601095833333333
  0
LWPOLYLINE
  5
2B6
330
2
100
AcDbEntity
  8
PDF_Layer 1
 62
     7
420
 16777215
370
    80
100
AcDbPolyline
 90
        2
 70
     0
 43
0.0
 10
11.04861111111111
 20
1.652370833333333
 10
11.06316666666666
 20
1.655843055555555
  0
LWPOLYLINE
  5
2B7
330
2
100
AcDbEntity
  8
PDF_Layer 1
 62
     7
420
 16777215
370
    80
100
AcDbPolyline
 90
        2
 70
     0
 43
0.0
 10
11.06316527777777
 20
1.655843055555555
 10
11.07077638888888
 20
1.658620833333333
  0
LWPOLYLINE
  5
2B8
330
2
100
AcDbEntity
  8
PDF_Layer 1
 62
     7
420
 16777215
370
    80
100
AcDbPolyline
 90
        2
 70
     1
 43
0.0
 10
6.232533333333334
 20
1.599031944444444
 10
6.215894444444445
 20
1.601101388888888
  0
LWPOLYLINE
  5
2B9
330
2
100
AcDbEntity
  8
PDF_Layer 1
 62
     7
420
 16777215
370
    80
100
AcDbPolyline
 90
        2
 70
     1
 43
0.0
 10
6.251238888888889
 20
1.596262499999999
 10
6.232530555555555
 20
1.599026388888888
  0
LWPOLYLINE
  5
2BA
330
2
100
AcDbEntity
  8
PDF_Layer 1
 62
     7
420
 16777215
370
    80
100
AcDbPolyline
 90
        2
 70
     1
 43
0.0
 10
6.271318055555554
 20
1.593481944444444
 10
6.251234722222221
 20
1.596259722222222
  0
LWPOLYLINE
  5
2BB
330
2
100
AcDbEntity
  8
PDF_Layer 1
 62
     7
420
 16777215
370
    80
100
AcDbPolyline
 90
        2
 70
     1
 43
0.0
 10
6.292808333333332
 20
1.590715277777777
 10
6.271322222222221
 20
1.593479166666666
  0
LWPOLYLINE
  5
2BC
330
2
100
AcDbEntity
  8
PDF_Layer 1
 62
     7
420
 16777215
370
    80
100
AcDbPolyline
 90
        3
 70
     0
 43
0.0
 10
6.356541666666665
 20
1.583087499999999
 10
6.292805555555554
 20
1.590712499999999
 10
6.339222222222221
 20
1.585170833333333
  0
LWPOLYLINE
  5
2BD
330
2
100
AcDbEntity
  8
PDF_Layer 1
 62
     7
420
 16777215
370
    80
100
AcDbPolyline
 90
        2
 70
     0
 43
0.0
 10
6.339226388888888
 20
1.585163888888888
 10
6.39119861111111
 20
1.578927777777777
  0
LWPOLYLINE
  5
2BE
330
2
100
AcDbEntity
  8
PDF_Layer 1
 62
     7
420
 16777215
370
    80
100
AcDbPolyline
 90
        2
 70
     0
 43
0.0
 10
6.391194444444444
 20
1.578924999999999
 10
6.44798611111111
 20
1.572008333333333
  0
LWPOLYLINE
  5
2BF
330
2
100
AcDbEntity
  8
PDF_Layer 1
 62
     7
420
 16777215
370
    80
100
AcDbPolyline
 90
        2
 70
     0
 43
0.0
 10
6.447984722222222
 20
1.572008333333333
 10
6.506901388888889
 20
1.565077777777777
  0
LWPOLYLINE
  5
2C0
330
2
100
AcDbEntity
  8
PDF_Layer 1
 62
     7
420
 16777215
370
    80
100
AcDbPolyline
 90
        2
 70
     0
 43
0.0
 10
6.506897222222221
 20
1.565076388888888
 10
6.572702777777776
 20
1.556756944444444
  0
LWPOLYLINE
  5
2C1
330
2
100
AcDbEntity
  8
PDF_Layer 1
 62
     7
420
 16777215
370
    80
100
AcDbPolyline
 90
        2
 70
     0
 43
0.0
 10
6.572706944444443
 20
1.556762499999999
 10
6.637845833333332
 20
1.549845833333333
  0
LWPOLYLINE
  5
2C2
330
2
100
AcDbEntity
  8
PDF_Layer 1
 62
     7
420
 16777215
370
    80
100
AcDbPolyline
 90
        2
 70
     0
 43
0.0
 10
6.637851388888887
 20
1.549845833333333
 10
6.696740277777776
 20
1.542901388888888
  0
LWPOLYLINE
  5
2C3
330
2
100
AcDbEntity
  8
PDF_Layer 1
 62
     7
420
 16777215
370
    80
100
AcDbPolyline
 90
        2
 70
     0
 43
0.0
 10
6.696736111111111
 20
1.542901388888888
 10
6.755625
 20
1.536679166666666
  0
LWPOLYLINE
  5
2C4
330
2
100
AcDbEntity
  8
PDF_Layer 1
 62
     7
420
 16777215
370
    80
100
AcDbPolyline
 90
        2
 70
     0
 43
0.0
 10
6.755629166666665
 20
1.536674999999999
 10
6.80343472222222
 20
1.531813888888888
  0
LWPOLYLINE
  5
2C5
330
2
100
AcDbEntity
  8
PDF_Layer 1
 62
     7
420
 16777215
370
    80
100
AcDbPolyline
 90
        2
 70
     0
 43
0.0
 10
6.803433333333333
 20
1.531819444444444
 10
6.851238888888889
 20
1.526972222222222
  0
LWPOLYLINE
  5
2C6
330
2
100
AcDbEntity
  8
PDF_Layer 1
 62
     7
420
 16777215
370
    80
100
AcDbPolyline
 90
        2
 70
     0
 43
0.0
 10
6.851244444444444
 20
1.526977777777777
 10
6.871355555555555
 20
1.524894444444444
  0
LWPOLYLINE
  5
2C7
330
2
100
AcDbEntity
  8
PDF_Layer 1
 62
     7
420
 16777215
370
    80
100
AcDbPolyline
 90
        2
 70
     0
 43
0.0
 10
6.871358333333333
 20
1.524888888888888
 10
6.890747222222222
 20
1.522819444444444
  0
LWPOLYLINE
  5
2C8
330
2
100
AcDbEntity
  8
PDF_Layer 1
 62
     7
420
 16777215
370
    80
100
AcDbPolyline
 90
        2
 70
     0
 43
0.0
 10
6.890740277777776
 20
1.522813888888888
 10
6.908754166666665
 20
1.521424999999999
  0
LWPOLYLINE
  5
2C9
330
2
100
AcDbEntity
  8
PDF_Layer 1
 62
     7
420
 16777215
370
    80
100
AcDbPolyline
 90
        2
 70
     0
 43
0.0
 10
6.908759722222221
 20
1.521430555555555
 10
6.926079166666665
 20
1.520041666666666
  0
LWPOLYLINE
  5
2CA
330
2
100
AcDbEntity
  8
PDF_Layer 1
 62
     7
420
 16777215
370
    80
100
AcDbPolyline
 90
        2
 70
     0
 43
0.0
 10
6.926079166666666
 20
1.520047222222222
 10
6.942009722222222
 20
1.518658333333333
  0
LWPOLYLINE
  5
2CB
330
2
100
AcDbEntity
  8
PDF_Layer 1
 62
     7
420
 16777215
370
    80
100
AcDbPolyline
 90
        2
 70
     0
 43
0.0
 10
6.942009722222222
 20
1.518663888888888
 10
6.957259722222222
 20
1.51726111111111
  0
LWPOLYLINE
  5
2CC
330
2
100
AcDbEntity
  8
PDF_Layer 1
 62
     7
420
 16777215
370
    80
100
AcDbPolyline
 90
        2
 70
     0
 43
0.0
 10
6.957255555555555
 20
1.517266666666666
 10
6.971811111111111
 20
1.515863888888888
  0
LWPOLYLINE
  5
2CD
330
2
100
AcDbEntity
  8
PDF_Layer 1
 62
     7
420
 16777215
370
    80
100
AcDbPolyline
 90
        2
 70
     0
 43
0.0
 10
6.971815277777777
 20
1.515869444444444
 10
6.984287499999999
 20
1.515188888888888
  0
LWPOLYLINE
  5
2CE
330
2
100
AcDbEntity
  8
PDF_Layer 1
 62
     7
420
 16777215
370
    80
100
AcDbPolyline
 90
        2
 70
     0
 43
0.0
 10
6.984287499999999
 20
1.515191666666666
 10
6.996745833333332
 20
1.513802777777777
  0
LWPOLYLINE
  5
2CF
330
2
100
AcDbEntity
  8
PDF_Layer 1
 62
     7
420
 16777215
370
    80
100
AcDbPolyline
 90
        2
 70
     0
 43
0.0
 10
6.996751388888887
 20
1.513806944444444
 10
7.00922361111111
 20
1.5131125
  0
LWPOLYLINE
  5
2D0
330
2
100
AcDbEntity
  8
PDF_Layer 1
 62
     7
420
 16777215
370
    80
100
AcDbPolyline
 90
        2
 70
     0
 43
0.0
 10
7.00922361111111
 20
1.513115277777777
 10
7.022376388888888
 20
1.512420833333333
  0
LWPOLYLINE
  5
2D1
330
2
100
AcDbEntity
  8
PDF_Layer 1
 62
     7
420
 16777215
370
    80
100
AcDbPolyline
 90
        2
 70
     0
 43
0.0
 10
7.022372222222222
 20
1.512423611111111
 10
7.036941666666667
 20
1.511034722222222
  0
LWPOLYLINE
  5
2D2
330
2
100
AcDbEntity
  8
PDF_Layer 1
 62
     7
420
 16777215
370
    80
100
AcDbPolyline
 90
        2
 70
     0
 43
0.0
 10
7.036940277777778
 20
1.511040277777777
 10
7.052190277777778
 20
1.510331944444444
  0
LWPOLYLINE
  5
2D3
330
2
100
AcDbEntity
  8
PDF_Layer 1
 62
     7
420
 16777215
370
    80
100
AcDbPolyline
 90
        2
 70
     0
 43
0.0
 10
7.052184722222222
 20
1.510334722222222
 10
7.068101388888888
 20
1.508945833333333
  0
LWPOLYLINE
  5
2D4
330
2
100
AcDbEntity
  8
PDF_Layer 1
 62
     7
420
 16777215
370
    80
100
AcDbPolyline
 90
        2
 70
     0
 43
0.0
 10
7.068108333333332
 20
1.508951388888888
 10
7.098608333333332
 20
1.506201388888888
  0
LWPOLYLINE
  5
2D5
330
2
100
AcDbEntity
  8
PDF_Layer 1
 62
     7
420
 16777215
370
    80
100
AcDbPolyline
 90
        2
 70
     0
 43
0.0
 10
7.098605555555555
 20
1.506198611111111
 10
7.129091666666666
 20
1.504115277777777
  0
LWPOLYLINE
  5
2D6
330
2
100
AcDbEntity
  8
PDF_Layer 1
 62
     7
420
 16777215
370
    80
100
AcDbPolyline
 90
        2
 70
     0
 43
0.0
 10
7.129095833333334
 20
1.504109722222222
 10
7.169276388888889
 20
1.500623611111111
  0
LWPOLYLINE
  5
2DC
330
2
100
AcDbEntity
  8
PDF_Layer 1
 62
     7
420
 16777215
370
    80
100
AcDbPolyline
 90
        3
 70
     1
 43
0.0
 10
8.613199999999999
 20
1.527655555555555
 10
8.614588888888887
 20
1.508252777777777
 42
-29.12676777110201
 10
8.611124999999999
 20
1.527655555555555
  0
LWPOLYLINE
  5
2DD
330
2
100
AcDbEntity
  8
PDF_Layer 1
 62
     7
420
 16777215
370
    80
100
AcDbPolyline
 90
        4
 70
     1
 43
0.0
 10
8.929144444444444
 20
2.445013888888888
 10
8.929144444444444
 20
0.5347916666666666
 42
-0.2272706565318956
 10
8.014554166666664
 20
0.5347902777777778
 10
8.014554166666664
 20
2.445012499999999
 42
-0.2272402849354062
  0
LWPOLYLINE
  5
2E0
330
2
100
AcDbEntity
  8
PDF_Layer 1
 62
     7
420
 16777215
370
    80
100
AcDbPolyline
 90
        3
 70
     0
 43
0.0
 10
5.864613888888888
 20
1.813109722222221
 10
5.858377777777777
 20
1.813109722222221
 10
5.845905555555554
 20
1.735526388888888
  0
LWPOLYLINE
  5
2E1
330
2
100
AcDbEntity
  8
PDF_Layer 1
 62
     7
420
 16777215
370
    80
100
AcDbPolyline
 90
        2
 70
     0
 43
0.0
 10
5.845906944444443
 20
1.735527777777777
 10
5.833434722222221
 20
1.658624999999999
  0
LWPOLYLINE
  5
2E2
330
2
100
AcDbEntity
  8
PDF_Layer 1
 62
     7
420
 16777215
370
    80
100
AcDbPolyline
 90
        2
 70
     0
 43
0.0
 10
11.05970555555555
 20
1.813109722222221
 10
11.07217777777778
 20
1.735526388888888
  0
LWPOLYLINE
  5
2E3
330
2
100
AcDbEntity
  8
PDF_Layer 1
 62
     7
420
 16777215
370
    80
100
AcDbPolyline
 90
        2
 70
     0
 43
0.0
 10
11.07218472222222
 20
1.735527777777777
 10
11.08464305555555
 20
1.658624999999999
  0
LWPOLYLINE
  5
2E4
330
2
100
AcDbEntity
  8
PDF_Layer 1
 62
     7
420
 16777215
370
    80
100
AcDbPolyline
 90
        3
 70
     0
 43
0.0
 10
9.738416666666665
 20
1.813109722222221
 10
9.83334722222222
 20
1.813109722222221
 10
9.974694444444443
 20
1.813109722222221
  0
LWPOLYLINE
  5
2E6
330
2
100
AcDbEntity
  8
PDF_Layer 1
 62
     7
420
 16777215
370
    80
100
AcDbPolyline
 90
        2
 70
     0
 43
0.0
 10
9.974690277777778
 20
1.813109722222221
 10
10.11048194444444
 20
1.813109722222221
  0
LWPOLYLINE
  5
2E7
330
2
100
AcDbEntity
  8
PDF_Layer 1
 62
     7
420
 16777215
370
    80
100
AcDbPolyline
 90
        2
 70
     0
 43
0.0
 10
10.1104875
 20
1.813109722222221
 10
10.24005694444444
 20
1.813109722222221
  0
LWPOLYLINE
  5
2E8
330
2
100
AcDbEntity
  8
PDF_Layer 1
 62
     7
420
 16777215
370
    80
100
AcDbPolyline
 90
        2
 70
     0
 43
0.0
 10
10.24005833333333
 20
1.813109722222221
 10
10.36196111111111
 20
1.813109722222221
  0
LWPOLYLINE
  5
2E9
330
2
100
AcDbEntity
  8
PDF_Layer 1
 62
     7
420
 16777215
370
    80
100
AcDbPolyline
 90
        2
 70
     0
 43
0.0
 10
10.36196527777777
 20
1.813109722222221
 10
10.47700694444444
 20
1.813109722222221
  0
LWPOLYLINE
  5
2EA
330
2
100
AcDbEntity
  8
PDF_Layer 1
 62
     7
420
 16777215
370
    80
100
AcDbPolyline
 90
        2
 70
     0
 43
0.0
 10
10.47700972222222
 20
1.813109722222221
 10
10.58300972222222
 20
1.813109722222221
  0
LWPOLYLINE
  5
2EB
330
2
100
AcDbEntity
  8
PDF_Layer 1
 62
     7
420
 16777215
370
    80
100
AcDbPolyline
 90
        2
 70
     0
 43
0.0
 10
10.58300833333333
 20
1.813109722222221
 10
10.67931388888889
 20
1.813109722222221
  0
LWPOLYLINE
  5
2EC
330
2
100
AcDbEntity
  8
PDF_Layer 1
 62
     7
420
 16777215
370
    80
100
AcDbPolyline
 90
        2
 70
     0
 43
0.0
 10
10.67930833333333
 20
1.813109722222221
 10
10.76594722222222
 20
1.813109722222221
  0
LWPOLYLINE
  5
2ED
330
2
100
AcDbEntity
  8
PDF_Layer 1
 62
     7
420
 16777215
370
    80
100
AcDbPolyline
 90
        2
 70
     0
 43
0.0
 10
10.76595
 20
1.813109722222221
 10
10.84213055555555
 20
1.813109722222221
  0
LWPOLYLINE
  5
2EE
330
2
100
AcDbEntity
  8
PDF_Layer 1
 62
     7
420
 16777215
370
    80
100
AcDbPolyline
 90
        2
 70
     0
 43
0.0
 10
10.84213611111111
 20
1.813109722222221
 10
10.90798333333333
 20
1.813109722222221
  0
LWPOLYLINE
  5
2EF
330
2
100
AcDbEntity
  8
PDF_Layer 1
 62
     7
420
 16777215
370
    80
100
AcDbPolyline
 90
        2
 70
     0
 43
0.0
 10
10.90798611111111
 20
1.813109722222221
 10
10.962
 20
1.813109722222221
  0
LWPOLYLINE
  5
2F0
330
2
100
AcDbEntity
  8
PDF_Layer 1
 62
     7
420
 16777215
370
    80
100
AcDbPolyline
 90
        2
 70
     0
 43
0.0
 10
10.96199583333333
 20
1.813109722222221
 10
11.0042875
 20
1.813109722222221
  0
LWPOLYLINE
  5
2F1
330
2
100
AcDbEntity
  8
PDF_Layer 1
 62
     7
420
 16777215
370
    80
100
AcDbPolyline
 90
        2
 70
     0
 43
0.0
 10
11.00428611111111
 20
1.813109722222221
 10
11.03475833333333
 20
1.813109722222221
  0
LWPOLYLINE
  5
2F2
330
2
100
AcDbEntity
  8
PDF_Layer 1
 62
     7
420
 16777215
370
    80
100
AcDbPolyline
 90
        2
 70
     0
 43
0.0
 10
11.0347625
 20
1.813109722222221
 10
11.05348472222222
 20
1.813109722222221
  0
LWPOLYLINE
  5
2F3
330
2
100
AcDbEntity
  8
PDF_Layer 1
 62
     7
420
 16777215
370
    80
100
AcDbPolyline
 90
        2
 70
     0
 43
0.0
 10
11.05348055555555
 20
1.813109722222221
 10
11.05970277777777
 20
1.813109722222221
  0
LWPOLYLINE
  5
2F4
330
2
100
AcDbEntity
  8
PDF_Layer 1
 62
     7
420
 16777215
370
    80
100
AcDbPolyline
 90
        2
 70
     0
 43
0.0
 10
9.765448611111111
 20
1.659315277777777
 10
9.844406944444443
 20
1.659315277777777
  0
LWPOLYLINE
  5
2F5
330
2
100
AcDbEntity
  8
PDF_Layer 1
 62
     7
420
 16777215
370
    80
100
AcDbPolyline
 90
        2
 70
     0
 43
0.0
 10
9.844401388888888
 20
1.659315277777777
 10
9.987151388888888
 20
1.659315277777777
  0
LWPOLYLINE
  5
2F6
330
2
100
AcDbEntity
  8
PDF_Layer 1
 62
     7
420
 16777215
370
    80
100
AcDbPolyline
 90
        2
 70
     0
 43
0.0
 10
9.987155555555554
 20
1.659315277777777
 10
10.12505833333333
 20
1.658620833333332
  0
LWPOLYLINE
  5
2F7
330
2
100
AcDbEntity
  8
PDF_Layer 1
 62
     7
420
 16777215
370
    80
100
AcDbPolyline
 90
        2
 70
     0
 43
0.0
 10
10.12505416666666
 20
1.658623611111111
 10
10.25598472222222
 20
1.658623611111111
  0
LWPOLYLINE
  5
2F8
330
2
100
AcDbEntity
  8
PDF_Layer 1
 62
     7
420
 16777215
370
    80
100
AcDbPolyline
 90
        2
 70
     0
 43
0.0
 10
10.25598194444444
 20
1.658623611111111
 10
10.37999583333333
 20
1.658623611111111
  0
LWPOLYLINE
  5
2F9
330
2
100
AcDbEntity
  8
PDF_Layer 1
 62
     7
420
 16777215
370
    80
100
AcDbPolyline
 90
        3
 70
     0
 43
0.0
 10
10.37999166666666
 20
1.658623611111111
 10
10.49571388888889
 20
1.658623611111111
 10
10.60239444444444
 20
1.658623611111111
  0
LWPOLYLINE
  5
2FB
330
2
100
AcDbEntity
  8
PDF_Layer 1
 62
     7
420
 16777215
370
    80
100
AcDbPolyline
 90
        2
 70
     0
 43
0.0
 10
10.60239027777777
 20
1.658623611111111
 10
10.70009861111111
 20
1.658623611111111
  0
LWPOLYLINE
  5
2FC
330
2
100
AcDbEntity
  8
PDF_Layer 1
 62
     7
420
 16777215
370
    80
100
AcDbPolyline
 90
        2
 70
     0
 43
0.0
 10
10.70009999999999
 20
1.658623611111111
 10
10.78811388888889
 20
1.658623611111111
  0
LWPOLYLINE
  5
2FD
330
2
100
AcDbEntity
  8
PDF_Layer 1
 62
     7
420
 16777215
370
    80
100
AcDbPolyline
 90
        2
 70
     0
 43
0.0
 10
10.7881125
 20
1.658623611111111
 10
10.86501527777778
 20
1.658623611111111
  0
LWPOLYLINE
  5
2FE
330
2
100
AcDbEntity
  8
PDF_Layer 1
 62
     7
420
 16777215
370
    80
100
AcDbPolyline
 90
        2
 70
     0
 43
0.0
 10
10.86501666666666
 20
1.658623611111111
 10
10.93150277777777
 20
1.658623611111111
  0
LWPOLYLINE
  5
2FF
330
2
100
AcDbEntity
  8
PDF_Layer 1
 62
     7
420
 16777215
370
    80
100
AcDbPolyline
 90
        2
 70
     0
 43
0.0
 10
10.93150555555555
 20
1.658623611111111
 10
10.98625555555555
 20
1.658623611111111
  0
LWPOLYLINE
  5
300
330
2
100
AcDbEntity
  8
PDF_Layer 1
 62
     7
420
 16777215
370
    80
100
AcDbPolyline
 90
        2
 70
     0
 43
0.0
 10
10.98625972222222
 20
1.658623611111111
 10
11.02921805555555
 20
1.658623611111111
  0
LWPOLYLINE
  5
301
330
2
100
AcDbEntity
  8
PDF_Layer 1
 62
     7
420
 16777215
370
    80
100
AcDbPolyline
 90
        2
 70
     0
 43
0.0
 10
11.02921527777778
 20
1.658623611111111
 10
11.05970138888889
 20
1.658623611111111
  0
LWPOLYLINE
  5
302
330
2
100
AcDbEntity
  8
PDF_Layer 1
 62
     7
420
 16777215
370
    80
100
AcDbPolyline
 90
        2
 70
     0
 43
0.0
 10
11.05970555555555
 20
1.658623611111111
 10
11.07841388888889
 20
1.658623611111111
  0
LWPOLYLINE
  5
303
330
2
100
AcDbEntity
  8
PDF_Layer 1
 62
     7
420
 16777215
370
    80
100
AcDbPolyline
 90
        2
 70
     0
 43
0.0
 10
11.07840972222222
 20
1.658623611111111
 10
11.08464583333333
 20
1.658623611111111
  0
LWPOLYLINE
  5
304
330
2
100
AcDbEntity
  8
PDF_Layer 1
 62
     7
420
 16777215
370
    80
100
AcDbPolyline
 90
        2
 70
     0
 43
0.0
 10
10.559475
 20
1.583088888888888
 10
11.08465555555555
 20
1.658616666666666
  0
LWPOLYLINE
  5
305
330
2
100
AcDbEntity
  8
PDF_Layer 1
 62
     7
420
 16777215
370
    80
100
AcDbPolyline
 90
        2
 70
     0
 43
0.0
 10
5.833427777777777
 20
1.658623611111111
 10
5.839663888888888
 20
1.658623611111111
  0
LWPOLYLINE
  5
306
330
2
100
AcDbEntity
  8
PDF_Layer 1
 62
     7
420
 16777215
370
    80
100
AcDbPolyline
 90
        2
 70
     0
 43
0.0
 10
5.83966111111111
 20
1.658623611111111
 10
5.858383333333333
 20
1.658623611111111
  0
LWPOLYLINE
  5
307
330
2
100
AcDbEntity
  8
PDF_Layer 1
 62
     7
420
 16777215
370
    80
100
AcDbPolyline
 90
        2
 70
     0
 43
0.0
 10
5.858377777777777
 20
1.658623611111111
 10
5.888863888888888
 20
1.658623611111111
  0
LWPOLYLINE
  5
308
330
2
100
AcDbEntity
  8
PDF_Layer 1
 62
     7
420
 16777215
370
    80
100
AcDbPolyline
 90
        2
 70
     0
 43
0.0
 10
5.888861111111109
 20
1.658623611111111
 10
5.931819444444442
 20
1.658623611111111
  0
LWPOLYLINE
  5
309
330
2
100
AcDbEntity
  8
PDF_Layer 1
 62
     7
420
 16777215
370
    80
100
AcDbPolyline
 90
        2
 70
     0
 43
0.0
 10
5.931816666666666
 20
1.658623611111111
 10
5.986552777777777
 20
1.658623611111111
  0
LWPOLYLINE
  5
30A
330
2
100
AcDbEntity
  8
PDF_Layer 1
 62
     7
420
 16777215
370
    80
100
AcDbPolyline
 90
        2
 70
     0
 43
0.0
 10
5.986551388888887
 20
1.658623611111111
 10
6.05238472222222
 20
1.658623611111111
  0
LWPOLYLINE
  5
30B
330
2
100
AcDbEntity
  8
PDF_Layer 1
 62
     7
420
 16777215
370
    80
100
AcDbPolyline
 90
        2
 70
     0
 43
0.0
 10
6.052381944444443
 20
1.658623611111111
 10
6.129965277777776
 20
1.658623611111111
  0
LWPOLYLINE
  5
30C
330
2
100
AcDbEntity
  8
PDF_Layer 1
 62
     7
420
 16777215
370
    80
100
AcDbPolyline
 90
        2
 70
     0
 43
0.0
 10
6.129970833333333
 20
1.658623611111111
 10
6.217290277777777
 20
1.658623611111111
  0
LWPOLYLINE
  5
30D
330
2
100
AcDbEntity
  8
PDF_Layer 1
 62
     7
420
 16777215
370
    80
100
AcDbPolyline
 90
        2
 70
     0
 43
0.0
 10
6.217284722222222
 20
1.658623611111111
 10
6.314965277777778
 20
1.658623611111111
  0
LWPOLYLINE
  5
30E
330
2
100
AcDbEntity
  8
PDF_Layer 1
 62
     7
420
 16777215
370
    80
100
AcDbPolyline
 90
        2
 70
     0
 43
0.0
 10
6.314968055555555
 20
1.658623611111111
 10
6.422356944444444
 20
1.658623611111111
  0
LWPOLYLINE
  5
30F
330
2
100
AcDbEntity
  8
PDF_Layer 1
 62
     7
420
 16777215
370
    80
100
AcDbPolyline
 90
        3
 70
     0
 43
0.0
 10
6.422363888888888
 20
1.658623611111111
 10
6.538072222222221
 20
1.658623611111111
 10
6.66208611111111
 20
1.658623611111111
  0
LWPOLYLINE
  5
311
330
2
100
AcDbEntity
  8
PDF_Layer 1
 62
     7
420
 16777215
370
    80
100
AcDbPolyline
 90
        2
 70
     0
 43
0.0
 10
6.662081944444445
 20
1.658623611111111
 10
6.793040277777778
 20
1.658623611111111
  0
LWPOLYLINE
  5
312
330
2
100
AcDbEntity
  8
PDF_Layer 1
 62
     7
420
 16777215
370
    80
100
AcDbPolyline
 90
        2
 70
     0
 43
0.0
 10
6.79303611111111
 20
1.658623611111111
 10
6.930244444444443
 20
1.659318055555555
  0
LWPOLYLINE
  5
313
330
2
100
AcDbEntity
  8
PDF_Layer 1
 62
     7
420
 16777215
370
    80
100
AcDbPolyline
 90
        2
 70
     0
 43
0.0
 10
6.930243055555554
 20
1.659315277777777
 10
7.176187499999999
 20
1.659315277777777
  0
LWPOLYLINE
  5
315
330
2
100
AcDbEntity
  8
PDF_Layer 1
 62
     7
420
 16777215
370
    80
100
AcDbPolyline
 90
        2
 70
     0
 43
0.0
 10
5.86461111111111
 20
1.813109722222221
 10
5.882624999999999
 20
1.813109722222221
  0
LWPOLYLINE
  5
316
330
2
100
AcDbEntity
  8
PDF_Layer 1
 62
     7
420
 16777215
370
    80
100
AcDbPolyline
 90
        2
 70
     0
 43
0.0
 10
5.882622222222222
 20
1.813109722222221
 10
5.913108333333333
 20
1.813109722222221
  0
LWPOLYLINE
  5
317
330
2
100
AcDbEntity
  8
PDF_Layer 1
 62
     7
420
 16777215
370
    80
100
AcDbPolyline
 90
        2
 70
     0
 43
0.0
 10
5.913112499999999
 20
1.813109722222221
 10
5.956070833333332
 20
1.813109722222221
  0
LWPOLYLINE
  5
318
330
2
100
AcDbEntity
  8
PDF_Layer 1
 62
     7
420
 16777215
370
    80
100
AcDbPolyline
 90
        2
 70
     0
 43
0.0
 10
5.956074999999999
 20
1.813109722222221
 10
6.010102777777777
 20
1.813109722222221
  0
LWPOLYLINE
  5
319
330
2
100
AcDbEntity
  8
PDF_Layer 1
 62
     7
420
 16777215
370
    80
100
AcDbPolyline
 90
        2
 70
     0
 43
0.0
 10
6.010104166666665
 20
1.813109722222221
 10
6.075229166666665
 20
1.813109722222221
  0
LWPOLYLINE
  5
31A
330
2
100
AcDbEntity
  8
PDF_Layer 1
 62
     7
420
 16777215
370
    80
100
AcDbPolyline
 90
        2
 70
     0
 43
0.0
 10
6.07523611111111
 20
1.813109722222221
 10
6.151458333333333
 20
1.813109722222221
  0
LWPOLYLINE
  5
31B
330
2
100
AcDbEntity
  8
PDF_Layer 1
 62
     7
420
 16777215
370
    80
100
AcDbPolyline
 90
        2
 70
     0
 43
0.0
 10
6.151455555555555
 20
1.813109722222221
 10
6.238761111111111
 20
1.813109722222221
  0
LWPOLYLINE
  5
31C
330
2
100
AcDbEntity
  8
PDF_Layer 1
 62
     7
420
 16777215
370
    80
100
AcDbPolyline
 90
        2
 70
     0
 43
0.0
 10
6.238762499999999
 20
1.813109722222221
 10
6.335068055555555
 20
1.813109722222221
  0
LWPOLYLINE
  5
31D
330
2
100
AcDbEntity
  8
PDF_Layer 1
 62
     7
420
 16777215
370
    80
100
AcDbPolyline
 90
        2
 70
     0
 43
0.0
 10
6.335062499999999
 20
1.813109722222221
 10
6.441076388888888
 20
1.813109722222221
  0
LWPOLYLINE
  5
31E
330
2
100
AcDbEntity
  8
PDF_Layer 1
 62
     7
420
 16777215
370
    80
100
AcDbPolyline
 90
        2
 70
     0
 43
0.0
 10
6.44107361111111
 20
1.813109722222221
 10
6.555379166666665
 20
1.813109722222221
  0
LWPOLYLINE
  5
31F
330
2
100
AcDbEntity
  8
PDF_Layer 1
 62
     7
420
 16777215
370
    80
100
AcDbPolyline
 90
        2
 70
     0
 43
0.0
 10
6.55538611111111
 20
1.813109722222221
 10
6.678038888888888
 20
1.813109722222221
  0
LWPOLYLINE
  5
320
330
2
100
AcDbEntity
  8
PDF_Layer 1
 62
     7
420
 16777215
370
    80
100
AcDbPolyline
 90
        2
 70
     0
 43
0.0
 10
6.678033333333332
 20
1.813109722222221
 10
6.807602777777777
 20
1.813109722222221
  0
LWPOLYLINE
  5
321
330
2
100
AcDbEntity
  8
PDF_Layer 1
 62
     7
420
 16777215
370
    80
100
AcDbPolyline
 90
        2
 70
     0
 43
0.0
 10
6.807597222222222
 20
1.813109722222221
 10
6.943388888888889
 20
1.813109722222221
  0
LWPOLYLINE
  5
322
330
2
100
AcDbEntity
  8
PDF_Layer 1
 62
     7
420
 16777215
370
    80
100
AcDbPolyline
 90
        2
 70
     0
 43
0.0
 10
6.943393055555554
 20
1.813109722222221
 10
7.208073611111109
 20
1.813109722222221
  0
LWPOLYLINE
  5
323
330
2
100
AcDbEntity
  8
PDF_Layer 1
 62
     7
420
 16777215
370
    80
100
AcDbPolyline
 90
        2
 70
     0
 43
0.0
 10
6.358608333333333
 20
1.583088888888888
 10
5.833427777777778
 20
1.658616666666666
  0
LWPOLYLINE
  5
328
330
2
100
AcDbEntity
  8
PDF_Layer 1
 62
     7
420
 16777215
370
    80
100
AcDbPolyline
 90
        7
 70
     0
 43
0.0
 10
7.094462499999998
 20
4.134236111111111
 10
7.100698611111109
 20
4.134916666666666
 10
7.106934722222221
 20
4.137694444444444
 10
7.111781944444443
 20
4.141152777777777
 10
7.11593472222222
 20
4.145999999999999
 10
7.118018055555554
 20
4.151555555555555
 10
7.119393055555554
 20
4.157791666666666
  0
LWPOLYLINE
  5
329
330
2
100
AcDbEntity
  8
PDF_Layer 1
 62
     7
420
 16777215
370
    80
100
AcDbPolyline
 90
       15
 70
     0
 43
0.0
 10
9.495918055555552
 20
4.296365277777777
 10
9.506293055555552
 20
4.280434722222222
 10
9.516029166666664
 20
4.264490277777778
 10
9.52432083333333
 20
4.247851388888888
 10
9.53195972222222
 20
4.230531944444444
 10
9.538195833333331
 20
4.212531944444444
 10
9.543029166666665
 20
4.194518055555555
 10
9.546487499999997
 20
4.176490277777777
 10
9.548570833333331
 20
4.157795833333333
 10
9.549987499999998
 20
4.151559722222222
 10
9.552709722222219
 20
4.145990277777777
 10
9.556904166666663
 20
4.141156944444444
 10
9.561723611111109
 20
4.13769861111111
 10
9.567279166666663
 20
4.134920833333333
 10
9.573515277777776
 20
4.134240277777777
  0
LWPOLYLINE
  5
32A
330
2
100
AcDbEntity
  8
PDF_Layer 1
 62
     7
420
 16777215
370
    80
100
AcDbPolyline
 90
        9
 70
     0
 43
0.0
 10
7.172756944444444
 20
4.296359722222222
 10
7.16167361111111
 20
4.280443055555555
 10
7.151965277777777
 20
4.264484722222221
 10
7.143659722222222
 20
4.247859722222222
 10
7.136715277777777
 20
4.230540277777778
 10
7.130479166666666
 20
4.212540277777778
 10
7.125631944444443
 20
4.1945125
 10
7.122173611111111
 20
4.176484722222221
 10
7.119395833333332
 20
4.157790277777777
  0
LWPOLYLINE
  5
32D
330
2
100
AcDbEntity
  8
PDF_Layer 1
 62
     7
420
 16777215
370
    80
100
AcDbPolyline
 90
        5
 70
     0
 43
0.0
 10
9.495918055555554
 20
4.295681944444443
 10
9.491779166666665
 20
4.300529166666665
 10
9.486918055555554
 20
4.303987499999998
 10
9.480668055555554
 20
4.306056944444443
 10
9.475126388888888
 20
4.306765277777777
  0
LWPOLYLINE
  5
32F
330
2
100
AcDbEntity
  8
PDF_Layer 1
 62
     7
420
 16777215
370
    80
100
AcDbPolyline
 90
       40
 70
     0
 43
0.0
 10
7.208075
 20
4.306762499999999
 10
7.213616666666666
 20
4.307443055555554
 10
7.219172222222222
 20
4.308831944444444
 10
7.224019444444444
 20
4.311609722222221
 10
7.228158333333333
 20
4.315762499999999
 10
7.230943055555554
 20
4.320624999999999
 42
0.0715224585234369
 10
7.442261111111108
 20
4.902629166666666
 42
0.0472025157345451
 10
7.618954166666688
 20
6.422065277777776
 42
-0.4077773439128715
 10
7.749898611111111
 20
6.550245833333333
 10
7.755452777777776
 20
6.550245833333333
 10
7.771376388888888
 20
6.550245833333333
 10
7.79770972222222
 20
6.550245833333333
 10
7.834431944444444
 20
6.550245833333333
 10
7.880852777777776
 20
6.550245833333333
 10
7.934888888888886
 20
6.550245833333333
 10
7.997259722222221
 20
6.550245833333333
 10
8.065158333333332
 20
6.550245833333333
 10
8.13861111111111
 20
6.550245833333333
 10
8.215501388888887
 20
6.550245833333333
 10
8.294501388888889
 20
6.550245833333333
 10
8.37415972222222
 20
6.550245833333333
 10
8.453165277777776
 20
6.550245833333333
 10
8.530069444444443
 20
6.550245833333333
 10
8.60282361111111
 20
6.550245833333333
 10
8.671399999999998
 20
6.550245833333333
 10
8.733086111111109
 20
6.550245833333333
 10
8.787109722222222
 20
6.550245833333333
 10
8.833549999999998
 20
6.550245833333333
 10
8.870280555555554
 20
6.550245833333333
 10
8.896579166666667
 20
6.550245833333333
 10
8.913208333333331
 20
6.550245833333333
 10
8.918768055555554
 20
6.5502527777778
 42
-0.4022048757502854
 10
9.049018055555555
 20
6.422072222222225
 42
0.0468408286798448
 10
9.225680555555555
 20
4.902629166666667
 42
0.070583146162635
 10
9.437024999999998
 20
4.320624999999999
 10
9.440483333333331
 20
4.315763888888888
 10
9.444636111111108
 20
4.31161111111111
 10
9.44949722222222
 20
4.308833333333333
 10
9.45437222222222
 20
4.307444444444444
 10
9.459886111111108
 20
4.306763888888888
  0
CIRCLE
  5
33A
330
2
100
AcDbEntity
  8
PDF_Layer 1
 62
     7
420
 16777215
370
    80
100
AcDbCircle
 10
8.471767338428731
 20
1.489286942660454
 30
0.0
 40
1.308235792804567
  0
CIRCLE
  5
33E
330
2
100
AcDbEntity
  8
PDF_Layer 1
 62
     7
420
 16777215
370
    80
100
AcDbCircle
 10
8.472101529641248
 20
1.489976958335177
 30
0.0
 40
0.3032485920332556
  0
CIRCLE
  5
33F
330
2
100
AcDbEntity
  8
PDF_Layer 1
 62
     7
420
 16777215
370
    80
100
AcDbCircle
 10
8.472257839342436
 20
2.300526989569179
 30
0.0
 40
0.1305399237758814
  0
CIRCLE
  5
340
330
2
100
AcDbEntity
  8
PDF_Layer 1
 62
     7
420
 16777215
370
    80
100
AcDbCircle
 10
8.4720677016637
 20
0.6793556256546757
 30
0.0
 40
0.1307297116804167
  0
CIRCLE
  5
341
330
2
100
AcDbEntity
  8
PDF_Layer 1
 62
     7
420
 16777215
370
    80
100
AcDbCircle
 10
8.471610229901113
 20
1.489516636613317
 30
0.0
 40
1.306981641736567
  0
LWPOLYLINE
  5
342
330
2
100
AcDbEntity
  8
PDF_Layer 1
 62
     7
420
 16777215
370
    80
100
AcDbPolyline
 90
        9
 70
     0
 43
0.0
 10
8.014554166666664
 20
1.599718055555555
 10
8.009026388888887
 20
1.572704166666666
 10
8.004859722222221
 20
1.544995833333333
 10
8.002790277777776
 20
1.517954166666666
 10
8.001401388888886
 20
1.490245833333333
 10
8.002790277777776
 20
1.46252361111111
 10
8.004859722222221
 20
1.434829166666666
 10
8.009026388888887
 20
1.407801388888888
 10
8.014554166666664
 20
1.38077361111111
  0
LWPOLYLINE
  5
343
330
2
100
AcDbEntity
  8
PDF_Layer 1
 62
     7
420
 16777215
370
    80
100
AcDbPolyline
 90
        5
 70
     0
 43
0.0
 10
8.942315277777776
 20
1.490248611111111
 10
8.941606944444442
 20
1.517956944444444
 10
8.938829166666664
 20
1.544984722222222
 10
8.934690277777775
 20
1.572706944444444
 10
8.929148611111109
 20
1.599720833333333
  0
LWPOLYLINE
  5
344
330
2
100
AcDbEntity
  8
PDF_Layer 1
 62
     7
420
 16777215
370
    80
100
AcDbPolyline
 90
        5
 70
     0
 43
0.0
 10
8.929144444444444
 20
1.380072222222222
 10
8.93468611111111
 20
1.407794444444444
 10
8.938824999999999
 20
1.434822222222222
 10
8.941602777777777
 20
1.462530555555555
 10
8.942311111111111
 20
1.490252777777777
  0
CIRCLE
  5
345
330
2
100
AcDbEntity
  8
PDF_Layer 1
 62
     7
420
 16777215
370
    80
100
AcDbCircle
 10
8.47165028570968
 20
1.489664499206425
 30
0.0
 40
1.110842923416974
  0
LWPOLYLINE
  5
346
330
2
100
AcDbEntity
  8
PDF_Layer 1
 62
     7
420
 16777215
370
    30
100
AcDbPolyline
 90
        2
 70
     0
 43
0.0
 10
9.55622083333333
 20
3.935370833333333
 10
11.92234583333333
 20
3.935370833333333
  0
LWPOLYLINE
  5
347
330
2
100
AcDbEntity
  8
PDF_Layer 1
 62
     7
420
 16777215
370
    30
100
AcDbPolyline
 90
        2
 70
     0
 43
0.0
 10
8.386651388888887
 20
10.9049
 10
11.92234583333333
 20
10.9049
  0
LWPOLYLINE
  5
348
330
2
100
AcDbEntity
  8
PDF_Layer 1
 62
     7
420
 16777215
370
    30
100
AcDbPolyline
 90
        2
 70
     0
 43
0.0
 10
11.87036111111111
 20
4.002712499999999
 10
11.87036111111111
 20
10.83754583333333
  0
LWPOLYLINE
  5
349
330
2
100
AcDbEntity
  8
PDF_Layer 1
 62
     7
420
 16777215
370
    30
100
AcDbPolyline
 90
        2
 70
     0
 43
0.0
 10
9.958766666666663
 20
3.051947222222221
 10
9.43018333333333
 20
2.496530555555555
  0
LWPOLYLINE
  5
34A
330
2
100
AcDbEntity
  8
PDF_Layer 1
 62
     7
420
 16777215
370
    30
100
AcDbPolyline
 90
        2
 70
     0
 43
0.0
 10
7.516119444444442
 20
0.4859888888888889
 10
7.35427222222222
 20
0.31585
  0
LWPOLYLINE
  5
34B
330
2
100
AcDbEntity
  8
PDF_Layer 1
 62
     7
420
 16777215
370
    30
100
AcDbPolyline
 90
        2
 70
     0
 43
0.0
 10
7.570434722222223
 20
0.5431041666666668
 10
9.373254166666667
 20
2.436701388888888
  0
LWPOLYLINE
  5
34C
330
2
100
AcDbEntity
  8
PDF_Layer 1
 62
     7
420
 16777215
370
    30
100
AcDbPolyline
 90
        2
 70
     0
 43
0.0
 10
11.13593194444444
 20
1.666924999999999
 10
11.48858472222222
 20
1.723744444444444
  0
LWPOLYLINE
  5
34D
330
2
100
AcDbEntity
  8
PDF_Layer 1
 62
     7
420
 16777215
370
    30
100
AcDbPolyline
 90
        2
 70
     0
 43
0.0
 10
11.11100277777777
 20
1.821424999999999
 10
11.46365555555555
 20
1.878952777777777
  0
LWPOLYLINE
  5
34E
330
2
100
AcDbEntity
  8
PDF_Layer 1
 62
     7
420
 16777215
370
    30
100
AcDbPolyline
 90
        2
 70
     0
 43
0.0
 10
11.34478055555555
 20
1.632311111111111
 10
11.38394722222222
 20
1.389088888888888
  0
LWPOLYLINE
  5
34F
330
2
100
AcDbEntity
  8
PDF_Layer 1
 62
     7
420
 16777215
370
    30
100
AcDbPolyline
 90
        2
 70
     0
 43
0.0
 10
11.29836666666666
 20
1.91978611111111
 10
11.23879722222222
 20
2.28728611111111
  0
LWPOLYLINE
  5
350
330
2
100
AcDbEntity
  8
PDF_Layer 1
 62
     7
420
 16777215
370
    30
100
AcDbPolyline
 90
        2
 70
     0
 43
0.0
 10
11.33407916666667
 20
1.698798611111111
 10
11.30913472222222
 20
1.853312499999999
  0
LWPOLYLINE
  5
351
330
2
100
AcDbEntity
  8
PDF_Layer 1
 62
     7
420
 16777215
370
    30
100
AcDbPolyline
 90
        2
 70
     0
 43
0.0
 10
10.94331805555555
 20
9.054247222222221
 10
10.94331805555555
 20
11.98160833333333
  0
LWPOLYLINE
  5
352
330
2
100
AcDbEntity
  8
PDF_Layer 1
 62
     7
420
 16777215
370
    30
100
AcDbPolyline
 90
        2
 70
     0
 43
0.0
 10
5.698337499999999
 20
9.054247222222221
 10
5.698337499999999
 20
11.98160833333333
  0
LWPOLYLINE
  5
353
330
2
100
AcDbEntity
  8
PDF_Layer 1
 62
     7
420
 16777215
370
    30
100
AcDbPolyline
 90
        2
 70
     0
 43
0.0
 10
10.87597638888889
 20
11.94536666666666
 10
5.770656944444445
 20
11.94536666666666
  0
LWPOLYLINE
  5
354
330
2
100
AcDbEntity
  8
PDF_Layer 1
 62
     7
420
 16777215
370
    30
100
AcDbPolyline
 90
        2
 70
     0
 43
0.0
 10
7.650119444444443
 20
10.9049
 10
4.985383333333331
 20
10.9049
  0
LWPOLYLINE
  5
355
330
2
100
AcDbEntity
  8
PDF_Layer 1
 62
     7
420
 16777215
370
    30
100
AcDbPolyline
 90
        2
 70
     0
 43
0.0
 10
7.648736111111111
 20
6.942416666666666
 10
4.985375000000001
 20
6.942416666666666
  0
LWPOLYLINE
  5
356
330
2
100
AcDbEntity
  8
PDF_Layer 1
 62
     7
420
 16777215
370
    30
100
AcDbPolyline
 90
        2
 70
     0
 43
0.0
 10
5.141968055555554
 20
10.83755138888889
 10
5.141968055555554
 20
7.013912499999999
  0
MTEXT
  5
357
330
2
100
AcDbEntity
  8
PDF_Text
 62
     7
420
 16777215
100
AcDbMText
 10
7.963277777777776
 20
12.01664639722222
 30
0.0
 40
0.2584170979817708
 41
0.0
 46
0.0
 71
     7
 72
     5
  1
100
  7
PDF Arial
 73
     1
 44
1.0
  0
MTEXT
  5
358
330
2
100
AcDbEntity
  8
PDF_Text
 62
     7
420
 16777215
100
AcDbMText
 10
5.061282769444443
 20
8.727430555555555
 30
0.0
 40
0.2584170979817708
 41
0.0
 46
0.0
 71
     7
 72
     5
  1
75
  7
PDF Arial
 11
0.0000000000000001
 21
1.0
 31
0.0
 73
     1
 44
1.0
  0
MTEXT
  5
359
330
2
100
AcDbEntity
  8
PDF_Text
 62
     7
420
 16777215
100
AcDbMText
 10
11.80022532777777
 20
7.100727005555555
 30
0.0
 40
0.2584170979817708
 41
0.0
 46
0.0
 71
     7
 72
     5
  1
133
  7
PDF Arial
 11
0.0000000000000001
 21
1.0
 31
0.0
 73
     1
 44
1.0
  0
MTEXT
  5
35A
330
2
100
AcDbEntity
  8
PDF_Text
 62
     7
420
 16777215
100
AcDbMText
 10
9.435223965277778
 20
2.596653740277777
 30
0.0
 40
0.2584170979817708
 41
0.0
 46
0.0
 71
     7
 72
     5
  1
Ø50
  7
PDF Arial
 11
0.6838608843099282
 21
0.7296124251346348
 31
0.0
 73
     1
 44
1.0
  0
MTEXT
  5
35B
330
2
100
AcDbEntity
  8
PDF_Text
 62
     7
420
 16777215
100
AcDbMText
 10
11.31419104305555
 20
2.261443722222222
 30
0.0
 40
0.2584170979817708
 41
0.0
 46
0.0
 71
     7
 72
     5
  1
3
  7
PDF Arial
 11
0.1503506893660604
 21
-0.9886327276633878
 31
0.0
 73
     1
 44
1.0
  0
VIEWPORT
  5
4A
330
C
100
AcDbEntity
 67
     1
  8
0
100
AcDbViewport
 10
17.24759499286355
 20
11.49745669559334
 30
0.0
 40
36.33732196730226
 41
27.12504315869042
 68
     1
 69
     1
 12
17.24759499286355
 22
11.49745669559334
 13
0.0
 23
0.0
 14
0.5
 24
0.5
 15
0.5
 25
0.5
 16
0.0
 26
0.0
 36
1.0
 17
0.0
 27
0.0
 37
0.0
 42
50.0
 43
0.0
 44
0.0
 45
27.12504315869042
 50
0.0
 51
0.0
 72
  1000
 90
    32864
  1

281
     0
 71
     1
 74
     0
110
0.0
120
0.0
130
0.0
111
1.0
121
0.0
131
0.0
112
0.0
122
1.0
132
0.0
 79
     0
146
0.0
170
     0
 61
     5
348
88
292
     1
282
     1
141
0.0
142
0.0
 63
   250
421
  3355443
  0
ENDSEC
  0
SECTION
  2
OBJECTS
  0
DICTIONARY
  5
7
330
0
100
AcDbDictionary
281
     1
  3
ACAD_CIP_PREVIOUS_PRODUCT_INFO
350
CD
  3
ACAD_COLOR
350
55
  3
ACAD_DETAILVIEWSTYLE
350
C5
  3
ACAD_GROUP
350
1F
  3
ACAD_LAYOUT
350
B
  3
ACAD_MATERIAL
350
54
  3
ACAD_MLEADERSTYLE
350
C1
  3
ACAD_MLINESTYLE
350
20
  3
ACAD_PLOTSETTINGS
350
21
  3
ACAD_PLOTSTYLENAME
350
6
  3
ACAD_SCALELIST
350
AF
  3
ACAD_SECTIONVIEWSTYLE
350
C3
  3
ACAD_TABLESTYLE
350
93
  3
ACAD_VISUALSTYLE
350
82
  3
ACDB_RECOMPOSE_DATA
350
381
  3
AcDbVariableDictionary
350
9B
  0
DICTIONARY
  5
35D
330
4
100
AcDbDictionary
280
     1
281
     1
  3
ADSK_XREC_LAYER_RECONCILED
360
35E
  0
DICTIONARY
  5
35F
330
25
100
AcDbDictionary
280
     1
281
     1
  3
ADSK_XREC_LAYER_RECONCILED
360
360
  0
DICTIONARY
  5
361
330
CE
100
AcDbDictionary
280
     1
281
     1
  3
ADSK_XREC_LAYER_RECONCILED
360
362
  0
DICTIONARY
  5
363
330
DB
100
AcDbDictionary
280
     1
281
     1
  3
ADSK_XREC_LAYER_RECONCILED
360
364
  0
XRECORD
  5
CD
102
{ACAD_REACTORS
330
7
102
}
330
7
100
AcDbXrecord
280
     1
300
ACD
300
2017
300
ACD_F_S
  0
DICTIONARY
  5
55
102
{ACAD_REACTORS
330
7
102
}
330
7
100
AcDbDictionary
281
     1
  0
DICTIONARY
  5
C5
102
{ACAD_REACTORS
330
7
102
}
330
7
100
AcDbDictionary
281
     1
  3
Imperial24
350
C6
  0
DICTIONARY
  5
1F
102
{ACAD_REACTORS
330
7
102
}
330
7
100
AcDbDictionary
281
     1
  0
DICTIONARY
  5
B
102
{ACAD_REACTORS
330
7
102
}
330
7
100
AcDbDictionary
281
     1
  3
Generic 24in x 36in Title Block
350
F
  3
Model
350
A
  0
DICTIONARY
  5
54
102
{ACAD_REACTORS
330
7
102
}
330
7
100
AcDbDictionary
281
     1
  3
ByBlock
350
80
  3
ByLayer
350
7F
  3
Global
350
81
  0
DICTIONARY
  5
C1
102
{ACAD_REACTORS
330
7
102
}
330
7
100
AcDbDictionary
281
     1
  3
Standard
350
C2
  0
DICTIONARY
  5
20
102
{ACAD_REACTORS
330
7
102
}
330
7
100
AcDbDictionary
281
     1
  3
Standard
350
22
  0
DICTIONARY
  5
21
102
{ACAD_REACTORS
330
7
102
}
330
7
100
AcDbDictionary
281
     1
  0
ACDBDICTIONARYWDFLT
  5
6
102
{ACAD_REACTORS
330
7
102
}
330
7
100
AcDbDictionary
281
     1
  3
Normal
350
5
100
AcDbDictionaryWithDefault
340
5
  0
DICTIONARY
  5
AF
102
{ACAD_REACTORS
330
7
102
}
330
7
100
AcDbDictionary
281
     1
  3
A0
350
B0
  3
A1
350
B1
  3
A2
350
B2
  3
A3
350
B3
  3
A4
350
B4
  3
A5
350
B5
  3
A6
350
B6
  3
A7
350
B7
  3
A8
350
B8
  3
A9
350
B9
  3
B0
350
BA
  3
B1
350
BB
  3
B2
350
BC
  3
B3
350
BD
  3
B4
350
BE
  3
B5
350
BF
  3
B6
350
C0
  0
DICTIONARY
  5
C3
102
{ACAD_REACTORS
330
7
102
}
330
7
100
AcDbDictionary
281
     1
  3
Imperial24
350
C4
  0
DICTIONARY
  5
93
102
{ACAD_REACTORS
330
7
102
}
330
7
100
AcDbDictionary
281
     1
  3
Standard
350
94
  0
DICTIONARY
  5
82
102
{ACAD_REACTORS
330
7
102
}
330
7
100
AcDbDictionary
281
     1
  3
2dWireframe
350
88
  3
3D Hidden
350
8A
  3
3dWireframe
350
89
  3
Basic
350
87
  3
Brighten
350
8E
  3
ColorChange
350
92
  3
Conceptual
350
8B
  3
Dim
350
8D
  3
EdgeColorOff
350
AE
  3
Facepattern
350
91
  3
Flat
350
83
  3
FlatWithEdges
350
84
  3
Gouraud
350
85
  3
GouraudWithEdges
350
86
  3
Hidden
350
A6
  3
JitterOff
350
AC
  3
Linepattern
350
90
  3
OverhangOff
350
AD
  3
Realistic
350
8C
  3
Shaded
350
AB
  3
Shaded with edges
350
AA
  3
Shades of Gray
350
A7
  3
Sketchy
350
A8
  3
Thicken
350
8F
  3
Wireframe
350
A5
  3
X-Ray
350
A9
  0
XRECORD
  5
381
102
{ACAD_REACTORS
330
7
102
}
330
7
100
AcDbXrecord
280
     1
 90
        1
330
94
330
C4
330
C6
  0
DICTIONARY
  5
9B
102
{ACAD_REACTORS
330
7
102
}
330
7
100
AcDbDictionary
281
     1
  3
CANNOSCALE
350
377
  3
CMLEADERSTYLE
350
373
  3
CTABLESTYLE
350
9C
  3
CVIEWDETAILSTYLE
350
374
  3
CVIEWSECTIONSTYLE
350
375
  3
LAYEREVAL
350
379
  3
LAYERNOTIFY
350
37A
  3
LIGHTINGUNITS
350
378
  3
MSLTSCALE
350
376
  0
XRECORD
  5
35E
102
{ACAD_REACTORS
330
35D
102
}
330
35D
100
AcDbXrecord
280
     1
290
     1
  0
XRECORD
  5
360
102
{ACAD_REACTORS
330
35F
102
}
330
35F
100
AcDbXrecord
280
     1
290
     1
  0
XRECORD
  5
362
102
{ACAD_REACTORS
330
361
102
}
330
361
100
AcDbXrecord
280
     1
290
     1
  0
XRECORD
  5
364
102
{ACAD_REACTORS
330
363
102
}
330
363
100
AcDbXrecord
280
     1
290
     1
  0
ACDBDETAILVIEWSTYLE
  5
C6
102
{ACAD_XDICTIONARY
360
37F
102
}
102
{ACAD_REACTORS
330
C5
102
}
330
C5
100
AcDbModelDocViewStyle
 70
     0
  3
Imperial24
290
     0
100
AcDbDetailViewStyle
 70
     0
 71
     0
 90
        3
 71
     1
340
12
 62
   256
 40
0.24
340
0
 62
   256
 40
0.24
300

 40
0.36
280
     3
 71
     2
340
8
 90
       25
 62
   256
 71
     3
340
12
 62
   256
 40
0.24
 90
        1
 40
0.75
 90
        1
300
%<\AcVar ViewType \f "%tc1">% %<\AcVar ViewDetailId>%\PSCALE %<\AcVar ViewScale \f "%sn">%
 71
     4
340
8
 90
       25
 62
   256
340
8
 90
       25
 62
   256
280
     0
  0
LAYOUT
  5
F
102
{ACAD_REACTORS
330
B
102
}
330
B
100
AcDbPlotSettings
  1

  2
none_device
  4
ARCH_D_(24.00_x_36.00_Inches)
  6

 40
6.4
 41
19.1
 42
6.4
 43
19.1
 44
609.5999755859375
 45
914.4000244140626
 46
6.095999999999999
 47
-0.254
 48
0.0
 49
0.0
140
0.0
141
0.0
142
1.0
143
1.0
 70
   692
 72
     0
 73
     1
 74
     1
  7

 75
    16
147
1.0
 76
     0
 77
     2
 78
   300
148
0.2650993882970653
149
0.268587724897764
100
AcDbLayout
  1
Generic 24in x 36in Title Block
 70
     1
 71
     1
 10
-0.7524054877282309
 20
-0.5025428238148726
 11
35.24759547345533
 21
23.49745621500156
 12
0.0
 22
0.0
 32
0.0
 14
1.000000000000000E+20
 24
1.000000000000000E+20
 34
1.000000000000000E+20
 15
-1.000000000000000E+20
 25
-1.000000000000000E+20
 35
-1.000000000000000E+20
146
0.0
 13
0.0
 23
0.0
 33
0.0
 16
1.0
 26
0.0
 36
0.0
 17
0.0
 27
1.0
 37
0.0
 76
     0
330
C
331
4A
  0
LAYOUT
  5
A
102
{ACAD_REACTORS
330
B
102
}
330
B
100
AcDbPlotSettings
  1

  2
none_device
  4
Letter_(8.50_x_11.00_Inches)
  6

 40
6.349999904632568
 41
6.349999904632568
 42
6.350006103515625
 43
6.350006103515625
 44
215.8999938964844
 45
279.3999938964844
 46
20.37045378159827
 47
10.87052656611426
 48
0.0
 49
0.0
140
0.0
141
0.0
142
1.0
143
3.59932905303845
 70
 11956
 72
     0
 73
     1
 74
     1
  7

 75
     0
147
0.2778295580271631
 76
     0
 77
     2
 78
   300
148
5.106903281790129
149
0.2718425107115592
100
AcDbLayout
  1
Model
 70
     1
 71
     0
 10
0.0
 20
0.0
 11
12.0
 21
9.0
 12
0.0
 22
0.0
 32
0.0
 14
0.0
 24
0.0
 34
0.0
 15
0.0
 25
0.0
 35
0.0
146
0.0
 13
0.0
 23
0.0
 33
0.0
 16
1.0
 26
0.0
 36
0.0
 17
0.0
 27
1.0
 37
0.0
 76
     0
330
2
331
7D
  0
MATERIAL
  5
80
102
{ACAD_REACTORS
330
54
102
}
330
54
100
AcDbMaterial
  1
ByBlock
 73
     1
 78
     1
172
     1
176
     1
270
     1
274
     1
 94
       63
  0
MATERIAL
  5
7F
102
{ACAD_REACTORS
330
54
102
}
330
54
100
AcDbMaterial
  1
ByLayer
 73
     1
 78
     1
172
     1
176
     1
270
     1
274
     1
 94
       63
  0
MATERIAL
  5
81
102
{ACAD_REACTORS
330
54
102
}
330
54
100
AcDbMaterial
  1
Global
 73
     1
 78
     1
172
     1
176
     1
270
     1
274
     1
 94
       63
  0
MLEADERSTYLE
  5
C2
102
{ACAD_REACTORS
330
C1
102
}
330
C1
100
AcDbMLeaderStyle
179
     2
170
     2
171
     1
172
     0
 90
        2
 40
0.0
 41
0.0
173
     1
 91
-1056964608
340
15
 92
       -2
290
     1
 42
0.09
291
     1
 43
0.36
  3
Standard
 44
0.18
300

342
12
174
     1
178
     6
175
     1
176
     0
 93
-1056964608
 45
0.18
292
     0
297
     0
 46
0.18
 94
-1056964608
 47
1.0
 49
1.0
140
1.0
293
     1
141
0.0
294
     1
177
     0
142
1.0
295
     1
296
     0
143
0.125
271
     0
272
     9
273
     9
298
     1
  0
MLINESTYLE
  5
22
102
{ACAD_REACTORS
330
20
102
}
330
20
100
AcDbMlineStyle
  2
STANDARD
 70
     0
  3

 62
   256
 51
90.0
 52
90.0
 71
     2
 49
0.5
 62
   256
  6
BYLAYER
 49
-0.5
 62
   256
  6
BYLAYER
  0
ACDBPLACEHOLDER
  5
5
102
{ACAD_REACTORS
330
6
102
}
330
6
  0
SCALE
  5
B0
102
{ACAD_REACTORS
330
AF
102
}
330
AF
100
AcDbScale
 70
     0
300
1:1
140
1.0
141
1.0
290
     1
  0
SCALE
  5
B1
102
{ACAD_REACTORS
330
AF
102
}
330
AF
100
AcDbScale
 70
     0
300
1/128" = 1'-0"
140
0.0078125
141
12.0
290
     0
  0
SCALE
  5
B2
102
{ACAD_REACTORS
330
AF
102
}
330
AF
100
AcDbScale
 70
     0
300
1/64" = 1'-0"
140
0.015625
141
12.0
290
     0
  0
SCALE
  5
B3
102
{ACAD_REACTORS
330
AF
102
}
330
AF
100
AcDbScale
 70
     0
300
1/32" = 1'-0"
140
0.03125
141
12.0
290
     0
  0
SCALE
  5
B4
102
{ACAD_REACTORS
330
AF
102
}
330
AF
100
AcDbScale
 70
     0
300
1/16" = 1'-0"
140
0.0625
141
12.0
290
     0
  0
SCALE
  5
B5
102
{ACAD_REACTORS
330
AF
102
}
330
AF
100
AcDbScale
 70
     0
300
3/32" = 1'-0"
140
0.09375
141
12.0
290
     0
  0
SCALE
  5
B6
102
{ACAD_REACTORS
330
AF
102
}
330
AF
100
AcDbScale
 70
     0
300
1/8" = 1'-0"
140
0.125
141
12.0
290
     0
  0
SCALE
  5
B7
102
{ACAD_REACTORS
330
AF
102
}
330
AF
100
AcDbScale
 70
     0
300
3/16" = 1'-0"
140
0.1875
141
12.0
290
     0
  0
SCALE
  5
B8
102
{ACAD_REACTORS
330
AF
102
}
330
AF
100
AcDbScale
 70
     0
300
1/4" = 1'-0"
140
0.25
141
12.0
290
     0
  0
SCALE
  5
B9
102
{ACAD_REACTORS
330
AF
102
}
330
AF
100
AcDbScale
 70
     0
300
3/8" = 1'-0"
140
0.375
141
12.0
290
     0
  0
SCALE
  5
BA
102
{ACAD_REACTORS
330
AF
102
}
330
AF
100
AcDbScale
 70
     0
300
1/2" = 1'-0"
140
0.5
141
12.0
290
     0
  0
SCALE
  5
BB
102
{ACAD_REACTORS
330
AF
102
}
330
AF
100
AcDbScale
 70
     0
300
3/4" = 1'-0"
140
0.75
141
12.0
290
     0
  0
SCALE
  5
BC
102
{ACAD_REACTORS
330
AF
102
}
330
AF
100
AcDbScale
 70
     0
300
1" = 1'-0"
140
1.0
141
12.0
290
     0
  0
SCALE
  5
BD
102
{ACAD_REACTORS
330
AF
102
}
330
AF
100
AcDbScale
 70
     0
300
1-1/2" = 1'-0"
140
1.5
141
12.0
290
     0
  0
SCALE
  5
BE
102
{ACAD_REACTORS
330
AF
102
}
330
AF
100
AcDbScale
 70
     0
300
3" = 1'-0"
140
3.0
141
12.0
290
     0
  0
SCALE
  5
BF
102
{ACAD_REACTORS
330
AF
102
}
330
AF
100
AcDbScale
 70
     0
300
6" = 1'-0"
140
6.0
141
12.0
290
     0
  0
SCALE
  5
C0
102
{ACAD_REACTORS
330
AF
102
}
330
AF
100
AcDbScale
 70
     0
300
1'-0" = 1'-0"
140
12.0
141
12.0
290
     0
  0
ACDBSECTIONVIEWSTYLE
  5
C4
102
{ACAD_XDICTIONARY
360
37D
102
}
102
{ACAD_REACTORS
330
C3
102
}
330
C3
100
AcDbModelDocViewStyle
 70
     0
  3
Imperial24
290
     0
100
AcDbSectionViewStyle
 70
     0
 71
     0
 90
       78
 71
     1
340
12
 62
   256
 40
0.24
340
0
340
0
 62
   256
 40
0.24
300
I, O, Q, S, X, Z
 40
0.48
 90
        3
 40
0.18
 90
        1
 71
     2
340
8
 90
       25
 62
   256
340
8
 90
       50
 62
   256
 40
0.24
 40
0.0
 40
0.24
 71
     3
340
12
 62
   256
 40
0.24
 90
        1
 40
0.75
 90
        1
300
%<\AcVar ViewType \f "%tc1">% %<\AcVar ViewSectionStartId>%-%<\AcVar ViewSectionEndId>%\PSCALE %<\AcVar ViewScale \f "%sn">%
 71
     4
 62
   256
 62
   257
300
ANSI31
 40
1.0
 90
        0
290
     0
290
     0
 90
        6
 40
0.0
 40
1.570796326794896
 40
0.2617993877991494
 40
1.308996938995747
 40
-0.2617993877991494
 40
1.832595714594046
  0
TABLESTYLE
  5
94
102
{ACAD_XDICTIONARY
360
37B
102
}
102
{ACAD_REACTORS
330
93
102
}
330
93
100
AcDbTableStyle
280
     0
  3
Standard
 70
     0
 71
     0
 40
0.06
 41
0.06
280
     0
281
     0
  7
Standard
140
0.18
170
     2
 62
     0
 63
     7
283
     0
 90
      512
 91
        0
  1

274
    -2
284
     1
 64
     0
275
    -2
285
     1
 65
     0
276
    -2
286
     1
 66
     0
277
    -2
287
     1
 67
     0
278
    -2
288
     1
 68
     0
279
    -2
289
     1
 69
     0
  7
Standard
140
0.25
170
     5
 62
     0
 63
     7
283
     0
 90
      512
 91
        0
  1

274
    -2
284
     1
 64
     0
275
    -2
285
     1
 65
     0
276
    -2
286
     1
 66
     0
277
    -2
287
     1
 67
     0
278
    -2
288
     1
 68
     0
279
    -2
289
     1
 69
     0
  7
Standard
140
0.18
170
     5
 62
     0
 63
     7
283
     0
 90
      512
 91
        0
  1

274
    -2
284
     1
 64
     0
275
    -2
285
     1
 65
     0
276
    -2
286
     1
 66
     0
277
    -2
287
     1
 67
     0
278
    -2
288
     1
 68
     0
279
    -2
289
     1
 69
     0
  0
VISUALSTYLE
  5
88
102
{ACAD_REACTORS
330
82
102
}
330
82
100
AcDbVisualStyle
  2
2dWireframe
 70
     4
177
     3
291
     0
 70
    58
 90
        0
176
     1
 90
        2
176
     1
 90
        1
176
     1
 90
        0
176
     1
 40
0.6
176
     1
 40
30.0
176
     1
 62
     7
420
 16777215
176
     1
 90
        1
176
     1
 90
        4
176
     1
 62
     7
176
     1
 62
   257
176
     1
 90
        1
176
     1
 90
        1
176
     1
 40
1.0
176
     1
 90
        0
176
     1
 62
   257
176
     1
 40
1.0
176
     1
 90
        1
176
     1
 90
        6
176
     1
 90
        2
176
     1
 62
     7
176
     1
 90
        5
176
     1
 90
        0
176
     1
 90
        0
176
     1
290
     0
176
     1
 90
        1
176
     1
 40
0.0
176
     1
 90
        0
176
     1
290
     1
176
     1
290
     1
176
     1
290
     0
176
     1
290
     0
176
     1
290
     0
176
     1
290
     0
176
     1
290
     0
176
     1
290
     0
176
     1
290
     0
176
     1
 90
       50
176
     1
 40
0.0
176
     1
 40
1.0
176
     1
 90
        0
176
     1
 62
    18
420
        0
176
     1
 90
       50
176
     1
 90
        3
176
     1
 62
     5
420
      255
176
     1
290
     0
176
     1
 90
       50
176
     1
 90
       50
176
     1
 90
       50
176
     1
290
     0
176
     1
 90
       50
176
     1
 62
   256
176
     0
 40
1.0
176
     0
 90
        2
176
     1
  1
strokes_ogs.tif
176
     1
290
     0
176
     1
 40
1.0
176
     1
 40
1.0
176
     1
  0
VISUALSTYLE
  5
8A
102
{ACAD_REACTORS
330
82
102
}
330
82
100
AcDbVisualStyle
  2
3D Hidden
 70
     6
177
     3
291
     0
 70
    58
 90
        1
176
     1
 90
        2
176
     1
 90
        2
176
     1
 90
        0
176
     1
 40
0.6
176
     1
 40
30.0
176
     1
 62
     7
420
 16777215
176
     1
 90
        2
176
     1
 90
       10
176
     1
 62
     7
176
     1
 62
   257
176
     1
 90
        2
176
     1
 90
        2
176
     1
 40
40.0
176
     1
 90
        0
176
     1
 62
   257
176
     1
 40
1.0
176
     1
 90
        1
176
     1
 90
        6
176
     1
 90
        2
176
     1
 62
     7
176
     1
 90
        3
176
     1
 90
        0
176
     1
 90
        0
176
     1
290
     0
176
     1
 90
        1
176
     1
 40
0.0
176
     1
 90
        0
176
     1
290
     0
176
     1
290
     1
176
     1
290
     1
176
     1
290
     0
176
     1
290
     0
176
     1
290
     0
176
     1
290
     0
176
     1
290
     0
176
     1
290
     0
176
     1
 90
       50
176
     1
 40
0.0
176
     1
 40
1.0
176
     1
 90
        0
176
     1
 62
    18
420
        0
176
     1
 90
       50
176
     1
 90
        3
176
     1
 62
     5
420
      255
176
     1
290
     0
176
     1
 90
       50
176
     1
 90
       50
176
     1
 90
       50
176
     1
290
     0
176
     1
 90
       50
176
     1
 62
   256
176
     0
 40
1.0
176
     0
 90
        2
176
     1
  1
strokes_ogs.tif
176
     1
290
     0
176
     1
 40
1.0
176
     1
 40
1.0
176
     1
  0
VISUALSTYLE
  5
89
102
{ACAD_REACTORS
330
82
102
}
330
82
100
AcDbVisualStyle
  2
3dWireframe
 70
     5
177
     3
291
     0
 70
    58
 90
        0
176
     1
 90
        2
176
     1
 90
        1
176
     1
 90
        0
176
     1
 40
0.6
176
     1
 40
30.0
176
     1
 62
     7
420
 16777215
176
     1
 90
        1
176
     1
 90
        4
176
     1
 62
     7
176
     1
 62
   257
176
     1
 90
        1
176
     1
 90
        1
176
     1
 40
1.0
176
     1
 90
        0
176
     1
 62
   257
176
     1
 40
1.0
176
     1
 90
        1
176
     1
 90
        6
176
     1
 90
        2
176
     1
 62
     7
176
     1
 90
        5
176
     1
 90
        0
176
     1
 90
        0
176
     1
290
     0
176
     1
 90
        1
176
     1
 40
0.0
176
     1
 90
        0
176
     1
290
     0
176
     1
290
     1
176
     1
290
     1
176
     1
290
     0
176
     1
290
     0
176
     1
290
     0
176
     1
290
     0
176
     1
290
     0
176
     1
290
     0
176
     1
 90
       50
176
     1
 40
0.0
176
     1
 40
1.0
176
     1
 90
        0
176
     1
 62
    18
420
        0
176
     1
 90
       50
176
     1
 90
        3
176
     1
 62
     5
420
      255
176
     1
290
     0
176
     1
 90
       50
176
     1
 90
       50
176
     1
 90
       50
176
     1
290
     0
176
     1
 90
       50
176
     1
 62
   256
176
     0
 40
1.0
176
     0
 90
        2
176
     1
  1
strokes_ogs.tif
176
     1
290
     0
176
     1
 40
1.0
176
     1
 40
1.0
176
     1
  0
VISUALSTYLE
  5
87
102
{ACAD_REACTORS
330
82
102
}
330
82
100
AcDbVisualStyle
  2
Basic
 70
     7
177
     3
291
     1
 70
    58
 90
        1
176
     1
 90
        0
176
     1
 90
        1
176
     1
 90
        0
176
     1
 40
0.6
176
     1
 40
30.0
176
     1
 62
     7
420
 16777215
176
     1
 90
        0
176
     1
 90
        4
176
     1
 62
     7
176
     1
 62
   257
176
     1
 90
        1
176
     1
 90
        1
176
     1
 40
1.0
176
     1
 90
        8
176
     1
 62
     7
176
     1
 40
1.0
176
     1
 90
        1
176
     1
 90
        6
176
     1
 90
        2
176
     1
 62
     7
176
     1
 90
        5
176
     1
 90
        0
176
     1
 90
        0
176
     1
290
     0
176
     1
 90
        1
176
     1
 40
0.0
176
     1
 90
        0
176
     1
290
     0
176
     1
290
     1
176
     1
290
     1
176
     1
290
     0
176
     1
290
     0
176
     1
290
     0
176
     1
290
     0
176
     1
290
     0
176
     1
290
     0
176
     1
 90
       50
176
     1
 40
0.0
176
     1
 40
1.0
176
     1
 90
        0
176
     1
 62
    18
420
        0
176
     1
 90
       50
176
     1
 90
        3
176
     1
 62
     5
420
      255
176
     1
290
     0
176
     1
 90
       50
176
     1
 90
       50
176
     1
 90
       50
176
     1
290
     0
176
     1
 90
       50
176
     1
 62
   256
176
     0
 40
1.0
176
     0
 90
        2
176
     1
  1
strokes_ogs.tif
176
     1
290
     0
176
     1
 40
1.0
176
     1
 40
1.0
176
     1
  0
VISUALSTYLE
  5
8E
102
{ACAD_REACTORS
330
82
102
}
330
82
100
AcDbVisualStyle
  2
Brighten
 70
    12
177
     3
291
     1
 70
    58
 90
        2
176
     1
 90
        2
176
     1
 90
        1
176
     1
 90
        0
176
     1
 40
0.6
176
     1
 40
30.0
176
     1
 62
     7
420
 16777215
176
     1
 90
        1
176
     1
 90
        4
176
     1
 62
     7
176
     1
 62
   257
176
     1
 90
        1
176
     1
 90
        1
176
     1
 40
1.0
176
     1
 90
        8
176
     1
 62
     7
176
     1
 40
1.0
176
     1
 90
        1
176
     1
 90
        6
176
     1
 90
        2
176
     1
 62
     7
176
     1
 90
        5
176
     1
 90
        0
176
     1
 90
        0
176
     1
290
     0
176
     1
 90
        1
176
     1
 40
50.0
176
     1
 90
        0
176
     1
290
     0
176
     1
290
     1
176
     1
290
     1
176
     1
290
     0
176
     1
290
     0
176
     1
290
     0
176
     1
290
     0
176
     1
290
     0
176
     1
290
     0
176
     1
 90
       50
176
     1
 40
0.0
176
     1
 40
1.0
176
     1
 90
        0
176
     1
 62
    18
420
        0
176
     1
 90
       50
176
     1
 90
        3
176
     1
 62
     5
420
      255
176
     1
290
     0
176
     1
 90
       50
176
     1
 90
       50
176
     1
 90
       50
176
     1
290
     0
176
     1
 90
       50
176
     1
 62
   256
176
     0
 40
1.0
176
     0
 90
        2
176
     1
  1
strokes_ogs.tif
176
     1
290
     0
176
     1
 40
1.0
176
     1
 40
1.0
176
     1
  0
VISUALSTYLE
  5
92
102
{ACAD_REACTORS
330
82
102
}
330
82
100
AcDbVisualStyle
  2
ColorChange
 70
    16
177
     3
291
     1
 70
    58
 90
        2
176
     1
 90
        2
176
     1
 90
        3
176
     1
 90
        0
176
     1
 40
0.6
176
     1
 40
30.0
176
     1
 62
     8
420
  8421504
176
     1
 90
        1
176
     1
 90
        4
176
     1
 62
     7
176
     1
 62
   257
176
     1
 90
        1
176
     1
 90
        1
176
     1
 40
1.0
176
     1
 90
        8
176
     1
 62
     8
420
  8421504
176
     1
 40
1.0
176
     1
 90
        1
176
     1
 90
        6
176
     1
 90
        2
176
     1
 62
     7
176
     1
 90
        5
176
     1
 90
        0
176
     1
 90
        0
176
     1
290
     0
176
     1
 90
        1
176
     1
 40
0.0
176
     1
 90
        0
176
     1
290
     0
176
     1
290
     1
176
     1
290
     1
176
     1
290
     0
176
     1
290
     0
176
     1
290
     0
176
     1
290
     0
176
     1
290
     0
176
     1
290
     0
176
     1
 90
       50
176
     1
 40
0.0
176
     1
 40
1.0
176
     1
 90
        0
176
     1
 62
    18
420
        0
176
     1
 90
       50
176
     1
 90
        3
176
     1
 62
     5
420
      255
176
     1
290
     0
176
     1
 90
       50
176
     1
 90
       50
176
     1
 90
       50
176
     1
290
     0
176
     1
 90
       50
176
     1
 62
   256
176
     0
 40
1.0
176
     0
 90
        2
176
     1
  1
strokes_ogs.tif
176
     1
290
     0
176
     1
 40
1.0
176
     1
 40
1.0
176
     1
  0
VISUALSTYLE
  5
8B
102
{ACAD_REACTORS
330
82
102
}
330
82
100
AcDbVisualStyle
  2
Conceptual
 70
     9
177
     3
291
     0
 70
    58
 90
        3
176
     1
 90
        2
176
     1
 90
        1
176
     1
 90
        0
176
     1
 40
0.6
176
     1
 40
30.0
176
     1
 62
     7
420
 16777215
176
     1
 90
        2
176
     1
 90
        2
176
     1
 62
     7
176
     1
 62
   257
176
     1
 90
        1
176
     1
 90
        1
176
     1
 40
40.0
176
     1
 90
        8
176
     1
 62
     7
176
     1
 40
1.0
176
     1
 90
        1
176
     1
 90
        6
176
     1
 90
        2
176
     1
 62
     7
176
     1
 90
        5
176
     1
 90
        0
176
     1
 90
        0
176
     1
290
     0
176
     1
 90
        1
176
     1
 40
0.0
176
     1
 90
        0
176
     1
290
     0
176
     1
290
     1
176
     1
290
     1
176
     1
290
     0
176
     1
290
     0
176
     1
290
     0
176
     1
290
     0
176
     1
290
     0
176
     1
290
     0
176
     1
 90
       50
176
     1
 40
0.0
176
     1
 40
1.0
176
     1
 90
        0
176
     1
 62
    18
420
        0
176
     1
 90
       50
176
     1
 90
        3
176
     1
 62
     5
420
      255
176
     1
290
     0
176
     1
 90
       50
176
     1
 90
       50
176
     1
 90
       50
176
     1
290
     0
176
     1
 90
       50
176
     1
 62
   256
176
     0
 40
1.0
176
     0
 90
        2
176
     1
  1
strokes_ogs.tif
176
     1
290
     0
176
     1
 40
1.0
176
     1
 40
1.0
176
     1
  0
VISUALSTYLE
  5
8D
102
{ACAD_REACTORS
330
82
102
}
330
82
100
AcDbVisualStyle
  2
Dim
 70
    11
177
     3
291
     1
 70
    58
 90
        2
176
     1
 90
        2
176
     1
 90
        1
176
     1
 90
        0
176
     1
 40
0.6
176
     1
 40
30.0
176
     1
 62
     7
420
 16777215
176
     1
 90
        1
176
     1
 90
        4
176
     1
 62
     7
176
     1
 62
   257
176
     1
 90
        1
176
     1
 90
        1
176
     1
 40
1.0
176
     1
 90
        8
176
     1
 62
     7
176
     1
 40
1.0
176
     1
 90
        1
176
     1
 90
        6
176
     1
 90
        2
176
     1
 62
     7
176
     1
 90
        5
176
     1
 90
        0
176
     1
 90
        0
176
     1
290
     0
176
     1
 90
        1
176
     1
 40
-50.0
176
     1
 90
        0
176
     1
290
     0
176
     1
290
     1
176
     1
290
     1
176
     1
290
     0
176
     1
290
     0
176
     1
290
     0
176
     1
290
     0
176
     1
290
     0
176
     1
290
     0
176
     1
 90
       50
176
     1
 40
0.0
176
     1
 40
1.0
176
     1
 90
        0
176
     1
 62
    18
420
        0
176
     1
 90
       50
176
     1
 90
        3
176
     1
 62
     5
420
      255
176
     1
290
     0
176
     1
 90
       50
176
     1
 90
       50
176
     1
 90
       50
176
     1
290
     0
176
     1
 90
       50
176
     1
 62
   256
176
     0
 40
1.0
176
     0
 90
        2
176
     1
  1
strokes_ogs.tif
176
     1
290
     0
176
     1
 40
1.0
176
     1
 40
1.0
176
     1
  0
VISUALSTYLE
  5
AE
102
{ACAD_REACTORS
330
82
102
}
330
82
100
AcDbVisualStyle
  2
EdgeColorOff
 70
    22
177
     3
291
     1
 70
    58
 90
        2
176
     0
 90
        2
176
     0
 90
        0
176
     0
 90
        0
176
     0
 40
0.6
176
     0
 40
30.0
176
     0
 62
     7
420
 16777215
176
     0
 90
        1
176
     0
 90
        4
176
     0
 62
     7
176
     0
 62
   257
176
     0
 90
        1
176
     0
 90
        1
176
     0
 40
1.0
176
     0
 90
        8
176
     2
 62
     7
176
     0
 40
1.0
176
     0
 90
        1
176
     0
 90
        6
176
     0
 90
        2
176
     0
 62
     7
176
     0
 90
        5
176
     0
 90
        0
176
     0
 90
        0
176
     0
290
     0
176
     0
 90
        1
176
     0
 40
0.0
176
     0
 90
        0
176
     0
290
     0
176
     0
290
     1
176
     0
290
     1
176
     0
290
     0
176
     0
290
     0
176
     0
290
     0
176
     0
290
     0
176
     0
290
     0
176
     0
290
     0
176
     0
 90
       50
176
     0
 40
0.0
176
     0
 40
1.0
176
     0
 90
        0
176
     0
 62
    18
420
        0
176
     0
 90
       50
176
     0
 90
        3
176
     0
 62
     5
420
      255
176
     0
290
     0
176
     0
 90
       50
176
     0
 90
       50
176
     0
 90
       50
176
     0
290
     0
176
     0
 90
       50
176
     0
 62
   256
176
     0
 40
1.0
176
     0
 90
        2
176
     0
  1
strokes_ogs.tif
176
     0
290
     0
176
     0
 40
1.0
176
     0
 40
1.0
176
     0
  0
VISUALSTYLE
  5
91
102
{ACAD_REACTORS
330
82
102
}
330
82
100
AcDbVisualStyle
  2
Facepattern
 70
    15
177
     3
291
     1
 70
    58
 90
        2
176
     1
 90
        2
176
     1
 90
        1
176
     1
 90
        0
176
     1
 40
0.6
176
     1
 40
30.0
176
     1
 62
     7
420
 16777215
176
     1
 90
        1
176
     1
 90
        4
176
     1
 62
     7
176
     1
 62
   257
176
     1
 90
        1
176
     1
 90
        1
176
     1
 40
1.0
176
     1
 90
        8
176
     1
 62
     7
176
     1
 40
1.0
176
     1
 90
        1
176
     1
 90
        6
176
     1
 90
        2
176
     1
 62
     7
176
     1
 90
        5
176
     1
 90
        0
176
     1
 90
        0
176
     1
290
     0
176
     1
 90
        1
176
     1
 40
0.0
176
     1
 90
        0
176
     1
290
     0
176
     1
290
     1
176
     1
290
     1
176
     1
290
     0
176
     1
290
     0
176
     1
290
     0
176
     1
290
     0
176
     1
290
     0
176
     1
290
     0
176
     1
 90
       50
176
     1
 40
0.0
176
     1
 40
1.0
176
     1
 90
        0
176
     1
 62
    18
420
        0
176
     1
 90
       50
176
     1
 90
        3
176
     1
 62
     5
420
      255
176
     1
290
     0
176
     1
 90
       50
176
     1
 90
       50
176
     1
 90
       50
176
     1
290
     0
176
     1
 90
       50
176
     1
 62
   256
176
     0
 40
1.0
176
     0
 90
        2
176
     1
  1
strokes_ogs.tif
176
     1
290
     0
176
     1
 40
1.0
176
     1
 40
1.0
176
     1
  0
VISUALSTYLE
  5
83
102
{ACAD_REACTORS
330
82
102
}
330
82
100
AcDbVisualStyle
  2
Flat
 70
     0
177
     3
291
     1
 70
    58
 90
        2
176
     1
 90
        1
176
     1
 90
        1
176
     1
 90
        2
176
     1
 40
0.6
176
     1
 40
30.0
176
     1
 62
     7
420
 16777215
176
     1
 90
        0
176
     1
 90
        4
176
     1
 62
     7
176
     1
 62
   257
176
     1
 90
        1
176
     1
 90
        1
176
     1
 40
1.0
176
     1
 90
        8
176
     1
 62
     7
176
     1
 40
1.0
176
     1
 90
        1
176
     1
 90
        6
176
     1
 90
        2
176
     1
 62
     7
176
     1
 90
        5
176
     1
 90
        0
176
     1
 90
        0
176
     1
290
     0
176
     1
 90
        1
176
     1
 40
0.0
176
     1
 90
        0
176
     1
290
     0
176
     1
290
     1
176
     1
290
     1
176
     1
290
     0
176
     1
290
     0
176
     1
290
     0
176
     1
290
     0
176
     1
290
     0
176
     1
290
     0
176
     1
 90
       50
176
     1
 40
0.0
176
     1
 40
1.0
176
     1
 90
        0
176
     1
 62
    18
420
        0
176
     1
 90
       50
176
     1
 90
        3
176
     1
 62
     5
420
      255
176
     1
290
     0
176
     1
 90
       50
176
     1
 90
       50
176
     1
 90
       50
176
     1
290
     0
176
     1
 90
       50
176
     1
 62
   256
176
     0
 40
1.0
176
     0
 90
        2
176
     1
  1
strokes_ogs.tif
176
     1
290
     0
176
     1
 40
1.0
176
     1
 40
1.0
176
     1
  0
VISUALSTYLE
  5
84
102
{ACAD_REACTORS
330
82
102
}
330
82
100
AcDbVisualStyle
  2
FlatWithEdges
 70
     1
177
     3
291
     1
 70
    58
 90
        2
176
     1
 90
        1
176
     1
 90
        1
176
     1
 90
        2
176
     1
 40
0.6
176
     1
 40
30.0
176
     1
 62
     7
420
 16777215
176
     1
 90
        1
176
     1
 90
        4
176
     1
 62
     7
176
     1
 62
   257
176
     1
 90
        1
176
     1
 90
        1
176
     1
 40
1.0
176
     1
 90
        0
176
     1
 62
   257
176
     1
 40
1.0
176
     1
 90
        1
176
     1
 90
        6
176
     1
 90
        2
176
     1
 62
     7
176
     1
 90
        5
176
     1
 90
        0
176
     1
 90
        0
176
     1
290
     0
176
     1
 90
        1
176
     1
 40
0.0
176
     1
 90
        0
176
     1
290
     0
176
     1
290
     1
176
     1
290
     1
176
     1
290
     0
176
     1
290
     0
176
     1
290
     0
176
     1
290
     0
176
     1
290
     0
176
     1
290
     0
176
     1
 90
       50
176
     1
 40
0.0
176
     1
 40
1.0
176
     1
 90
        0
176
     1
 62
    18
420
        0
176
     1
 90
       50
176
     1
 90
        3
176
     1
 62
     5
420
      255
176
     1
290
     0
176
     1
 90
       50
176
     1
 90
       50
176
     1
 90
       50
176
     1
290
     0
176
     1
 90
       50
176
     1
 62
   256
176
     0
 40
1.0
176
     0
 90
        2
176
     1
  1
strokes_ogs.tif
176
     1
290
     0
176
     1
 40
1.0
176
     1
 40
1.0
176
     1
  0
VISUALSTYLE
  5
85
102
{ACAD_REACTORS
330
82
102
}
330
82
100
AcDbVisualStyle
  2
Gouraud
 70
     2
177
     3
291
     1
 70
    58
 90
        2
176
     1
 90
        2
176
     1
 90
        1
176
     1
 90
        2
176
     1
 40
0.6
176
     1
 40
30.0
176
     1
 62
     7
420
 16777215
176
     1
 90
        0
176
     1
 90
        4
176
     1
 62
     7
176
     1
 62
   257
176
     1
 90
        1
176
     1
 90
        1
176
     1
 40
1.0
176
     1
 90
        0
176
     1
 62
     7
176
     1
 40
1.0
176
     1
 90
        1
176
     1
 90
        6
176
     1
 90
        2
176
     1
 62
     7
176
     1
 90
        5
176
     1
 90
        0
176
     1
 90
        0
176
     1
290
     0
176
     1
 90
        1
176
     1
 40
0.0
176
     1
 90
        0
176
     1
290
     0
176
     1
290
     1
176
     1
290
     1
176
     1
290
     0
176
     1
290
     0
176
     1
290
     0
176
     1
290
     0
176
     1
290
     0
176
     1
290
     0
176
     1
 90
       50
176
     1
 40
0.0
176
     1
 40
1.0
176
     1
 90
        0
176
     1
 62
    18
420
        0
176
     1
 90
       50
176
     1
 90
        3
176
     1
 62
     5
420
      255
176
     1
290
     0
176
     1
 90
       50
176
     1
 90
       50
176
     1
 90
       50
176
     1
290
     0
176
     1
 90
       50
176
     1
 62
   256
176
     0
 40
1.0
176
     0
 90
        2
176
     1
  1
strokes_ogs.tif
176
     1
290
     0
176
     1
 40
1.0
176
     1
 40
1.0
176
     1
  0
VISUALSTYLE
  5
86
102
{ACAD_REACTORS
330
82
102
}
330
82
100
AcDbVisualStyle
  2
GouraudWithEdges
 70
     3
177
     3
291
     1
 70
    58
 90
        2
176
     1
 90
        2
176
     1
 90
        1
176
     1
 90
        2
176
     1
 40
0.6
176
     1
 40
30.0
176
     1
 62
     7
420
 16777215
176
     1
 90
        1
176
     1
 90
        4
176
     1
 62
     7
176
     1
 62
   257
176
     1
 90
        1
176
     1
 90
        1
176
     1
 40
1.0
176
     1
 90
        0
176
     1
 62
   257
176
     1
 40
1.0
176
     1
 90
        1
176
     1
 90
        6
176
     1
 90
        2
176
     1
 62
     7
176
     1
 90
        5
176
     1
 90
        0
176
     1
 90
        0
176
     1
290
     0
176
     1
 90
        1
176
     1
 40
0.0
176
     1
 90
        0
176
     1
290
     0
176
     1
290
     1
176
     1
290
     1
176
     1
290
     0
176
     1
290
     0
176
     1
290
     0
176
     1
290
     0
176
     1
290
     0
176
     1
290
     0
176
     1
 90
       50
176
     1
 40
0.0
176
     1
 40
1.0
176
     1
 90
        0
176
     1
 62
    18
420
        0
176
     1
 90
       50
176
     1
 90
        3
176
     1
 62
     5
420
      255
176
     1
290
     0
176
     1
 90
       50
176
     1
 90
       50
176
     1
 90
       50
176
     1
290
     0
176
     1
 90
       50
176
     1
 62
   256
176
     0
 40
1.0
176
     0
 90
        2
176
     1
  1
strokes_ogs.tif
176
     1
290
     0
176
     1
 40
1.0
176
     1
 40
1.0
176
     1
  0
VISUALSTYLE
  5
A6
102
{ACAD_REACTORS
330
82
102
}
330
82
100
AcDbVisualStyle
  2
Hidden
 70
     6
177
     3
291
     0
 70
    58
 90
        1
176
     1
 90
        2
176
     1
 90
        2
176
     1
 90
        0
176
     1
 40
0.6
176
     1
 40
30.0
176
     1
 62
     7
420
 16777215
176
     1
 90
        2
176
     1
 90
        2
176
     1
 62
     7
176
     1
 62
   257
176
     1
 90
        2
176
     1
 90
        1
176
     1
 40
40.0
176
     1
 90
        0
176
     1
 62
   257
176
     1
 40
1.0
176
     1
 90
        1
176
     1
 90
        6
176
     1
 90
        2
176
     1
 62
     7
176
     1
 90
        3
176
     1
 90
        0
176
     1
 90
        0
176
     1
290
     0
176
     1
 90
        1
176
     1
 40
0.0
176
     1
 90
        0
176
     1
290
     0
176
     1
290
     1
176
     1
290
     1
176
     1
290
     0
176
     1
290
     0
176
     1
290
     0
176
     1
290
     0
176
     1
290
     0
176
     1
290
     0
176
     1
 90
       50
176
     1
 40
0.0
176
     1
 40
1.0
176
     1
 90
        0
176
     1
 62
    18
420
        0
176
     1
 90
       50
176
     1
 90
        3
176
     1
 62
     5
420
      255
176
     1
290
     0
176
     1
 90
       50
176
     1
 90
       50
176
     1
 90
       50
176
     1
290
     0
176
     1
 90
       50
176
     1
 62
   256
176
     0
 40
1.0
176
     0
 90
        2
176
     1
  1
strokes_ogs.tif
176
     1
290
     0
176
     1
 40
1.0
176
     1
 40
1.0
176
     1
  0
VISUALSTYLE
  5
AC
102
{ACAD_REACTORS
330
82
102
}
330
82
100
AcDbVisualStyle
  2
JitterOff
 70
    20
177
     3
291
     1
 70
    58
 90
        2
176
     0
 90
        2
176
     0
 90
        0
176
     0
 90
        0
176
     0
 40
0.6
176
     0
 40
30.0
176
     0
 62
     7
420
 16777215
176
     0
 90
        1
176
     0
 90
        4
176
     0
 62
     7
176
     0
 62
   257
176
     0
 90
        1
176
     0
 90
        1
176
     0
 40
1.0
176
     0
 90
       10
176
     2
 62
     7
176
     0
 40
1.0
176
     0
 90
        1
176
     0
 90
        6
176
     0
 90
        2
176
     0
 62
     7
176
     0
 90
        5
176
     0
 90
        0
176
     0
 90
        0
176
     0
290
     0
176
     0
 90
        1
176
     0
 40
0.0
176
     0
 90
        0
176
     0
290
     0
176
     0
290
     1
176
     0
290
     1
176
     0
290
     0
176
     0
290
     0
176
     0
290
     0
176
     0
290
     0
176
     0
290
     0
176
     0
290
     0
176
     0
 90
       50
176
     0
 40
0.0
176
     0
 40
1.0
176
     0
 90
        0
176
     0
 62
    18
420
        0
176
     0
 90
       50
176
     0
 90
        3
176
     0
 62
     5
420
      255
176
     0
290
     0
176
     0
 90
       50
176
     0
 90
       50
176
     0
 90
       50
176
     0
290
     0
176
     0
 90
       50
176
     0
 62
   256
176
     0
 40
1.0
176
     0
 90
        2
176
     0
  1
strokes_ogs.tif
176
     0
290
     0
176
     0
 40
1.0
176
     0
 40
1.0
176
     0
  0
VISUALSTYLE
  5
90
102
{ACAD_REACTORS
330
82
102
}
330
82
100
AcDbVisualStyle
  2
Linepattern
 70
    14
177
     3
291
     1
 70
    58
 90
        2
176
     1
 90
        2
176
     1
 90
        1
176
     1
 90
        0
176
     1
 40
0.6
176
     1
 40
30.0
176
     1
 62
     7
420
 16777215
176
     1
 90
        1
176
     1
 90
        4
176
     1
 62
     7
176
     1
 62
   257
176
     1
 90
        7
176
     1
 90
        7
176
     1
 40
1.0
176
     1
 90
        8
176
     1
 62
     7
176
     1
 40
1.0
176
     1
 90
        1
176
     1
 90
        6
176
     1
 90
        2
176
     1
 62
     7
176
     1
 90
        5
176
     1
 90
        0
176
     1
 90
        0
176
     1
290
     0
176
     1
 90
        1
176
     1
 40
0.0
176
     1
 90
        0
176
     1
290
     0
176
     1
290
     1
176
     1
290
     1
176
     1
290
     0
176
     1
290
     0
176
     1
290
     0
176
     1
290
     0
176
     1
290
     0
176
     1
290
     0
176
     1
 90
       50
176
     1
 40
0.0
176
     1
 40
1.0
176
     1
 90
        0
176
     1
 62
    18
420
        0
176
     1
 90
       50
176
     1
 90
        3
176
     1
 62
     5
420
      255
176
     1
290
     0
176
     1
 90
       50
176
     1
 90
       50
176
     1
 90
       50
176
     1
290
     0
176
     1
 90
       50
176
     1
 62
   256
176
     0
 40
1.0
176
     0
 90
        2
176
     1
  1
strokes_ogs.tif
176
     1
290
     0
176
     1
 40
1.0
176
     1
 40
1.0
176
     1
  0
VISUALSTYLE
  5
AD
102
{ACAD_REACTORS
330
82
102
}
330
82
100
AcDbVisualStyle
  2
OverhangOff
 70
    21
177
     3
291
     1
 70
    58
 90
        2
176
     0
 90
        2
176
     0
 90
        0
176
     0
 90
        0
176
     0
 40
0.6
176
     0
 40
30.0
176
     0
 62
     7
420
 16777215
176
     0
 90
        1
176
     0
 90
        4
176
     0
 62
     7
176
     0
 62
   257
176
     0
 90
        1
176
     0
 90
        1
176
     0
 40
1.0
176
     0
 90
        9
176
     2
 62
     7
176
     0
 40
1.0
176
     0
 90
        1
176
     0
 90
        6
176
     0
 90
        2
176
     0
 62
     7
176
     0
 90
        5
176
     0
 90
        0
176
     0
 90
        0
176
     0
290
     0
176
     0
 90
        1
176
     0
 40
0.0
176
     0
 90
        0
176
     0
290
     0
176
     0
290
     1
176
     0
290
     1
176
     0
290
     0
176
     0
290
     0
176
     0
290
     0
176
     0
290
     0
176
     0
290
     0
176
     0
290
     0
176
     0
 90
       50
176
     0
 40
0.0
176
     0
 40
1.0
176
     0
 90
        0
176
     0
 62
    18
420
        0
176
     0
 90
       50
176
     0
 90
        3
176
     0
 62
     5
420
      255
176
     0
290
     0
176
     0
 90
       50
176
     0
 90
       50
176
     0
 90
       50
176
     0
290
     0
176
     0
 90
       50
176
     0
 62
   256
176
     0
 40
1.0
176
     0
 90
        2
176
     0
  1
strokes_ogs.tif
176
     0
290
     0
176
     0
 40
1.0
176
     0
 40
1.0
176
     0
  0
VISUALSTYLE
  5
8C
102
{ACAD_REACTORS
330
82
102
}
330
82
100
AcDbVisualStyle
  2
Realistic
 70
     8
177
     3
291
     0
 70
    58
 90
        2
176
     1
 90
        2
176
     1
 90
        1
176
     1
 90
        0
176
     1
 40
0.6
176
     1
 40
30.0
176
     1
 62
     7
420
 16777215
176
     1
 90
        1
176
     1
 90
        0
176
     1
 62
     7
176
     1
 62
   257
176
     1
 90
        1
176
     1
 90
        1
176
     1
 40
1.0
176
     1
 90
        8
176
     1
 62
     7
176
     1
 40
1.0
176
     1
 90
        1
176
     1
 90
        6
176
     1
 90
        2
176
     1
 62
     7
176
     1
 90
        5
176
     1
 90
        0
176
     1
 90
        0
176
     1
290
     0
176
     1
 90
       13
176
     1
 40
0.0
176
     1
 90
        0
176
     1
290
     0
176
     1
290
     1
176
     1
290
     1
176
     1
290
     0
176
     1
290
     0
176
     1
290
     0
176
     1
290
     0
176
     1
290
     0
176
     1
290
     0
176
     1
 90
       50
176
     1
 40
0.0
176
     1
 40
1.0
176
     1
 90
        0
176
     1
 62
    18
420
        0
176
     1
 90
       50
176
     1
 90
        3
176
     1
 62
     5
420
      255
176
     1
290
     0
176
     1
 90
       50
176
     1
 90
       50
176
     1
 90
       50
176
     1
290
     0
176
     1
 90
       50
176
     1
 62
   256
176
     0
 40
1.0
176
     0
 90
        2
176
     1
  1
strokes_ogs.tif
176
     1
290
     0
176
     1
 40
1.0
176
     1
 40
1.0
176
     1
  0
VISUALSTYLE
  5
AB
102
{ACAD_REACTORS
330
82
102
}
330
82
100
AcDbVisualStyle
  2
Shaded
 70
    27
177
     3
291
     0
 70
    58
 90
        2
176
     1
 90
        2
176
     1
 90
        1
176
     1
 90
        2
176
     1
 40
0.6
176
     1
 40
30.0
176
     1
 62
     7
420
 16777215
176
     1
 90
        0
176
     1
 90
        4
176
     1
 62
     7
176
     1
 62
   257
176
     1
 90
        1
176
     1
 90
        1
176
     1
 40
1.0
176
     1
 90
        8
176
     1
 62
   257
176
     1
 40
1.0
176
     1
 90
        1
176
     1
 90
        6
176
     1
 90
        2
176
     1
 62
     8
420
  7895160
176
     1
 90
        3
176
     1
 90
        0
176
     1
 90
        0
176
     1
290
     0
176
     1
 90
        5
176
     1
 40
0.0
176
     1
 90
        0
176
     1
290
     0
176
     1
290
     1
176
     1
290
     1
176
     1
290
     0
176
     1
290
     0
176
     1
290
     0
176
     1
290
     0
176
     1
290
     0
176
     1
290
     0
176
     1
 90
       50
176
     1
 40
0.0
176
     1
 40
1.0
176
     1
 90
        0
176
     1
 62
    18
420
        0
176
     1
 90
       50
176
     1
 90
        3
176
     1
 62
     5
420
      255
176
     1
290
     0
176
     1
 90
       50
176
     1
 90
       50
176
     1
 90
       50
176
     1
290
     0
176
     1
 90
       50
176
     1
 62
   256
176
     0
 40
1.0
176
     0
 90
        2
176
     1
  1
strokes_ogs.tif
176
     1
290
     0
176
     1
 40
1.0
176
     1
 40
1.0
176
     1
  0
VISUALSTYLE
  5
AA
102
{ACAD_REACTORS
330
82
102
}
330
82
100
AcDbVisualStyle
  2
Shaded with edges
 70
    26
177
     3
291
     0
 70
    58
 90
        2
176
     1
 90
        2
176
     1
 90
        1
176
     1
 90
        2
176
     1
 40
0.6
176
     1
 40
30.0
176
     1
 62
     7
420
 16777215
176
     1
 90
        1
176
     1
 90
        2
176
     1
 62
     7
176
     1
 62
   257
176
     1
 90
        2
176
     1
 90
        1
176
     1
 40
1.0
176
     1
 90
        8
176
     1
 62
   257
176
     1
 40
1.0
176
     1
 90
        1
176
     1
 90
        6
176
     1
 90
        2
176
     1
 62
     7
176
     1
 90
        3
176
     1
 90
        0
176
     1
 90
        0
176
     1
290
     0
176
     1
 90
        5
176
     1
 40
0.0
176
     1
 90
        0
176
     1
290
     0
176
     1
290
     1
176
     1
290
     1
176
     1
290
     0
176
     1
290
     0
176
     1
290
     0
176
     1
290
     0
176
     1
290
     0
176
     1
290
     0
176
     1
 90
       50
176
     1
 40
0.0
176
     1
 40
1.0
176
     1
 90
        0
176
     1
 62
    18
420
        0
176
     1
 90
       50
176
     1
 90
        3
176
     1
 62
     5
420
      255
176
     1
290
     0
176
     1
 90
       50
176
     1
 90
       50
176
     1
 90
       50
176
     1
290
     0
176
     1
 90
       50
176
     1
 62
   256
176
     0
 40
1.0
176
     0
 90
        2
176
     1
  1
strokes_ogs.tif
176
     1
290
     0
176
     1
 40
1.0
176
     1
 40
1.0
176
     1
  0
VISUALSTYLE
  5
A7
102
{ACAD_REACTORS
330
82
102
}
330
82
100
AcDbVisualStyle
  2
Shades of Gray
 70
    23
177
     3
291
     0
 70
    58
 90
        2
176
     1
 90
        2
176
     1
 90
        3
176
     1
 90
        0
176
     1
 40
0.6
176
     1
 40
30.0
176
     1
 62
     7
420
 16777215
176
     1
 90
        2
176
     1
 90
        2
176
     1
 62
     7
176
     1
 62
     7
176
     1
 90
        1
176
     1
 90
        1
176
     1
 40
40.0
176
     1
 90
        8
176
     1
 62
     7
176
     1
 40
1.0
176
     1
 90
        1
176
     1
 90
        6
176
     1
 90
        2
176
     1
 62
     7
176
     1
 90
        3
176
     1
 90
        0
176
     1
 90
        0
176
     1
290
     0
176
     1
 90
        1
176
     1
 40
0.0
176
     1
 90
        0
176
     1
290
     0
176
     1
290
     1
176
     1
290
     1
176
     1
290
     0
176
     1
290
     0
176
     1
290
     0
176
     1
290
     0
176
     1
290
     0
176
     1
290
     0
176
     1
 90
       50
176
     1
 40
0.0
176
     1
 40
1.0
176
     1
 90
        0
176
     1
 62
    18
420
        0
176
     1
 90
       50
176
     1
 90
        3
176
     1
 62
     5
420
      255
176
     1
290
     0
176
     1
 90
       50
176
     1
 90
       50
176
     1
 90
       50
176
     1
290
     0
176
     1
 90
       50
176
     1
 62
   256
176
     0
 40
1.0
176
     0
 90
        2
176
     1
  1
strokes_ogs.tif
176
     1
290
     0
176
     1
 40
1.0
176
     1
 40
1.0
176
     1
  0
VISUALSTYLE
  5
A8
102
{ACAD_REACTORS
330
82
102
}
330
82
100
AcDbVisualStyle
  2
Sketchy
 70
    24
177
     3
291
     0
 70
    58
 90
        1
176
     1
 90
        2
176
     1
 90
        2
176
     1
 90
        0
176
     1
 40
0.6
176
     1
 40
30.0
176
     1
 62
     7
420
 16777215
176
     1
 90
        2
176
     1
 90
        2
176
     1
 62
     7
176
     1
 62
     7
176
     1
 90
        1
176
     1
 90
        1
176
     1
 40
40.0
176
     1
 90
       11
176
     1
 62
     7
176
     1
 40
1.0
176
     1
 90
        1
176
     1
 90
        6
176
     1
 90
        2
176
     1
 62
     7
176
     1
 90
        6
176
     1
 90
        0
176
     1
 90
        0
176
     1
290
     0
176
     1
 90
        1
176
     1
 40
0.0
176
     1
 90
        0
176
     1
290
     0
176
     1
290
     1
176
     1
290
     1
176
     1
290
     0
176
     1
290
     0
176
     1
290
     0
176
     1
290
     0
176
     1
290
     0
176
     1
290
     0
176
     1
 90
       50
176
     1
 40
0.0
176
     1
 40
1.0
176
     1
 90
        0
176
     1
 62
    18
420
        0
176
     1
 90
       50
176
     1
 90
        3
176
     1
 62
     5
420
      255
176
     1
290
     0
176
     1
 90
       50
176
     1
 90
       50
176
     1
 90
       50
176
     1
290
     0
176
     1
 90
       50
176
     1
 62
   256
176
     0
 40
1.0
176
     0
 90
        2
176
     1
  1
strokes_ogs.tif
176
     1
290
     0
176
     1
 40
1.0
176
     1
 40
1.0
176
     1
  0
VISUALSTYLE
  5
8F
102
{ACAD_REACTORS
330
82
102
}
330
82
100
AcDbVisualStyle
  2
Thicken
 70
    13
177
     3
291
     1
 70
    58
 90
        2
176
     1
 90
        2
176
     1
 90
        1
176
     1
 90
        0
176
     1
 40
0.6
176
     1
 40
30.0
176
     1
 62
     7
420
 16777215
176
     1
 90
        1
176
     1
 90
        4
176
     1
 62
     7
176
     1
 62
   257
176
     1
 90
        1
176
     1
 90
        1
176
     1
 40
1.0
176
     1
 90
       12
176
     1
 62
     7
176
     1
 40
1.0
176
     1
 90
        1
176
     1
 90
        6
176
     1
 90
        2
176
     1
 62
     7
176
     1
 90
        5
176
     1
 90
        0
176
     1
 90
        0
176
     1
290
     0
176
     1
 90
        1
176
     1
 40
0.0
176
     1
 90
        0
176
     1
290
     0
176
     1
290
     1
176
     1
290
     1
176
     1
290
     0
176
     1
290
     0
176
     1
290
     0
176
     1
290
     0
176
     1
290
     0
176
     1
290
     0
176
     1
 90
       50
176
     1
 40
0.0
176
     1
 40
1.0
176
     1
 90
        0
176
     1
 62
    18
420
        0
176
     1
 90
       50
176
     1
 90
        3
176
     1
 62
     5
420
      255
176
     1
290
     0
176
     1
 90
       50
176
     1
 90
       50
176
     1
 90
       50
176
     1
290
     0
176
     1
 90
       50
176
     1
 62
   256
176
     0
 40
1.0
176
     0
 90
        2
176
     1
  1
strokes_ogs.tif
176
     1
290
     0
176
     1
 40
1.0
176
     1
 40
1.0
176
     1
  0
VISUALSTYLE
  5
A5
102
{ACAD_REACTORS
330
82
102
}
330
82
100
AcDbVisualStyle
  2
Wireframe
 70
     5
177
     3
291
     0
 70
    58
 90
        0
176
     1
 90
        2
176
     1
 90
        0
176
     1
 90
        0
176
     1
 40
0.6
176
     1
 40
30.0
176
     1
 62
     7
420
 16777215
176
     1
 90
        1
176
     1
 90
        4
176
     1
 62
     7
176
     1
 62
   257
176
     1
 90
        1
176
     1
 90
        1
176
     1
 40
1.0
176
     1
 90
        0
176
     1
 62
   257
176
     1
 40
1.0
176
     1
 90
        1
176
     1
 90
        6
176
     1
 90
        2
176
     1
 62
     7
176
     1
 90
        3
176
     1
 90
        0
176
     1
 90
        0
176
     1
290
     0
176
     1
 90
        1
176
     1
 40
0.0
176
     1
 90
        0
176
     1
290
     0
176
     1
290
     1
176
     1
290
     1
176
     1
290
     0
176
     1
290
     0
176
     1
290
     0
176
     1
290
     0
176
     1
290
     0
176
     1
290
     0
176
     1
 90
       50
176
     1
 40
0.0
176
     1
 40
1.0
176
     1
 90
        0
176
     1
 62
    18
420
        0
176
     1
 90
       50
176
     1
 90
        3
176
     1
 62
     5
420
      255
176
     1
290
     0
176
     1
 90
       50
176
     1
 90
       50
176
     1
 90
       50
176
     1
290
     0
176
     1
 90
       50
176
     1
 62
   256
176
     0
 40
1.0
176
     0
 90
        2
176
     1
  1
strokes_ogs.tif
176
     1
290
     0
176
     1
 40
1.0
176
     1
 40
1.0
176
     1
  0
VISUALSTYLE
  5
A9
102
{ACAD_REACTORS
330
82
102
}
330
82
100
AcDbVisualStyle
  2
X-Ray
 70
    25
177
     3
291
     0
 70
    58
 90
        2
176
     1
 90
        2
176
     1
 90
        1
176
     1
 90
        1
176
     1
 40
0.5
176
     1
 40
30.0
176
     1
 62
     7
420
 16777215
176
     1
 90
        1
176
     1
 90
        0
176
     1
 62
     7
176
     1
 62
   257
176
     1
 90
        1
176
     1
 90
        1
176
     1
 40
1.0
176
     1
 90
        8
176
     1
 62
     7
176
     1
 40
1.0
176
     1
 90
        1
176
     1
 90
        6
176
     1
 90
        2
176
     1
 62
     7
176
     1
 90
        3
176
     1
 90
        0
176
     1
 90
        0
176
     1
290
     0
176
     1
 90
       13
176
     1
 40
0.0
176
     1
 90
        0
176
     1
290
     0
176
     1
290
     1
176
     1
290
     1
176
     1
290
     0
176
     1
290
     0
176
     1
290
     0
176
     1
290
     0
176
     1
290
     0
176
     1
290
     0
176
     1
 90
       50
176
     1
 40
0.0
176
     1
 40
1.0
176
     1
 90
        0
176
     1
 62
    18
420
        0
176
     1
 90
       50
176
     1
 90
        3
176
     1
 62
     5
420
      255
176
     1
290
     0
176
     1
 90
       50
176
     1
 90
       50
176
     1
 90
       50
176
     1
290
     0
176
     1
 90
       50
176
     1
 62
   256
176
     0
 40
1.0
176
     0
 90
        2
176
     1
  1
strokes_ogs.tif
176
     1
290
     0
176
     1
 40
1.0
176
     1
 40
1.0
176
     1
  0
DICTIONARYVAR
  5
377
102
{ACAD_REACTORS
330
9B
102
}
330
9B
100
DictionaryVariables
280
     0
  1
1:1
  0
DICTIONARYVAR
  5
373
102
{ACAD_REACTORS
330
9B
102
}
330
9B
100
DictionaryVariables
280
     0
  1
STANDARD
  0
DICTIONARYVAR
  5
9C
102
{ACAD_REACTORS
330
9B
102
}
330
9B
100
DictionaryVariables
280
     0
  1
STANDARD
  0
DICTIONARYVAR
  5
374
102
{ACAD_REACTORS
330
9B
102
}
330
9B
100
DictionaryVariables
280
     0
  1
Imperial24
  0
DICTIONARYVAR
  5
375
102
{ACAD_REACTORS
330
9B
102
}
330
9B
100
DictionaryVariables
280
     0
  1
Imperial24
  0
DICTIONARYVAR
  5
379
102
{ACAD_REACTORS
330
9B
102
}
330
9B
100
DictionaryVariables
280
     0
  1
1
  0
DICTIONARYVAR
  5
37A
102
{ACAD_REACTORS
330
9B
102
}
330
9B
100
DictionaryVariables
280
     0
  1
15
  0
DICTIONARYVAR
  5
378
102
{ACAD_REACTORS
330
9B
102
}
330
9B
100
DictionaryVariables
280
     0
  1
0
  0
DICTIONARYVAR
  5
376
102
{ACAD_REACTORS
330
9B
102
}
330
9B
100
DictionaryVariables
280
     0
  1
0
  0
DICTIONARY
  5
37F
330
C6
100
AcDbDictionary
280
     1
281
     1
  3
ACAD_XREC_ROUNDTRIP
360
380
  0
DICTIONARY
  5
37D
330
C4
100
AcDbDictionary
280
     1
281
     1
  3
ACAD_XREC_ROUNDTRIP
360
37E
  0
DICTIONARY
  5
37B
330
94
100
AcDbDictionary
280
     1
281
     1
  3
ACAD_ROUNDTRIP_2008_TABLESTYLE_CELLSTYLEMAP
360
37C
  0
XRECORD
  5
380
102
{ACAD_REACTORS
330
37F
102
}
330
37F
100
AcDbXrecord
280
     1
102
DISPLAYNAME
  1
Imperial24
102
FLAGS
 90
        0
  0
XRECORD
  5
37E
102
{ACAD_REACTORS
330
37D
102
}
330
37D
100
AcDbXrecord
280
     1
102
DISPLAYNAME
  1
Imperial24
102
FLAGS
 90
        0
  0
CELLSTYLEMAP
  5
37C
102
{ACAD_REACTORS
330
37B
102
}
330
37B
100
AcDbCellStyleMap
 90
        3
300
CELLSTYLE
  1
TABLEFORMAT_BEGIN
 90
        5
170
     1
 91
        0
 92
    32768
 62
   257
 93
        1
300
CONTENTFORMAT
  1
CONTENTFORMAT_BEGIN
 90
        0
 91
        0
 92
      512
 93
        0
300

 40
0.0
140
1.0
 94
        5
 62
     0
340
12
144
0.25
309
CONTENTFORMAT_END
171
     0
 94
        6
 95
        1
302
GRIDFORMAT
  1
GRIDFORMAT_BEGIN
 90
        0
 91
        1
 62
     0
 92
       -2
340
0
 93
        0
 40
0.045
309
GRIDFORMAT_END
 95
        2
302
GRIDFORMAT
  1
GRIDFORMAT_BEGIN
 90
        0
 91
        1
 62
     0
 92
       -2
340
0
 93
        0
 40
0.045
309
GRIDFORMAT_END
 95
        4
302
GRIDFORMAT
  1
GRIDFORMAT_BEGIN
 90
        0
 91
        1
 62
     0
 92
       -2
340
0
 93
        0
 40
0.045
309
GRIDFORMAT_END
 95
        8
302
GRIDFORMAT
  1
GRIDFORMAT_BEGIN
 90
        0
 91
        1
 62
     0
 92
       -2
340
0
 93
        0
 40
0.045
309
GRIDFORMAT_END
 95
       16
302
GRIDFORMAT
  1
GRIDFORMAT_BEGIN
 90
        0
 91
        1
 62
     0
 92
       -2
340
0
 93
        0
 40
0.045
309
GRIDFORMAT_END
 95
       32
302
GRIDFORMAT
  1
GRIDFORMAT_BEGIN
 90
        0
 91
        1
 62
     0
 92
       -2
340
0
 93
        0
 40
0.045
309
GRIDFORMAT_END
309
TABLEFORMAT_END
  1
CELLSTYLE_BEGIN
 90
        1
 91
        1
300
_TITLE
309
CELLSTYLE_END
300
CELLSTYLE
  1
TABLEFORMAT_BEGIN
 90
        5
170
     1
 91
        0
 92
        0
 62
   257
 93
        1
300
CONTENTFORMAT
  1
CONTENTFORMAT_BEGIN
 90
        0
 91
        0
 92
      512
 93
        0
300

 40
0.0
140
1.0
 94
        5
 62
     0
340
12
144
0.18
309
CONTENTFORMAT_END
171
     0
 94
        6
 95
        1
302
GRIDFORMAT
  1
GRIDFORMAT_BEGIN
 90
        0
 91
        1
 62
     0
 92
       -2
340
0
 93
        0
 40
0.045
309
GRIDFORMAT_END
 95
        2
302
GRIDFORMAT
  1
GRIDFORMAT_BEGIN
 90
        0
 91
        1
 62
     0
 92
       -2
340
0
 93
        0
 40
0.045
309
GRIDFORMAT_END
 95
        4
302
GRIDFORMAT
  1
GRIDFORMAT_BEGIN
 90
        0
 91
        1
 62
     0
 92
       -2
340
0
 93
        0
 40
0.045
309
GRIDFORMAT_END
 95
        8
302
GRIDFORMAT
  1
GRIDFORMAT_BEGIN
 90
        0
 91
        1
 62
     0
 92
       -2
340
0
 93
        0
 40
0.045
309
GRIDFORMAT_END
 95
       16
302
GRIDFORMAT
  1
GRIDFORMAT_BEGIN
 90
        0
 91
        1
 62
     0
 92
       -2
340
0
 93
        0
 40
0.045
309
GRIDFORMAT_END
 95
       32
302
GRIDFORMAT
  1
GRIDFORMAT_BEGIN
 90
        0
 91
        1
 62
     0
 92
       -2
340
0
 93
        0
 40
0.045
309
GRIDFORMAT_END
309
TABLEFORMAT_END
  1
CELLSTYLE_BEGIN
 90
        2
 91
        1
300
_HEADER
309
CELLSTYLE_END
300
CELLSTYLE
  1
TABLEFORMAT_BEGIN
 90
        5
170
     1
 91
        0
 92
        0
 62
   257
 93
        1
300
CONTENTFORMAT
  1
CONTENTFORMAT_BEGIN
 90
        0
 91
        0
 92
      512
 93
        0
300

 40
0.0
140
1.0
 94
        2
 62
     0
340
12
144
0.18
309
CONTENTFORMAT_END
171
     0
 94
        6
 95
        1
302
GRIDFORMAT
  1
GRIDFORMAT_BEGIN
 90
        0
 91
        1
 62
     0
 92
       -2
340
0
 93
        0
 40
0.045
309
GRIDFORMAT_END
 95
        2
302
GRIDFORMAT
  1
GRIDFORMAT_BEGIN
 90
        0
 91
        1
 62
     0
 92
       -2
340
0
 93
        0
 40
0.045
309
GRIDFORMAT_END
 95
        4
302
GRIDFORMAT
  1
GRIDFORMAT_BEGIN
 90
        0
 91
        1
 62
     0
 92
       -2
340
0
 93
        0
 40
0.045
309
GRIDFORMAT_END
 95
        8
302
GRIDFORMAT
  1
GRIDFORMAT_BEGIN
 90
        0
 91
        1
 62
     0
 92
       -2
340
0
 93
        0
 40
0.045
309
GRIDFORMAT_END
 95
       16
302
GRIDFORMAT
  1
GRIDFORMAT_BEGIN
 90
        0
 91
        1
 62
     0
 92
       -2
340
0
 93
        0
 40
0.045
309
GRIDFORMAT_END
 95
       32
302
GRIDFORMAT
  1
GRIDFORMAT_BEGIN
 90
        0
 91
        1
 62
     0
 92
       -2
340
0
 93
        0
 40
0.045
309
GRIDFORMAT_END
309
TABLEFORMAT_END
  1
CELLSTYLE_BEGIN
 90
        3
 91
        2
300
_DATA
309
CELLSTYLE_END
  0
ENDSEC
  0
EOF
